  0
SECTION
  2
HEADER
  9
$ACADVER
  1
AC1009
  9
$INSBASE
 10
0.0
 20
0.0
 30
0.0
  9
$EXTMIN
 10
-0.006408
 20
-0.009063
 30
-0.001526
  9
$EXTMAX
 10
210.006409
 20
297.009064
 30
0.0
  9
$LIMMIN
 10
0.0
 20
0.0
  9
$LIMMAX
 10
210.0
 20
297.0
  9
$ORTHOMODE
 70
     1
  9
$REGENMODE
 70
     1
  9
$FILLMODE
 70
     1
  9
$QTEXTMODE
 70
     0
  9
$MIRRTEXT
 70
     1
  9
$DRAGMODE
 70
     2
  9
$LTSCALE
 40
19.36
  9
$OSMODE
 70
     0
  9
$ATTMODE
 70
     1
  9
$TEXTSIZE
 40
0.2
  9
$TRACEWID
 40
0.05
  9
$TEXTSTYLE
  7
STANDARD
  9
$CLAYER
  8
0
  9
$CELTYPE
  6
BYLAYER
  9
$CECOLOR
 62
   256
  9
$DIMSCALE
 40
1.0
  9
$DIMASZ
 40
3.5
  9
$DIMEXO
 40
2.2
  9
$DIMDLI
 40
13.376
  9
$DIMRND
 40
0.0
  9
$DIMDLE
 40
0.0
  9
$DIMEXE
 40
6.336
  9
$DIMTP
 40
0.0
  9
$DIMTM
 40
0.0
  9
$DIMTXT
 40
3.5
  9
$DIMCEN
 40
3.168
  9
$DIMTSZ
 40
0.0
  9
$DIMTOL
 70
     0
  9
$DIMLIM
 70
     0
  9
$DIMTIH
 70
     1
  9
$DIMTOH
 70
     1
  9
$DIMSE1
 70
     0
  9
$DIMSE2
 70
     0
  9
$DIMTAD
 70
     0
  9
$DIMZIN
 70
     0
  9
$DIMBLK
  1
_FILLED
  9
$DIMASO
 70
     1
  9
$DIMSHO
 70
     1
  9
$DIMPOST
  1

  9
$DIMAPOST
  1

  9
$DIMALT
 70
     0
  9
$DIMALTD
 70
     2
  9
$DIMALTF
 40
25.4
  9
$DIMLFAC
 40
1.0
  9
$DIMTOFL
 70
     0
  9
$DIMTVP
 40
0.0
  9
$DIMTIX
 70
     0
  9
$DIMSOXD
 70
     0
  9
$DIMSAH
 70
     0
  9
$DIMBLK1
  1

  9
$DIMBLK2
  1

  9
$DIMSTYLE
  2
STANDARD
  9
$DIMCLRD
 70
     0
  9
$DIMCLRE
 70
     0
  9
$DIMCLRT
 70
     0
  9
$DIMTFAC
 40
1.0
  9
$DIMGAP
 40
0.09
  9
$LUNITS
 70
     2
  9
$LUPREC
 70
     4
  9
$SKETCHINC
 40
0.1
  9
$FILLETRAD
 40
0.0
  9
$AUNITS
 70
     0
  9
$AUPREC
 70
     0
  9
$MENU
  1
.
  9
$ELEVATION
 40
0.0
  9
$PELEVATION
 40
0.0
  9
$THICKNESS
 40
0.0
  9
$LIMCHECK
 70
     0
  9
$BLIPMODE
 70
     0
  9
$CHAMFERA
 40
0.0
  9
$CHAMFERB
 40
0.0
  9
$SKPOLY
 70
     0
  9
$TDCREATE
 40
0.0
  9
$TDUPDATE
 40
2453117.658991
  9
$TDINDWG
 40
0.011202
  9
$TDUSRTIMER
 40
0.011202
  9
$USRTIMER
 70
     1
  9
$ANGBASE
 50
0.0
  9
$ANGDIR
 70
     0
  9
$PDMODE
 70
     3
  9
$PDSIZE
 40
0.3125
  9
$PLINEWID
 40
0.0
  9
$COORDS
 70
     1
  9
$SPLFRAME
 70
     0
  9
$SPLINETYPE
 70
     6
  9
$SPLINESEGS
 70
     8
  9
$ATTDIA
 70
     0
  9
$ATTREQ
 70
     1
  9
$HANDLING
 70
     1
  9
$HANDSEED
  5
187
  9
$SURFTAB1
 70
     6
  9
$SURFTAB2
 70
     6
  9
$SURFTYPE
 70
     6
  9
$SURFU
 70
     6
  9
$SURFV
 70
     6
  9
$UCSNAME
  2

  9
$UCSORG
 10
0.0
 20
0.0
 30
0.0
  9
$UCSXDIR
 10
1.0
 20
0.0
 30
0.0
  9
$UCSYDIR
 10
0.0
 20
1.0
 30
0.0
  9
$PUCSNAME
  2

  9
$PUCSORG
 10
0.0
 20
0.0
 30
0.0
  9
$PUCSXDIR
 10
1.0
 20
0.0
 30
0.0
  9
$PUCSYDIR
 10
0.0
 20
1.0
 30
0.0
  9
$USERI1
 70
     0
  9
$USERI2
 70
     0
  9
$USERI3
 70
     0
  9
$USERI4
 70
     0
  9
$USERI5
 70
     0
  9
$USERR1
 40
0.0
  9
$USERR2
 40
0.0
  9
$USERR3
 40
0.0
  9
$USERR4
 40
0.0
  9
$USERR5
 40
0.0
  9
$WORLDVIEW
 70
     1
  9
$SHADEDGE
 70
     3
  9
$SHADEDIF
 70
    70
  9
$TILEMODE
 70
     1
  9
$MAXACTVP
 70
    48
  9
$PLIMCHECK
 70
     0
  9
$PEXTMIN
 10
1.000000E+020
 20
1.000000E+020
 30
1.000000E+020
  9
$PEXTMAX
 10
-1.000000E+020
 20
-1.000000E+020
 30
-1.000000E+020
  9
$PLIMMIN
 10
0.0
 20
0.0
  9
$PLIMMAX
 10
12.0
 20
9.0
  9
$UNITMODE
 70
     0
  9
$VISRETAIN
 70
     1
  9
$PLINEGEN
 70
     0
  9
$PSLTSCALE
 70
     1
  0
ENDSEC
  0
SECTION
  2
TABLES
  0
TABLE
  2
VPORT
 70
     2
  0
VPORT
  2
*ACTIVE
 70
     0
 10
0.0
 20
0.0
 11
1.0
 21
1.0
 12
105.0
 22
148.500001
 13
0.0
 23
0.0
 14
1.0
 24
1.0
 15
0.0
 25
0.0
 16
0.0
 26
0.0
 36
1.0
 17
0.0
 27
0.0
 37
0.0
 40
299.242982
 41
1.525
 42
50.0
 43
0.0
 44
0.0
 50
0.0
 51
0.0
 71
     0
 72
   100
 73
     1
 74
     1
 75
     0
 76
     0
 77
     0
 78
     0
  0
ENDTAB
  0
TABLE
  2
LTYPE
 70
     2
  0
LTYPE
  2
CONTINUOUS
 70
     0
  3
Solid line
 72
    65
 73
     0
 40
0.0
  0
LTYPE
  2
CENTER
 70
     0
  3
____ _ ____ _ ____ _ ____ _ ____ _ ____ _ ____
 72
    65
 73
     4
 40
0.6
 49
0.375
 49
-0.075
 49
0.075
 49
-0.075
  0
ENDTAB
  0
TABLE
  2
LAYER
 70
     4
  0
LAYER
  2
0
 70
     0
 62
     7
  6
CONTINUOUS
  0
LAYER
  2
DEFAULT_1
 70
     0
 62
     7
  6
CENTER
  0
LAYER
  2
ZEICHNUNGSBEMASSUNGEN
 70
     0
 62
     7
  6
CONTINUOUS
  0
LAYER
  2
ZEICHNUNGSBEMAßUNGEN
 70
     0
 62
     7
  6
CONTINUOUS
  0
ENDTAB
  0
TABLE
  2
STYLE
 70
     1
  0
STYLE
  2
STANDARD
 70
     0
 40
0.0
 41
1.0
 50
0.0
 71
     0
 42
0.2
  3
txt
  4

  0
ENDTAB
  0
TABLE
  2
VIEW
 70
     0
  0
ENDTAB
  0
TABLE
  2
UCS
 70
     0
  0
ENDTAB
  0
TABLE
  2
APPID
 70
     1
  0
APPID
  2
ACAD
 70
     0
  0
ENDTAB
  0
TABLE
  2
DIMSTYLE
 70
     1
  0
DIMSTYLE
  2
STANDARD
 70
     0
  3

  4

  5

  6

  7

 40
1.0
 41
0.18
 42
0.0625
 43
0.38
 44
0.18
 45
0.0
 46
0.0
 47
0.0
 48
0.0
140
0.18
141
0.09
142
0.0
143
25.4
144
1.0
145
0.0
146
1.0
147
0.09
 71
     0
 72
     0
 73
     1
 74
     1
 75
     0
 76
     0
 77
     0
 78
     0
170
     0
171
     2
172
     0
173
     0
174
     0
175
     0
176
     0
177
     0
178
     0
  0
ENDTAB
  0
ENDSEC
  0
SECTION
  2
BLOCKS
  0
BLOCK
  8
0
  2
$MODEL_SPACE
 70
     0
 10
0.0
 20
0.0
 30
0.0
  3
$MODEL_SPACE
  1

  0
ENDBLK
  5
6
  8
0
  0
BLOCK
 67
     1
  8
0
  2
$PAPER_SPACE
 70
     0
 10
0.0
 20
0.0
 30
0.0
  3
$PAPER_SPACE
  1

  0
ENDBLK
  5
9
 67
     1
  8
0
  0
BLOCK
  8
0
  6
CONTINUOUS
 62
     2
  2
NEUTRIK_LOGO_BL0
 70
     0
 10
98.024593
 20
9.206666
 30
0.0
  3
NEUTRIK_LOGO_BL0
  1

  0
LINE
  5
3D
  8
0
  6
CONTINUOUS
 62
     2
 10
77.554436
 20
8.032986
 30
0.0
 11
75.053986
 21
9.542003
 31
0.0
  0
LINE
  5
3E
  8
0
  6
CONTINUOUS
 62
     2
 10
75.201807
 20
10.380346
 30
0.0
 11
77.702259
 21
8.871328
 31
0.0
  0
LINE
  5
3F
  8
0
  6
CONTINUOUS
 62
     2
 10
107.650942
 20
8.032986
 30
0.0
 11
106.053026
 21
8.955163
 31
0.0
  0
LINE
  5
40
  8
0
  6
CONTINUOUS
 62
     2
 10
97.319479
 20
8.871328
 30
0.0
 11
98.596839
 21
8.032986
 31
0.0
  0
LINE
  5
41
  8
0
  6
CONTINUOUS
 62
     2
 10
100.525027
 20
8.032986
 30
0.0
 11
99.247668
 21
8.871328
 31
0.0
  0
LINE
  5
42
  8
0
  6
CONTINUOUS
 62
     2
 10
107.855491
 20
9.2905
 30
0.0
 11
109.746798
 21
8.032986
 31
0.0
  0
LINE
  5
43
  8
0
  6
CONTINUOUS
 62
     2
 10
115.141399
 20
10.184385
 30
0.0
 11
115.4712
 21
8.86518
 31
0.0
  0
LINE
  5
44
  8
0
  6
CONTINUOUS
 62
     2
 10
115.562198
 20
8.501189
 30
0.0
 11
115.679249
 21
8.032986
 31
0.0
  0
LINE
  5
45
  8
0
  6
CONTINUOUS
 62
     2
 10
116.611688
 20
10.380346
 30
0.0
 11
117.198528
 21
8.032986
 31
0.0
  0
LINE
  5
46
  8
0
  6
CONTINUOUS
 62
     2
 10
73.195054
 20
8.032986
 30
0.0
 11
73.608956
 21
10.380346
 31
0.0
  0
LINE
  5
47
  8
0
  6
CONTINUOUS
 62
     2
 10
75.053986
 20
9.542003
 30
0.0
 11
74.787905
 21
8.032986
 31
0.0
  0
LINE
  5
48
  8
0
  6
CONTINUOUS
 62
     2
 10
77.702259
 20
8.871328
 30
0.0
 11
77.968338
 21
10.380346
 31
0.0
  0
LINE
  5
49
  8
0
  6
CONTINUOUS
 62
     2
 10
79.56119
 20
10.380346
 30
0.0
 11
79.147287
 21
8.032986
 31
0.0
  0
LINE
  5
4A
  8
0
  6
CONTINUOUS
 62
     2
 10
80.404801
 20
8.032986
 30
0.0
 11
80.818704
 21
10.380346
 31
0.0
  0
LINE
  5
4B
  8
0
  6
CONTINUOUS
 62
     2
 10
82.239028
 20
9.87734
 30
0.0
 11
82.165117
 21
9.458168
 31
0.0
  0
LINE
  5
4C
  8
0
  6
CONTINUOUS
 62
     2
 10
82.076423
 20
8.955163
 30
0.0
 11
82.002512
 21
8.535992
 31
0.0
  0
LINE
  5
4D
  8
0
  6
CONTINUOUS
 62
     2
 10
84.344808
 20
9.458168
 30
0.0
 11
84.256114
 21
8.955163
 31
0.0
  0
LINE
  5
4E
  8
0
  6
CONTINUOUS
 62
     2
 10
85.010418
 20
10.380346
 30
0.0
 11
84.921725
 21
9.87734
 31
0.0
  0
LINE
  5
4F
  8
0
  6
CONTINUOUS
 62
     2
 10
84.685208
 20
8.535992
 30
0.0
 11
84.596515
 21
8.032986
 31
0.0
  0
LINE
  5
50
  8
0
  6
CONTINUOUS
 62
     2
 10
85.578942
 20
8.850126
 30
0.0
 11
85.848761
 21
10.380346
 31
0.0
  0
LINE
  5
51
  8
0
  6
CONTINUOUS
 62
     2
 10
87.357777
 20
10.380346
 30
0.0
 11
87.111953
 21
8.986201
 31
0.0
  0
LINE
  5
52
  8
0
  6
CONTINUOUS
 62
     2
 10
88.942344
 20
8.90702
 30
0.0
 11
89.202132
 21
10.380346
 31
0.0
  0
LINE
  5
53
  8
0
  6
CONTINUOUS
 62
     2
 10
90.711149
 20
10.380346
 30
0.0
 11
90.414563
 21
8.698324
 31
0.0
  0
LINE
  5
54
  8
0
  6
CONTINUOUS
 62
     2
 10
91.194513
 20
9.793506
 30
0.0
 11
91.297989
 21
10.380346
 31
0.0
  0
LINE
  5
55
  8
0
  6
CONTINUOUS
 62
     2
 10
92.057766
 20
8.032986
 30
0.0
 11
92.368193
 21
9.793506
 31
0.0
  0
LINE
  5
56
  8
0
  6
CONTINUOUS
 62
     2
 10
94.044878
 20
9.793506
 30
0.0
 11
93.734452
 21
8.032986
 31
0.0
  0
LINE
  5
57
  8
0
  6
CONTINUOUS
 62
     2
 10
95.322034
 20
10.380346
 30
0.0
 11
95.218558
 21
9.793506
 31
0.0
  0
LINE
  5
58
  8
0
  6
CONTINUOUS
 62
     2
 10
95.908874
 20
10.380346
 30
0.0
 11
95.494972
 21
8.032986
 31
0.0
  0
LINE
  5
59
  8
0
  6
CONTINUOUS
 62
     2
 10
97.171657
 20
8.032986
 30
0.0
 11
97.319479
 21
8.871328
 31
0.0
  0
LINE
  5
5A
  8
0
  6
CONTINUOUS
 62
     2
 10
97.408172
 20
9.374335
 30
0.0
 11
97.511648
 21
9.961174
 31
0.0
  0
LINE
  5
5B
  8
0
  6
CONTINUOUS
 62
     2
 10
101.195702
 20
8.032986
 30
0.0
 11
101.609605
 21
10.380346
 31
0.0
  0
LINE
  5
5C
  8
0
  6
CONTINUOUS
 62
     2
 10
103.28629
 20
10.380346
 30
0.0
 11
102.872387
 21
8.032986
 31
0.0
  0
LINE
  5
5D
  8
0
  6
CONTINUOUS
 62
     2
 10
104.213736
 20
8.032986
 30
0.0
 11
104.627639
 21
10.380346
 31
0.0
  0
LINE
  5
5E
  8
0
  6
CONTINUOUS
 62
     2
 10
106.304324
 20
10.380346
 30
0.0
 11
106.112155
 21
9.2905
 31
0.0
  0
LINE
  5
5F
  8
0
  6
CONTINUOUS
 62
     2
 10
106.053026
 20
8.955163
 30
0.0
 11
105.890422
 21
8.032986
 31
0.0
  0
LINE
  5
60
  8
0
  6
CONTINUOUS
 62
     2
 10
117.892316
 20
8.531394
 30
0.0
 11
118.14058
 21
9.939369
 31
0.0
  0
LINE
  5
61
  8
0
  6
CONTINUOUS
 62
     2
 10
119.463721
 20
8.852643
 30
0.0
 11
119.619678
 21
9.737114
 31
0.0
  0
LINE
  5
62
  8
0
  6
CONTINUOUS
 62
     2
 10
120.556177
 20
8.881252
 30
0.0
 11
120.594483
 21
9.098491
 31
0.0
  0
LINE
  5
63
  8
0
  6
CONTINUOUS
 62
     2
 10
121.012509
 20
8.032986
 30
0.0
 11
121.017391
 21
8.060672
 31
0.0
  0
LINE
  5
64
  8
0
  6
CONTINUOUS
 62
     2
 10
121.143023
 20
8.773166
 30
0.0
 11
121.162082
 21
8.881252
 31
0.0
  0
LINE
  5
65
  8
0
  6
CONTINUOUS
 62
     2
 10
122.527271
 20
8.032986
 30
0.0
 11
122.715148
 21
9.098491
 31
0.0
  0
LINE
  5
66
  8
0
  6
CONTINUOUS
 62
     2
 10
122.829106
 20
9.74478
 30
0.0
 11
122.854131
 21
9.886706
 31
0.0
  0
LINE
  5
67
  8
0
  6
CONTINUOUS
 62
     2
 10
109.746798
 20
8.032986
 30
0.0
 11
107.650942
 21
8.032986
 31
0.0
  0
LINE
  5
68
  8
0
  6
CONTINUOUS
 62
     2
 10
73.195054
 20
8.032986
 30
0.0
 11
74.787905
 21
8.032986
 31
0.0
  0
LINE
  5
69
  8
0
  6
CONTINUOUS
 62
     2
 10
105.890422
 20
8.032986
 30
0.0
 11
104.213736
 21
8.032986
 31
0.0
  0
LINE
  5
6A
  8
0
  6
CONTINUOUS
 62
     2
 10
102.872387
 20
8.032986
 30
0.0
 11
101.195702
 21
8.032986
 31
0.0
  0
LINE
  5
6B
  8
0
  6
CONTINUOUS
 62
     2
 10
93.734452
 20
8.032986
 30
0.0
 11
92.057766
 21
8.032986
 31
0.0
  0
LINE
  5
6C
  8
0
  6
CONTINUOUS
 62
     2
 10
95.494972
 20
8.032986
 30
0.0
 11
97.171657
 21
8.032986
 31
0.0
  0
LINE
  5
6D
  8
0
  6
CONTINUOUS
 62
     2
 10
84.596515
 20
8.032986
 30
0.0
 11
80.404801
 21
8.032986
 31
0.0
  0
LINE
  5
6E
  8
0
  6
CONTINUOUS
 62
     2
 10
98.596839
 20
8.032986
 30
0.0
 11
100.525027
 21
8.032986
 31
0.0
  0
LINE
  5
6F
  8
0
  6
CONTINUOUS
 62
     2
 10
79.147287
 20
8.032986
 30
0.0
 11
77.554436
 21
8.032986
 31
0.0
  0
LINE
  5
70
  8
0
  6
CONTINUOUS
 62
     2
 10
111.893016
 20
8.032986
 30
0.0
 11
113.52785
 21
8.032986
 31
0.0
  0
LINE
  5
71
  8
0
  6
CONTINUOUS
 62
     2
 10
115.679249
 20
8.032986
 30
0.0
 11
117.198528
 21
8.032986
 31
0.0
  0
LINE
  5
72
  8
0
  6
CONTINUOUS
 62
     2
 10
121.012509
 20
8.032986
 30
0.0
 11
122.527271
 21
8.032986
 31
0.0
  0
LINE
  5
73
  8
0
  6
CONTINUOUS
 62
     2
 10
113.879001
 20
8.501189
 30
0.0
 11
115.562198
 21
8.501189
 31
0.0
  0
LINE
  5
74
  8
0
  6
CONTINUOUS
 62
     2
 10
82.002512
 20
8.535992
 30
0.0
 11
84.685208
 21
8.535992
 31
0.0
  0
LINE
  5
75
  8
0
  6
CONTINUOUS
 62
     2
 10
114.151995
 20
8.86518
 30
0.0
 11
115.4712
 21
8.86518
 31
0.0
  0
LINE
  5
76
  8
0
  6
CONTINUOUS
 62
     2
 10
120.556177
 20
8.881252
 30
0.0
 11
121.162082
 21
8.881252
 31
0.0
  0
LINE
  5
77
  8
0
  6
CONTINUOUS
 62
     2
 10
84.256114
 20
8.955163
 30
0.0
 11
82.076423
 21
8.955163
 31
0.0
  0
LINE
  5
78
  8
0
  6
CONTINUOUS
 62
     2
 10
120.594483
 20
9.098491
 30
0.0
 11
122.715148
 21
9.098491
 31
0.0
  0
LINE
  5
79
  8
0
  6
CONTINUOUS
 62
     2
 10
98.469332
 20
9.374335
 30
0.0
 11
97.408172
 21
9.374335
 31
0.0
  0
LINE
  5
7A
  8
0
  6
CONTINUOUS
 62
     2
 10
82.165117
 20
9.458168
 30
0.0
 11
84.344808
 21
9.458168
 31
0.0
  0
LINE
  5
7B
  8
0
  6
CONTINUOUS
 62
     2
 10
121.292953
 20
9.74478
 30
0.0
 11
122.829106
 21
9.74478
 31
0.0
  0
LINE
  5
7C
  8
0
  6
CONTINUOUS
 62
     2
 10
95.218558
 20
9.793506
 30
0.0
 11
94.044878
 21
9.793506
 31
0.0
  0
LINE
  5
7D
  8
0
  6
CONTINUOUS
 62
     2
 10
92.368193
 20
9.793506
 30
0.0
 11
91.194513
 21
9.793506
 31
0.0
  0
LINE
  5
7E
  8
0
  6
CONTINUOUS
 62
     2
 10
84.921725
 20
9.87734
 30
0.0
 11
82.239028
 21
9.87734
 31
0.0
  0
LINE
  5
7F
  8
0
  6
CONTINUOUS
 62
     2
 10
97.511648
 20
9.961174
 30
0.0
 11
98.76576
 21
9.961174
 31
0.0
  0
LINE
  5
80
  8
0
  6
CONTINUOUS
 62
     2
 10
73.608956
 20
10.380346
 30
0.0
 11
75.201807
 21
10.380346
 31
0.0
  0
LINE
  5
81
  8
0
  6
CONTINUOUS
 62
     2
 10
77.968338
 20
10.380346
 30
0.0
 11
79.56119
 21
10.380346
 31
0.0
  0
LINE
  5
82
  8
0
  6
CONTINUOUS
 62
     2
 10
80.818704
 20
10.380346
 30
0.0
 11
85.010418
 21
10.380346
 31
0.0
  0
LINE
  5
83
  8
0
  6
CONTINUOUS
 62
     2
 10
99.010742
 20
10.380346
 30
0.0
 11
95.908874
 21
10.380346
 31
0.0
  0
LINE
  5
84
  8
0
  6
CONTINUOUS
 62
     2
 10
85.848761
 20
10.380346
 30
0.0
 11
87.357777
 21
10.380346
 31
0.0
  0
LINE
  5
85
  8
0
  6
CONTINUOUS
 62
     2
 10
89.202132
 20
10.380346
 30
0.0
 11
90.711149
 21
10.380346
 31
0.0
  0
LINE
  5
86
  8
0
  6
CONTINUOUS
 62
     2
 10
91.297989
 20
10.380346
 30
0.0
 11
95.322034
 21
10.380346
 31
0.0
  0
LINE
  5
87
  8
0
  6
CONTINUOUS
 62
     2
 10
101.609605
 20
10.380346
 30
0.0
 11
103.28629
 21
10.380346
 31
0.0
  0
LINE
  5
88
  8
0
  6
CONTINUOUS
 62
     2
 10
104.627639
 20
10.380346
 30
0.0
 11
106.304324
 21
10.380346
 31
0.0
  0
LINE
  5
89
  8
0
  6
CONTINUOUS
 62
     2
 10
108.047661
 20
10.380346
 30
0.0
 11
110.160701
 21
10.380346
 31
0.0
  0
LINE
  5
8A
  8
0
  6
CONTINUOUS
 62
     2
 10
113.653536
 20
10.380346
 30
0.0
 11
116.611688
 21
10.380346
 31
0.0
  0
LINE
  5
8B
  8
0
  6
CONTINUOUS
 62
     2
 10
111.893016
 20
8.032986
 30
0.0
 11
113.653536
 21
10.380346
 31
0.0
  0
LINE
  5
8C
  8
0
  6
CONTINUOUS
 62
     2
 10
113.52785
 20
8.032986
 30
0.0
 11
113.879001
 21
8.501189
 31
0.0
  0
LINE
  5
8D
  8
0
  6
CONTINUOUS
 62
     2
 10
114.151995
 20
8.86518
 30
0.0
 11
115.141399
 21
10.184385
 31
0.0
  0
LINE
  5
8E
  8
0
  6
CONTINUOUS
 62
     2
 10
106.112155
 20
9.2905
 30
0.0
 11
108.047661
 21
10.380346
 31
0.0
  0
LINE
  5
8F
  8
0
  6
CONTINUOUS
 62
     2
 10
110.160701
 20
10.380346
 30
0.0
 11
107.855491
 21
9.2905
 31
0.0
  0
ARC
  5
90
  8
0
  6
CONTINUOUS
 62
     2
 10
87.442195
 20
8.92797
 30
0.0
 40
0.335337
 50
169.999958
 51
257.387685
  0
ARC
  5
91
  8
0
  6
CONTINUOUS
 62
     2
 10
87.954745
 20
11.218688
 30
0.0
 40
2.682696
 50
257.387748
 51
286.262666
  0
ARC
  5
92
  8
0
  6
CONTINUOUS
 62
     2
 10
88.612102
 20
8.965251
 30
0.0
 40
0.335337
 50
286.262774
 51
349.999958
  0
ARC
  5
93
  8
0
  6
CONTINUOUS
 62
     2
 10
89.919199
 20
8.78567
 30
0.0
 40
0.503006
 50
284.461307
 51
350.000024
  0
ARC
  5
94
  8
0
  6
CONTINUOUS
 62
     2
 10
87.951257
 20
16.416414
 30
0.0
 40
8.383428
 50
256.220905
 51
284.461265
  0
ARC
  5
95
  8
0
  6
CONTINUOUS
 62
     2
 10
86.074306
 20
8.762781
 30
0.0
 40
0.503006
 50
170.000024
 51
256.220876
  0
ARC
  5
96
  8
0
  6
CONTINUOUS
 62
     2
 10
99.54607
 20
10.192099
 30
0.0
 40
1.316702
 50
270.813966
 51
287.332046
  0
ARC
  5
97
  8
0
  6
CONTINUOUS
 62
     2
 10
99.632897
 20
9.913879
 30
0.0
 40
1.025248
 50
287.332042
 51
306.995258
  0
ARC
  5
98
  8
0
  6
CONTINUOUS
 62
     2
 10
99.765876
 20
9.737379
 30
0.0
 40
0.80426
 50
306.99528
 51
331.199147
  0
ARC
  5
99
  8
0
  6
CONTINUOUS
 62
     2
 10
99.969803
 20
9.625265
 30
0.0
 40
0.571547
 50
331.199119
 51
28.800793
  0
ARC
  5
9A
  8
0
  6
CONTINUOUS
 62
     2
 10
99.765876
 20
9.51315
 30
0.0
 40
0.804261
 50
28.800853
 51
53.00472
  0
ARC
  5
9B
  8
0
  6
CONTINUOUS
 62
     2
 10
99.632897
 20
9.336651
 30
0.0
 40
1.025248
 50
53.004742
 51
72.667958
  0
ARC
  5
9C
  8
0
  6
CONTINUOUS
 62
     2
 10
99.54607
 20
9.05843
 30
0.0
 40
1.316702
 50
72.667954
 51
88.263723
  0
ARC
  5
9D
  8
0
  6
CONTINUOUS
 62
     2
 10
99.175187
 20
-1.801179
 30
0.0
 40
12.182635
 50
88.067715
 51
90.773418
  0
ARC
  5
9E
  8
0
  6
CONTINUOUS
 62
     2
 10
97.845061
 20
126.727613
 30
0.0
 40
117.864631
 50
270.681844
 51
270.836009
  0
ARC
  5
9F
  8
0
  6
CONTINUOUS
 62
     2
 10
98.723331
 20
9.440028
 30
0.0
 40
0.52287
 50
74.211776
 51
85.34555
  0
ARC
  5
A0
  8
0
  6
CONTINUOUS
 62
     2
 10
98.772677
 20
9.614553
 30
0.0
 40
0.341503
 50
49.805956
 51
74.211637
  0
ARC
  5
A1
  8
0
  6
CONTINUOUS
 62
     2
 10
98.882996
 20
9.745127
 30
0.0
 40
0.170565
 50
340.193968
 51
49.805875
  0
ARC
  5
A2
  8
0
  6
CONTINUOUS
 62
     2
 10
98.72217
 20
9.803047
 30
0.0
 40
0.341504
 50
315.788351
 51
340.194033
  0
ARC
  5
A3
  8
0
  6
CONTINUOUS
 62
     2
 10
98.592173
 20
9.929516
 30
0.0
 40
0.52287
 50
298.863823
 51
315.788272
  0
ARC
  5
A4
  8
0
  6
CONTINUOUS
 62
     2
 10
98.469332
 20
10.152373
 30
0.0
 40
0.777341
 50
285.000001
 51
298.863843
  0
ARC
  5
A5
  8
0
  6
CONTINUOUS
 62
     2
 10
98.466633
 20
10.152375
 30
0.0
 40
0.778045
 50
270.198756
 51
285.191946
  0
ARC
  5
A6
  8
0
  6
CONTINUOUS
 62
     2
 10
120.661926
 20
-2.979285
 30
0.0
 40
13.359631
 50
81.659895
 51
99.802789
  0
ARC
  5
A7
  8
0
  6
CONTINUOUS
 62
     2
 10
120.129248
 20
21.390749
 30
0.0
 40
13.359631
 50
261.461473
 51
273.811814
  0
ARC
  5
A8
  8
0
  6
CONTINUOUS
 62
     2
 10
118.438929
 20
9.886761
 30
0.0
 40
0.302953
 50
99.80278
 51
169.999843
  0
ARC
  5
A9
  8
0
  6
CONTINUOUS
 62
     2
 10
118.190666
 20
8.478787
 30
0.0
 40
0.302952
 50
170.000029
 51
261.461426
  0
ARC
  5
AA
  8
0
  6
CONTINUOUS
 62
     2
 10
122.555782
 20
9.939313
 30
0.0
 40
0.302952
 50
350.000029
 51
81.659886
  0
ARC
  5
AB
  8
0
  6
CONTINUOUS
 62
     2
 10
120.456783
 20
6.559533
 30
0.0
 40
3.474028
 50
80.208346
 51
99.781828
  0
ARC
  5
AC
  8
0
  6
CONTINUOUS
 62
     2
 10
120.229118
 20
11.93653
 30
0.0
 40
3.474028
 50
261.530482
 51
281.193078
  0
ARC
  5
AD
  8
0
  6
CONTINUOUS
 62
     2
 10
119.918027
 20
9.684507
 30
0.0
 40
0.302953
 50
99.781854
 51
170.000029
  0
ARC
  5
AE
  8
0
  6
CONTINUOUS
 62
     2
 10
120.996075
 20
9.684415
 30
0.0
 40
0.302952
 50
11.493419
 51
80.208319
  0
ARC
  5
AF
  8
0
  6
CONTINUOUS
 62
     2
 10
119.762072
 20
8.800037
 30
0.0
 40
0.302953
 50
170.000062
 51
261.530459
  0
ARC
  5
B0
  8
0
  6
CONTINUOUS
 62
     2
 10
120.844674
 20
8.825773
 30
0.0
 40
0.302952
 50
281.193098
 51
350.000029
  0
ENDBLK
  5
B2
  8
0
  6
BYBLOCK
 62
     0
  0
BLOCK
  8
0
  2
_FILLED
 70
     0
 10
0.0
 20
0.0
 30
0.0
  3
_FILLED
  1

  0
SOLID
  5
1E
  8
0
  6
BYBLOCK
 62
     0
 10
0.0
 20
0.0
 30
0.0
 11
-1.0
 21
0.125
 31
0.0
 12
-1.0
 22
-0.125
 32
0.0
 13
-1.0
 23
-0.125
 33
0.0
  0
ENDBLK
  5
20
  8
0
  6
BYBLOCK
 62
     0
  0
ENDSEC
  0
SECTION
  2
ENTITIES
  0
LINE
  5
21
  8
ZEICHNUNGSBEMAßUNGEN
  6
CONTINUOUS
 62
     2
 10
67.961749
 20
89.934259
 30
0.0
 11
105.961749
 21
89.934259
 31
0.0
  0
TEXT
  5
23
  8
ZEICHNUNGSBEMAßUNGEN
  6
CONTINUOUS
 62
     5
 10
104.664649
 20
90.840126
 30
0.0
 40
3.5
  1
1.496
 41
0.954545
 51
15.0
 72
     5
 11
116.914649
 21
90.840126
 31
0.0
  0
LINE
  5
24
  8
0
  6
CONTINUOUS
 62
     7
 10
67.588703
 20
114.66187
 30
0.0
 11
105.961749
 21
114.66187
 31
0.0
  0
LINE
  5
25
  8
ZEICHNUNGSBEMAßUNGEN
  6
CONTINUOUS
 62
     2
 10
55.961749
 20
155.21085
 30
0.0
 11
105.961749
 21
155.21085
 31
0.0
  0
LINE
  5
26
  8
ZEICHNUNGSBEMASSUNGEN
  6
CONTINUOUS
 62
     2
 10
76.761749
 20
275.931139
 30
0.0
 11
105.961749
 21
275.931139
 31
0.0
  0
LINE
  5
28
  8
0
  6
CONTINUOUS
 62
     2
 10
79.396444
 20
201.377564
 30
0.0
 11
105.961749
 21
217.355191
 31
0.0
  0
LINE
  5
29
  8
0
  6
CONTINUOUS
 62
     7
 10
68.961749
 20
112.66187
 30
0.0
 11
105.961749
 21
112.66187
 31
0.0
  0
CIRCLE
  5
2A
  8
0
  6
CONTINUOUS
 62
     7
 10
105.961749
 20
217.355191
 30
0.0
 40
31.0
  0
LINE
  5
2B
  8
0
  6
CONTINUOUS
 62
     7
 10
55.961749
 20
118.66187
 30
0.0
 11
155.961749
 21
118.66187
 31
0.0
  0
LINE
  5
2C
  8
0
  6
CONTINUOUS
 62
     7
 10
144.561749
 20
104.66187
 30
0.0
 11
67.361749
 21
104.66187
 31
0.0
  0
LINE
  5
2D
  8
0
  6
CONTINUOUS
 62
     7
 10
74.761749
 20
267.355191
 30
0.0
 11
137.161749
 21
267.355191
 31
0.0
  0
LINE
  5
2E
  8
0
  6
CONTINUOUS
 62
     7
 10
74.761749
 20
255.355191
 30
0.0
 11
137.161749
 21
255.355191
 31
0.0
  0
LINE
  5
2F
  8
0
  6
CONTINUOUS
 62
     7
 10
74.761749
 20
179.355191
 30
0.0
 11
137.161749
 21
179.355191
 31
0.0
  0
LINE
  5
30
  8
0
  6
CONTINUOUS
 62
     7
 10
74.761749
 20
167.355191
 30
0.0
 11
137.161749
 21
167.355191
 31
0.0
  0
LINE
  5
31
  8
0
  6
CONTINUOUS
 62
     7
 10
5.0
 20
292.0
 30
0.0
 11
205.0
 21
292.0
 31
0.0
  0
LINE
  5
32
  8
0
  6
CONTINUOUS
 62
     7
 10
5.0
 20
5.0
 30
0.0
 11
205.0
 21
5.0
 31
0.0
  0
TEXT
  5
33
  8
0
  6
CONTINUOUS
 62
     5
 10
98.5
 20
15.91181
 30
0.0
 40
5.0
  1
Dichtung
 41
0.785714
 51
15.0
 72
     5
 11
126.0
 21
15.91181
 31
0.0
  0
TEXT
  5
34
  8
0
  6
CONTINUOUS
 62
     5
 10
104.75
 20
23.688267
 30
0.0
 40
3.5
  1
NLT4MP
 41
0.831933
 51
15.0
 72
     5
 11
121.25
 21
23.688267
 31
0.0
  0
TEXT
  5
35
  8
0
  6
CONTINUOUS
 62
     5
 10
72.0625
 20
36.465874
 30
0.0
 40
1.8
  1
 Zeichnung urheberrechtlich
 41
0.738255
 51
15.0
 72
     5
 11
105.0625
 21
36.465874
 31
0.0
  0
LINE
  5
36
  8
0
  6
CONTINUOUS
 62
     7
 10
72.0
 20
5.0
 30
0.0
 11
205.0
 21
5.0
 31
0.0
  0
LINE
  5
37
  8
0
  6
CONTINUOUS
 62
     7
 10
72.0
 20
14.0
 30
0.0
 11
205.0
 21
14.0
 31
0.0
  0
LINE
  5
38
  8
0
  6
CONTINUOUS
 62
     7
 10
72.0
 20
31.0
 30
0.0
 11
205.0
 21
31.0
 31
0.0
  0
LINE
  5
39
  8
0
  6
CONTINUOUS
 62
     7
 10
72.0
 20
41.0
 30
0.0
 11
113.0
 21
41.0
 31
0.0
  0
LINE
  5
3A
  8
0
  6
CONTINUOUS
 62
     7
 10
72.0
 20
51.0
 30
0.0
 11
205.0
 21
51.0
 31
0.0
  0
INSERT
  5
3B
  8
0
  6
CONTINUOUS
 62
     2
  2
NEUTRIK_LOGO_BL0
 10
98.024593
 20
9.206666
 30
0.0
  0
LINE
  5
B3
  8
0
  6
CONTINUOUS
 62
     7
 10
5.0
 20
5.0
 30
0.0
 11
5.0
 21
292.0
 31
0.0
  0
LINE
  5
B4
  8
ZEICHNUNGSBEMASSUNGEN
  6
CONTINUOUS
 62
     2
 10
65.924324
 20
114.66187
 30
0.0
 11
36.410213
 21
114.66187
 31
0.0
  0
LINE
  5
B5
  8
ZEICHNUNGSBEMASSUNGEN
  6
CONTINUOUS
 62
     2
 10
66.861749
 20
104.66187
 30
0.0
 11
36.410213
 21
104.66187
 31
0.0
  0
LINE
  5
B6
  8
ZEICHNUNGSBEMASSUNGEN
  6
CONTINUOUS
 62
     2
 10
74.261749
 20
112.66187
 30
0.0
 11
36.410213
 21
112.66187
 31
0.0
  0
LINE
  5
B7
  8
ZEICHNUNGSBEMASSUNGEN
  6
CONTINUOUS
 62
     2
 10
74.261749
 20
112.66187
 30
0.0
 11
36.410213
 21
112.66187
 31
0.0
  0
LINE
  5
B8
  8
ZEICHNUNGSBEMASSUNGEN
  6
CONTINUOUS
 62
     2
 10
37.910213
 20
108.66187
 30
0.0
 11
37.910213
 21
83.078921
 31
0.0
  0
TEXT
  5
B9
  8
ZEICHNUNGSBEMASSUNGEN
  6
CONTINUOUS
 62
     5
 10
37.004346
 20
92.179058
 30
0.0
 40
3.5
  1
.157
 50
90.0
 41
0.991071
 51
15.0
 72
     5
 11
37.004346
 21
101.429058
 31
0.0
  0
TEXT
  5
BA
  8
ZEICHNUNGSBEMASSUNGEN
  6
CONTINUOUS
 62
     5
 10
37.004346
 20
89.178906
 30
0.0
 40
3.5
  1
[
 50
90.0
 41
1.285714
 51
15.0
 72
     5
 11
37.004346
 21
90.678906
 31
0.0
  0
TEXT
  5
BB
  8
ZEICHNUNGSBEMASSUNGEN
  6
CONTINUOUS
 62
     5
 10
37.004346
 20
82.778891
 30
0.0
 40
3.5
  1
4
 50
90.0
 41
1.178571
 51
15.0
 72
     5
 11
37.004346
 21
85.528891
 31
0.0
  0
LINE
  5
BC
  8
ZEICHNUNGSBEMASSUNGEN
  6
CONTINUOUS
 62
     2
 10
37.910213
 20
141.573891
 30
0.0
 11
37.910213
 21
113.66187
 31
0.0
  0
LINE
  5
BD
  8
ZEICHNUNGSBEMASSUNGEN
  6
CONTINUOUS
 62
     2
 10
37.910213
 20
114.66187
 30
0.0
 11
37.910213
 21
141.573891
 31
0.0
  0
TEXT
  5
BE
  8
ZEICHNUNGSBEMASSUNGEN
  6
CONTINUOUS
 62
     5
 10
37.004346
 20
102.479164
 30
0.0
 40
3.5
  1
]
 50
90.0
 41
1.285714
 51
15.0
 72
     5
 11
37.004346
 21
103.979164
 31
0.0
  0
INSERT
  5
BF
  8
ZEICHNUNGSBEMASSUNGEN
  6
CONTINUOUS
 62
     2
  2
_FILLED
 10
37.910213
 20
104.66187
 30
0.0
 41
3.5
 42
3.5
 43
3.5
 50
270.0
  0
LINE
  5
C0
  8
ZEICHNUNGSBEMASSUNGEN
  6
CONTINUOUS
 62
     2
 10
37.910213
 20
104.66187
 30
0.0
 11
37.910213
 21
108.66187
 31
0.0
  0
LINE
  5
C1
  8
ZEICHNUNGSBEMASSUNGEN
  6
CONTINUOUS
 62
     2
 10
37.910213
 20
106.66187
 30
0.0
 11
37.910213
 21
113.66187
 31
0.0
  0
LINE
  5
C2
  8
ZEICHNUNGSBEMASSUNGEN
  6
CONTINUOUS
 62
     2
 10
37.910213
 20
112.66187
 30
0.0
 11
37.910213
 21
106.66187
 31
0.0
  0
INSERT
  5
C3
  8
ZEICHNUNGSBEMASSUNGEN
  6
CONTINUOUS
 62
     2
  2
_FILLED
 10
37.910213
 20
112.66187
 30
0.0
 41
3.5
 42
3.5
 43
3.5
 50
90.0
  0
LINE
  5
C4
  8
ZEICHNUNGSBEMASSUNGEN
  6
CONTINUOUS
 62
     2
 10
37.910213
 20
112.66187
 30
0.0
 11
37.910213
 21
108.66187
 31
0.0
  0
INSERT
  5
C5
  8
ZEICHNUNGSBEMASSUNGEN
  6
CONTINUOUS
 62
     2
  2
_FILLED
 10
37.910213
 20
112.66187
 30
0.0
 41
3.5
 42
3.5
 43
3.5
 50
90.0
  0
TEXT
  5
C6
  8
ZEICHNUNGSBEMASSUNGEN
  6
CONTINUOUS
 62
     5
 10
37.004346
 20
122.188523
 30
0.0
 40
3.5
  1
1
 50
90.0
 41
1.714286
 51
15.0
 72
     5
 11
37.004346
 21
124.188523
 31
0.0
  0
INSERT
  5
C7
  8
ZEICHNUNGSBEMASSUNGEN
  6
CONTINUOUS
 62
     2
  2
_FILLED
 10
37.910213
 20
114.66187
 30
0.0
 41
3.5
 42
3.5
 43
3.5
 50
270.0
  0
TEXT
  5
C8
  8
ZEICHNUNGSBEMASSUNGEN
  6
CONTINUOUS
 62
     5
 10
37.004346
 20
130.073891
 30
0.0
 40
3.5
  1
.039
 50
90.0
 41
1.008403
 51
15.0
 72
     5
 11
37.004346
 21
140.073891
 31
0.0
  0
TEXT
  5
C9
  8
ZEICHNUNGSBEMASSUNGEN
  6
CONTINUOUS
 62
     5
 10
37.004346
 20
127.088462
 30
0.0
 40
3.5
  1
[
 50
90.0
 41
1.285714
 51
15.0
 72
     5
 11
37.004346
 21
128.588462
 31
0.0
  0
TEXT
  5
CA
  8
ZEICHNUNGSBEMASSUNGEN
  6
CONTINUOUS
 62
     5
 10
37.004346
 20
140.973982
 30
0.0
 40
3.5
  1
]
 50
90.0
 41
1.285714
 51
15.0
 72
     5
 11
37.004346
 21
142.473982
 31
0.0
  0
LINE
  5
CB
  8
0
  6
CONTINUOUS
 62
     7
 10
72.0
 20
51.0
 30
0.0
 11
72.0
 21
5.0
 31
0.0
  0
TEXT
  5
CC
  8
0
  6
CONTINUOUS
 62
     5
 10
72.0625
 20
33.670629
 30
0.0
 40
1.8
  1
 geschuetzt (DIN 34) (C)
 41
0.741342
 51
15.0
 72
     5
 11
101.419643
 21
33.670629
 31
0.0
  0
TEXT
  5
CD
  8
0
  6
CONTINUOUS
 62
     5
 10
72.0625
 20
43.670629
 30
0.0
 40
1.8
  1
 ISO 3302-1,M3
 41
0.828185
 51
15.0
 72
     5
 11
90.448214
 21
43.670629
 31
0.0
  0
TEXT
  5
CE
  8
0
  6
CONTINUOUS
 62
     5
 10
72.0625
 20
46.465874
 30
0.0
 40
1.8
  1
 Toleranzen nach
 41
0.748823
 51
15.0
 72
     5
 11
92.505357
 21
46.465874
 31
0.0
  0
TEXT
  5
CF
  8
0
  6
CONTINUOUS
 62
     5
 10
72.0625
 20
28.078125
 30
0.0
 40
2.0
  1
 Benennung
 41
0.753695
 51
15.0
 72
     5
 11
86.633929
 21
28.078125
 31
0.0
  0
LINE
  5
D0
  8
ZEICHNUNGSBEMASSUNGEN
  6
CONTINUOUS
 62
     2
 10
74.261749
 20
118.66187
 30
0.0
 11
47.289768
 21
118.66187
 31
0.0
  0
LINE
  5
D1
  8
0
  6
CONTINUOUS
 62
     2
 10
72.049384
 20
114.66187
 30
0.0
 11
74.049384
 21
112.66187
 31
0.0
  0
LINE
  5
D2
  8
0
  6
CONTINUOUS
 62
     2
 10
71.060449
 20
114.66187
 30
0.0
 11
73.060449
 21
112.66187
 31
0.0
  0
LINE
  5
D3
  8
ZEICHNUNGSBEMAßUNGEN
  6
CONTINUOUS
 62
     2
 10
67.961749
 20
102.639387
 30
0.0
 11
67.961749
 21
88.434259
 31
0.0
  0
INSERT
  5
D4
  8
ZEICHNUNGSBEMAßUNGEN
  6
CONTINUOUS
 62
     2
  2
_FILLED
 10
67.961749
 20
89.934259
 30
0.0
 41
3.5
 42
3.5
 43
3.5
 50
180.0
  0
LINE
  5
D5
  8
ZEICHNUNGSBEMASSUNGEN
  6
CONTINUOUS
 62
     2
 10
48.789768
 20
145.434811
 30
0.0
 11
48.789768
 21
116.66187
 31
0.0
  0
LINE
  5
D6
  8
ZEICHNUNGSBEMASSUNGEN
  6
CONTINUOUS
 62
     2
 10
48.789768
 20
118.66187
 30
0.0
 11
48.789768
 21
145.434811
 31
0.0
  0
TEXT
  5
D7
  8
ZEICHNUNGSBEMASSUNGEN
  6
CONTINUOUS
 62
     5
 10
47.883901
 20
123.834598
 30
0.0
 40
3.5
  1
2
 50
90.0
 41
1.178571
 51
15.0
 72
     5
 11
47.883901
 21
126.584598
 31
0.0
  0
INSERT
  5
D8
  8
ZEICHNUNGSBEMASSUNGEN
  6
CONTINUOUS
 62
     2
  2
_FILLED
 10
48.789768
 20
114.66187
 30
0.0
 41
3.5
 42
3.5
 43
3.5
 50
90.0
  0
LINE
  5
D9
  8
ZEICHNUNGSBEMASSUNGEN
  6
CONTINUOUS
 62
     2
 10
48.789768
 20
108.66187
 30
0.0
 11
48.789768
 21
116.66187
 31
0.0
  0
LINE
  5
DA
  8
ZEICHNUNGSBEMASSUNGEN
  6
CONTINUOUS
 62
     2
 10
48.789768
 20
114.66187
 30
0.0
 11
48.789768
 21
108.66187
 31
0.0
  0
INSERT
  5
DB
  8
ZEICHNUNGSBEMASSUNGEN
  6
CONTINUOUS
 62
     2
  2
_FILLED
 10
48.789768
 20
118.66187
 30
0.0
 41
3.5
 42
3.5
 43
3.5
 50
270.0
  0
TEXT
  5
DC
  8
ZEICHNUNGSBEMASSUNGEN
  6
CONTINUOUS
 62
     5
 10
47.883901
 20
143.184735
 30
0.0
 40
3.5
  1
]
 50
90.0
 41
1.285714
 51
15.0
 72
     5
 11
47.883901
 21
144.684735
 31
0.0
  0
TEXT
  5
DD
  8
ZEICHNUNGSBEMASSUNGEN
  6
CONTINUOUS
 62
     5
 10
47.883901
 20
132.184658
 30
0.0
 40
3.5
  1
.079
 50
90.0
 41
1.033613
 51
15.0
 72
     5
 11
47.883901
 21
142.434658
 31
0.0
  0
TEXT
  5
DE
  8
ZEICHNUNGSBEMASSUNGEN
  6
CONTINUOUS
 62
     5
 10
47.883901
 20
129.034491
 30
0.0
 40
3.5
  1
[
 50
90.0
 41
1.285714
 51
15.0
 72
     5
 11
47.883901
 21
130.534491
 31
0.0
  0
ARC
  5
DF
  8
0
  6
CONTINUOUS
 62
     7
 10
55.961749
 20
108.090327
 30
0.0
 40
10.571543
 50
38.434949
 51
90.0
  0
LINE
  5
E0
  8
0
  6
CONTINUOUS
 62
     2
 10
62.123906
 20
116.675868
 30
0.0
 11
64.645064
 21
114.15471
 31
0.0
  0
LINE
  5
E1
  8
0
  6
CONTINUOUS
 62
     2
 10
59.932442
 20
117.878397
 30
0.0
 11
67.961749
 21
109.84909
 31
0.0
  0
LINE
  5
E2
  8
0
  6
CONTINUOUS
 62
     2
 10
58.472478
 20
118.349426
 30
0.0
 11
67.961749
 21
108.860156
 31
0.0
  0
LINE
  5
E3
  8
0
  6
CONTINUOUS
 62
     2
 10
57.261413
 20
118.571556
 30
0.0
 11
67.961749
 21
107.871221
 31
0.0
  0
LINE
  5
E4
  8
0
  6
CONTINUOUS
 62
     2
 10
56.192667
 20
118.651367
 30
0.0
 11
67.961749
 21
106.882286
 31
0.0
  0
LINE
  5
E5
  8
0
  6
CONTINUOUS
 62
     2
 10
58.916384
 20
114.938715
 30
0.0
 11
67.961749
 21
105.893351
 31
0.0
  0
LINE
  5
E6
  8
0
  6
CONTINUOUS
 62
     2
 10
62.718427
 20
110.147737
 30
0.0
 11
67.887218
 21
104.978946
 31
0.0
  0
LINE
  5
E7
  8
0
  6
CONTINUOUS
 62
     7
 10
55.961749
 20
118.66187
 30
0.0
 11
66.89176
 21
104.888894
 31
0.0
  0
LINE
  5
E8
  8
0
  6
CONTINUOUS
 62
     7
 10
67.588703
 20
114.66187
 30
0.0
 11
66.65665
 21
113.551093
 31
0.0
  0
LINE
  5
E9
  8
0
  6
CONTINUOUS
 62
     2
 10
70.071514
 20
114.66187
 30
0.0
 11
72.071514
 21
112.66187
 31
0.0
  0
LINE
  5
EA
  8
0
  6
CONTINUOUS
 62
     2
 10
69.082579
 20
114.66187
 30
0.0
 11
71.082579
 21
112.66187
 31
0.0
  0
LINE
  5
EB
  8
0
  6
CONTINUOUS
 62
     2
 10
68.093644
 20
114.66187
 30
0.0
 11
70.093644
 21
112.66187
 31
0.0
  0
LINE
  5
EC
  8
0
  6
CONTINUOUS
 62
     2
 10
67.369433
 20
114.397146
 30
0.0
 11
69.104709
 21
112.66187
 31
0.0
  0
LINE
  5
ED
  8
0
  6
CONTINUOUS
 62
     2
 10
66.916671
 20
113.860973
 30
0.0
 11
68.337764
 21
112.43988
 31
0.0
  0
LINE
  5
EE
  8
0
  6
CONTINUOUS
 62
     7
 10
65.107291
 20
113.572255
 30
0.0
 11
64.24259
 21
114.66187
 31
0.0
  0
ARC
  5
EF
  8
0
  6
CONTINUOUS
 62
     7
 10
68.961749
 20
111.66187
 30
0.0
 40
1.0
 50
90.0
 51
180.0
  0
ARC
  5
F0
  8
0
  6
CONTINUOUS
 62
     7
 10
67.361749
 20
105.26187
 30
0.0
 40
0.6
 50
218.434949
 51
0.0
  0
LINE
  5
F1
  8
0
  6
CONTINUOUS
 62
     7
 10
67.961749
 20
105.26187
 30
0.0
 11
67.961749
 21
111.66187
 31
0.0
  0
LINE
  5
F2
  8
0
  6
CONTINUOUS
 62
     2
 10
66.520469
 20
105.35676
 30
0.0
 11
67.188879
 21
104.68835
 31
0.0
  0
ARC
  5
F3
  8
0
  6
CONTINUOUS
 62
     7
 10
65.890606
 20
114.19388
 30
0.0
 40
1.0
 50
218.434949
 51
320.0
  0
LINE
  5
F4
  8
0
  6
CONTINUOUS
 62
     2
 10
65.541676
 20
113.258098
 30
0.0
 11
67.961749
 21
110.838025
 31
0.0
  0
LINE
  5
F5
  8
0
  6
CONTINUOUS
 62
     2
 10
66.431707
 20
113.357002
 30
0.0
 11
67.974131
 21
111.814578
 31
0.0
  0
TEXT
  5
F6
  8
ZEICHNUNGSBEMAßUNGEN
  6
CONTINUOUS
 62
     5
 10
92.913853
 20
90.840126
 30
0.0
 40
3.5
  1
38
 41
0.9
 51
15.0
 72
     5
 11
98.163853
 21
90.840126
 31
0.0
  0
TEXT
  5
F7
  8
ZEICHNUNGSBEMAßUNGEN
  6
CONTINUOUS
 62
     5
 10
101.663853
 20
90.840126
 30
0.0
 40
3.5
  1
[
 41
1.285714
 51
15.0
 72
     5
 11
103.163853
 21
90.840126
 31
0.0
  0
LINE
  5
F8
  8
0
  6
CONTINUOUS
 62
     2
 10
73.038319
 20
114.66187
 30
0.0
 11
74.961749
 21
112.73844
 31
0.0
  0
LINE
  5
F9
  8
0
  6
CONTINUOUS
 62
     7
 10
74.961749
 20
114.66187
 30
0.0
 11
74.961749
 21
112.66187
 31
0.0
  0
LINE
  5
FA
  8
0
  6
CONTINUOUS
 62
     2
 10
74.027254
 20
114.66187
 30
0.0
 11
74.961749
 21
113.727375
 31
0.0
  0
LINE
  5
FB
  8
0
  6
CENTER
 62
     7
 10
76.761749
 20
253.683191
 30
0.0
 11
76.761749
 21
239.427191
 31
0.0
  0
LINE
  5
FD
  8
ZEICHNUNGSBEMASSUNGEN
  6
CONTINUOUS
 62
     2
 10
44.346621
 20
255.355191
 30
0.0
 11
44.346621
 21
217.355191
 31
0.0
  0
LINE
  5
FE
  8
0
  6
CONTINUOUS
 62
     7
 10
67.961749
 20
186.155191
 30
0.0
 11
67.961749
 21
248.555191
 31
0.0
  0
LINE
  5
FF
  8
0
  6
CONTINUOUS
 62
     7
 10
55.961749
 20
186.155191
 30
0.0
 11
55.961749
 21
248.555191
 31
0.0
  0
LINE
  5
100
  8
0
  6
CENTER
 62
     7
 10
83.889749
 20
188.155191
 30
0.0
 11
69.633749
 21
188.155191
 31
0.0
  0
ARC
  5
101
  8
0
  6
CONTINUOUS
 62
     7
 10
74.761749
 20
186.155191
 30
0.0
 40
6.8
 50
180.0
 51
270.0
  0
ARC
  5
102
  8
0
  6
CONTINUOUS
 62
     7
 10
74.761749
 20
186.155191
 30
0.0
 40
18.8
 50
180.0
 51
270.0
  0
LINE
  5
103
  8
DEFAULT_1
  6
CENTER
 62
     7
 10
101.561749
 20
217.355191
 30
0.0
 11
71.961749
 21
217.355191
 31
0.0
  0
LINE
  5
105
  8
ZEICHNUNGSBEMASSUNGEN
  6
CONTINUOUS
 62
     2
 10
44.346621
 20
179.355191
 30
0.0
 11
44.346621
 21
217.355191
 31
0.0
  0
LINE
  5
106
  8
ZEICHNUNGSBEMASSUNGEN
  6
CONTINUOUS
 62
     2
 10
70.793018
 20
179.355191
 30
0.0
 11
42.846621
 21
179.355191
 31
0.0
  0
INSERT
  5
107
  8
ZEICHNUNGSBEMASSUNGEN
  6
CONTINUOUS
 62
     2
  2
_FILLED
 10
44.346621
 20
179.355191
 30
0.0
 41
3.5
 42
3.5
 43
3.5
 50
270.0
  0
LINE
  5
108
  8
ZEICHNUNGSBEMAßUNGEN
  6
CONTINUOUS
 62
     2
 10
55.961749
 20
177.074864
 30
0.0
 11
55.961749
 21
153.71085
 31
0.0
  0
INSERT
  5
109
  8
ZEICHNUNGSBEMAßUNGEN
  6
CONTINUOUS
 62
     2
  2
_FILLED
 10
55.961749
 20
155.21085
 30
0.0
 41
3.5
 42
3.5
 43
3.5
 50
180.0
  0
TEXT
  5
10A
  8
ZEICHNUNGSBEMASSUNGEN
  6
CONTINUOUS
 62
     5
 10
43.440754
 20
216.285214
 30
0.0
 40
3.5
  1
[
 50
90.0
 41
1.285714
 51
15.0
 72
     5
 11
43.440754
 21
217.785214
 31
0.0
  0
TEXT
  5
10B
  8
ZEICHNUNGSBEMASSUNGEN
  6
CONTINUOUS
 62
     5
 10
43.440754
 20
217.785214
 30
0.0
 40
3.5
  1
1.496
 50
90.0
 41
0.954545
 51
15.0
 72
     5
 11
43.440754
 21
230.035214
 31
0.0
  0
TEXT
  5
10C
  8
ZEICHNUNGSBEMASSUNGEN
  6
CONTINUOUS
 62
     5
 10
43.440754
 20
207.535214
 30
0.0
 40
3.5
  1
38
 50
90.0
 41
0.9
 51
15.0
 72
     5
 11
43.440754
 21
212.785214
 31
0.0
  0
TEXT
  5
10D
  8
ZEICHNUNGSBEMASSUNGEN
  6
CONTINUOUS
 62
     5
 10
43.440754
 20
230.035214
 30
0.0
 40
3.5
  1
]
 50
90.0
 41
1.285714
 51
15.0
 72
     5
 11
43.440754
 21
231.535214
 31
0.0
  0
LINE
  5
10E
  8
0
  6
CENTER
 62
     7
 10
76.761749
 20
195.283191
 30
0.0
 11
76.761749
 21
181.027191
 31
0.0
  0
CIRCLE
  5
10F
  8
0
  6
CONTINUOUS
 62
     7
 10
76.761749
 20
188.155191
 30
0.0
 40
3.5
  0
TEXT
  5
110
  8
ZEICHNUNGSBEMAßUNGEN
  6
CONTINUOUS
 62
     5
 10
96.527702
 20
156.116716
 30
0.0
 40
3.5
  1
50
 51
15.0
 72
     5
 11
101.777702
 21
156.116716
 31
0.0
  0
INSERT
  5
111
  8
0
  6
CONTINUOUS
 62
     2
  2
_FILLED
 10
79.396444
 20
201.377564
 30
0.0
 41
3.5
 42
3.5
 43
3.5
 50
211.024686
  0
TEXT
  5
112
  8
0
  6
CONTINUOUS
 62
     5
 10
98.106297
 20
213.993069
 30
0.0
 40
3.5
  1
31
 50
31.024686
 41
0.964286
 51
15.0
 72
     5
 11
101.962551
 21
216.312402
 31
0.0
  0
TEXT
  5
113
  8
0
  6
CONTINUOUS
 62
     5
 10
103.689524
 20
217.162486
 30
0.0
 40
3.5
  1
[
 50
31.024686
 41
1.285714
 51
15.0
 72
     5
 11
104.974942
 21
217.935597
 31
0.0
  0
TEXT
  5
114
  8
0
  6
CONTINUOUS
 62
     5
 10
92.834883
 20
210.528011
 30
0.0
 40
3.5
  1
%%c
 50
31.024686
 41
2.0
 51
15.0
 72
     5
 11
96.833961
 21
212.933245
 31
0.0
  0
LINE
  5
115
  8
0
  6
CENTER
 62
     7
 10
83.889749
 20
246.555191
 30
0.0
 11
69.633749
 21
246.555191
 31
0.0
  0
ARC
  5
116
  8
0
  6
CONTINUOUS
 62
     7
 10
74.761749
 20
248.555191
 30
0.0
 40
18.8
 50
90.0
 51
180.0
  0
ARC
  5
117
  8
0
  6
CONTINUOUS
 62
     7
 10
74.761749
 20
248.555191
 30
0.0
 40
6.8
 50
90.0
 51
180.0
  0
LINE
  5
118
  8
ZEICHNUNGSBEMASSUNGEN
  6
CONTINUOUS
 62
     2
 10
71.652075
 20
255.355191
 30
0.0
 11
42.846621
 21
255.355191
 31
0.0
  0
INSERT
  5
119
  8
ZEICHNUNGSBEMASSUNGEN
  6
CONTINUOUS
 62
     2
  2
_FILLED
 10
44.346621
 20
255.355191
 30
0.0
 41
3.5
 42
3.5
 43
3.5
 50
90.0
  0
LINE
  5
11A
  8
ZEICHNUNGSBEMASSUNGEN
  6
CONTINUOUS
 62
     2
 10
76.761749
 20
256.599757
 30
0.0
 11
76.761749
 21
277.431139
 31
0.0
  0
CIRCLE
  5
11B
  8
0
  6
CONTINUOUS
 62
     7
 10
76.761749
 20
246.555191
 30
0.0
 40
3.5
  0
INSERT
  5
11C
  8
ZEICHNUNGSBEMASSUNGEN
  6
CONTINUOUS
 62
     2
  2
_FILLED
 10
76.761749
 20
275.931139
 30
0.0
 41
3.5
 42
3.5
 43
3.5
 50
180.0
  0
TEXT
  5
11D
  8
ZEICHNUNGSBEMASSUNGEN
  6
CONTINUOUS
 62
     5
 10
93.527556
 20
276.837006
 30
0.0
 40
3.5
  1
29,2
 41
0.924812
 51
15.0
 72
     5
 11
103.777556
 21
276.837006
 31
0.0
  0
LINE
  5
11E
  8
0
  6
CONTINUOUS
 62
     7
 10
205.0
 20
5.0
 30
0.0
 11
205.0
 21
292.0
 31
0.0
  0
TEXT
  5
11F
  8
0
  6
CONTINUOUS
 62
     5
 10
169.541667
 20
6.188267
 30
0.0
 40
3.5
  1
ST-SCNLT
 41
0.81677
 51
15.0
 72
     5
 11
191.458333
 21
6.188267
 31
0.0
  0
TEXT
  5
120
  8
0
  6
CONTINUOUS
 62
     5
 10
154.0625
 20
11.464724
 30
0.0
 40
2.0
  1
 Zeichn. Nr.
 41
0.852217
 51
15.0
 72
     5
 11
170.53869
 21
11.464724
 31
0.0
  0
TEXT
  5
121
  8
0
  6
CONTINUOUS
 62
     5
 10
154.0625
 20
17.464724
 30
0.0
 40
2.0
  1
 Ersatz fuer:
 41
0.720238
 51
15.0
 72
     5
 11
171.348214
 21
17.464724
 31
0.0
  0
TEXT
  5
122
  8
0
  6
CONTINUOUS
 62
     5
 10
154.0625
 20
37.464724
 30
0.0
 40
2.0
  1
 Freigegeben
 41
0.761905
 51
15.0
 72
     5
 11
170.824405
 21
37.464724
 31
0.0
  0
LINE
  5
123
  8
0
  6
CONTINUOUS
 62
     7
 10
154.0
 20
23.0
 30
0.0
 11
205.0
 21
23.0
 31
0.0
  0
LINE
  5
124
  8
0
  6
CONTINUOUS
 62
     7
 10
154.0
 20
36.0
 30
0.0
 11
205.0
 21
36.0
 31
0.0
  0
LINE
  5
125
  8
0
  6
CONTINUOUS
 62
     7
 10
154.0
 20
41.0
 30
0.0
 11
205.0
 21
41.0
 31
0.0
  0
LINE
  5
126
  8
0
  6
CONTINUOUS
 62
     7
 10
154.0
 20
46.0
 30
0.0
 11
205.0
 21
46.0
 31
0.0
  0
TEXT
  5
127
  8
0
  6
CONTINUOUS
 62
     4
 10
126.046742
 20
8.044214
 30
0.0
 40
2.43
  1
FL-9494 SCHAAN
 41
0.797909
 51
15.0
 72
     5
 11
152.545313
 21
8.044214
 31
0.0
  0
TEXT
  5
128
  8
0
  6
CONTINUOUS
 62
     5
 10
118.571429
 20
32.464724
 30
0.0
 40
2.0
  1
70 Shore
 41
0.790476
 51
15.0
 72
     5
 11
130.428571
 21
32.464724
 31
0.0
  0
TEXT
  5
129
  8
0
  6
CONTINUOUS
 62
     5
 10
115.309524
 20
37.464724
 30
0.0
 40
2.0
  1
EPDM_schwarz
 41
0.787755
 51
15.0
 72
     5
 11
133.690476
 21
37.464724
 31
0.0
  0
TEXT
  5
12A
  8
0
  6
CONTINUOUS
 62
     5
 10
117.928571
 20
47.464724
 30
0.0
 40
2.0
  1
Werkstoff
 41
0.730159
 51
15.0
 72
     5
 11
131.071429
 21
47.464724
 31
0.0
  0
LINE
  5
12B
  8
0
  6
CONTINUOUS
 62
     7
 10
113.0
 20
51.0
 30
0.0
 11
113.0
 21
31.0
 31
0.0
  0
LINE
  5
12C
  8
0
  6
CONTINUOUS
 62
     7
 10
136.0
 20
51.0
 30
0.0
 11
136.0
 21
31.0
 31
0.0
  0
LINE
  5
12D
  8
0
  6
CONTINUOUS
 62
     7
 10
154.0
 20
51.0
 30
0.0
 11
154.0
 21
5.0
 31
0.0
  0
TEXT
  5
12E
  8
0
  6
CONTINUOUS
 62
     5
 10
146.642857
 20
32.464724
 30
0.0
 40
2.0
  1
)
 41
1.285714
 51
15.0
 72
     5
 11
147.5
 21
32.464724
 31
0.0
  0
TEXT
  5
12F
  8
0
  6
CONTINUOUS
 62
     5
 10
143.357143
 20
32.464724
 30
0.0
 40
2.0
  1
A4
 41
0.985714
 51
15.0
 72
     5
 11
146.642857
 21
32.464724
 31
0.0
  0
TEXT
  5
130
  8
0
  6
CONTINUOUS
 62
     5
 10
142.5
 20
32.464724
 30
0.0
 40
2.0
  1
(
 41
1.285714
 51
15.0
 72
     5
 11
143.357143
 21
32.464724
 31
0.0
  0
TEXT
  5
131
  8
0
  6
CONTINUOUS
 62
     5
 10
142.0
 20
37.298408
 30
0.0
 40
3.5
  1
2:1
 41
1.028571
 51
15.0
 72
     5
 11
148.0
 21
37.298408
 31
0.0
  0
TEXT
  5
132
  8
0
  6
CONTINUOUS
 62
     5
 10
138.928571
 20
47.464724
 30
0.0
 40
2.0
  1
Massstab:
 41
0.758929
 51
15.0
 72
     5
 11
151.071429
 21
47.464724
 31
0.0
  0
TEXT
  5
133
  8
0
  6
CONTINUOUS
 62
     5
 10
154.0625
 20
32.464724
 30
0.0
 40
2.0
  1
 Geaendert
 41
0.731527
 51
15.0
 72
     5
 11
168.205357
 21
32.464724
 31
0.0
  0
TEXT
  5
134
  8
0
  6
CONTINUOUS
 62
     5
 10
154.0625
 20
28.035276
 30
0.0
 40
2.0
  1
 Aend.-Nr.
 41
0.848571
 51
15.0
 72
     5
 11
168.205357
 21
28.035276
 31
0.0
  0
TEXT
  5
135
  8
0
  6
CONTINUOUS
 62
     5
 10
155.633929
 20
23.894171
 30
0.0
 40
2.0
  1
-
 41
1.071429
 51
15.0
 72
     5
 11
157.0625
 21
23.894171
 31
0.0
  0
TEXT
  5
136
  8
0
  6
CONTINUOUS
 62
     5
 10
154.0625
 20
42.464724
 30
0.0
 40
2.0
  1
 Gezeichnet
 41
0.759524
 51
15.0
 72
     5
 11
169.252976
 21
42.464724
 31
0.0
  0
LINE
  5
137
  8
ZEICHNUNGSBEMAßUNGEN
  6
CONTINUOUS
 62
     2
 10
143.961749
 20
89.934259
 30
0.0
 11
105.961749
 21
89.934259
 31
0.0
  0
LINE
  5
138
  8
DEFAULT_1
  6
CENTER
 62
     7
 10
105.961749
 20
101.128138
 30
0.0
 11
105.961749
 21
121.519322
 31
0.0
  0
TEXT
  5
139
  8
ZEICHNUNGSBEMAßUNGEN
  6
CONTINUOUS
 62
     5
 10
118.115287
 20
90.840126
 30
0.0
 40
3.5
  1
]
 41
1.285714
 51
15.0
 72
     5
 11
119.615287
 21
90.840126
 31
0.0
  0
LINE
  5
13A
  8
ZEICHNUNGSBEMAßUNGEN
  6
CONTINUOUS
 62
     2
 10
143.961749
 20
102.766322
 30
0.0
 11
143.961749
 21
88.434259
 31
0.0
  0
INSERT
  5
13B
  8
ZEICHNUNGSBEMAßUNGEN
  6
CONTINUOUS
 62
     2
  2
_FILLED
 10
143.961749
 20
89.934259
 30
0.0
 41
3.5
 42
3.5
 43
3.5
  0
LINE
  5
13C
  8
0
  6
CONTINUOUS
 62
     7
 10
155.961749
 20
118.66187
 30
0.0
 11
145.031737
 21
104.888894
 31
0.0
  0
ARC
  5
13D
  8
0
  6
CONTINUOUS
 62
     7
 10
144.561749
 20
105.26187
 30
0.0
 40
0.6
 50
270.0
 51
321.565051
  0
TEXT
  5
13E
  8
0
  6
CONTINUOUS
 62
     5
 10
188.714286
 20
28.164686
 30
0.0
 40
2.0
  1
Aend.-Index
 41
0.805419
 51
15.0
 72
     5
 11
204.285714
 21
28.164686
 31
0.0
  0
LINE
  5
13F
  8
0
  6
CONTINUOUS
 62
     7
 10
173.0
 20
51.0
 30
0.0
 11
173.0
 21
31.0
 31
0.0
  0
TEXT
  5
140
  8
0
  6
CONTINUOUS
 62
     5
 10
175.0
 20
42.464724
 30
0.0
 40
2.0
  1
12.05.03
 41
0.970588
 51
15.0
 72
     5
 11
186.0
 21
42.464724
 31
0.0
  0
TEXT
  5
141
  8
0
  6
CONTINUOUS
 62
     5
 10
176.666667
 20
47.464724
 30
0.0
 40
2.0
  1
Datum
 41
0.821429
 51
15.0
 72
     5
 11
184.333333
 21
47.464724
 31
0.0
  0
TEXT
  5
142
  8
0
  6
CONTINUOUS
 62
     5
 10
179.785714
 20
32.464724
 30
0.0
 40
2.0
  1
-
 41
1.071429
 51
15.0
 72
     5
 11
181.214286
 21
32.464724
 31
0.0
  0
TEXT
  5
143
  8
0
  6
CONTINUOUS
 62
     5
 10
179.785714
 20
37.464724
 30
0.0
 40
2.0
  1
-
 41
1.071429
 51
15.0
 72
     5
 11
181.214286
 21
37.464724
 31
0.0
  0
LINE
  5
144
  8
0
  6
CONTINUOUS
 62
     7
 10
188.0
 20
51.0
 30
0.0
 11
188.0
 21
14.0
 31
0.0
  0
TEXT
  5
145
  8
0
  6
CONTINUOUS
 62
     5
 10
192.0
 20
19.535276
 30
0.0
 40
2.0
  1
Blatt 
 41
0.714286
 51
15.0
 72
     5
 11
199.857143
 21
19.535276
 31
0.0
  0
TEXT
  5
146
  8
0
  6
CONTINUOUS
 62
     5
 10
190.357143
 20
15.394171
 30
0.0
 40
2.0
  1
von 
 41
0.732143
 51
15.0
 72
     5
 11
196.214286
 21
15.394171
 31
0.0
  0
TEXT
  5
147
  8
0
  6
CONTINUOUS
 62
     5
 10
199.857143
 20
19.535276
 30
0.0
 40
2.0
  1
1
 41
1.714286
 51
15.0
 72
     5
 11
201.0
 21
19.535276
 31
0.0
  0
TEXT
  5
148
  8
0
  6
CONTINUOUS
 62
     5
 10
196.214286
 20
15.394171
 30
0.0
 40
2.0
  1
1
 41
1.714286
 51
15.0
 72
     5
 11
197.357143
 21
15.394171
 31
0.0
  0
TEXT
  5
149
  8
0
  6
CONTINUOUS
 62
     5
 10
197.357143
 20
15.394171
 30
0.0
 40
2.0
  1
 Bl.
 41
1.057143
 51
15.0
 72
     5
 11
202.642857
 21
15.394171
 31
0.0
  0
TEXT
  5
14A
  8
0
  6
CONTINUOUS
 62
     5
 10
195.428571
 20
23.764762
 30
0.0
 40
3.0
  1
-
 41
1.071429
 51
15.0
 72
     5
 11
197.571429
 21
23.764762
 31
0.0
  0
TEXT
  5
14B
  8
0
  6
CONTINUOUS
 62
     5
 10
190.738095
 20
42.464724
 30
0.0
 40
2.0
  1
Mijatovic
 41
0.803987
 51
15.0
 72
     5
 11
202.261905
 21
42.464724
 31
0.0
  0
TEXT
  5
14C
  8
0
  6
CONTINUOUS
 62
     5
 10
193.357143
 20
47.464724
 30
0.0
 40
2.0
  1
Name
 41
0.857143
 51
15.0
 72
     5
 11
199.642857
 21
47.464724
 31
0.0
  0
TEXT
  5
14D
  8
0
  6
CONTINUOUS
 62
     5
 10
195.785714
 20
32.464724
 30
0.0
 40
2.0
  1
-
 41
1.071429
 51
15.0
 72
     5
 11
197.214286
 21
32.464724
 31
0.0
  0
TEXT
  5
14E
  8
0
  6
CONTINUOUS
 62
     5
 10
195.785714
 20
37.464724
 30
0.0
 40
2.0
  1
-
 41
1.071429
 51
15.0
 72
     5
 11
197.214286
 21
37.464724
 31
0.0
  0
LINE
  5
14F
  8
0
  6
CONTINUOUS
 62
     7
 10
205.0
 20
51.0
 30
0.0
 11
205.0
 21
5.0
 31
0.0
  0
LINE
  5
150
  8
ZEICHNUNGSBEMASSUNGEN
  6
CONTINUOUS
 62
     2
 10
143.984683
 20
267.355191
 30
0.0
 11
178.786958
 21
267.355191
 31
0.0
  0
LINE
  5
151
  8
ZEICHNUNGSBEMASSUNGEN
  6
CONTINUOUS
 62
     2
 10
158.245031
 20
167.355191
 30
0.0
 11
178.786958
 21
167.355191
 31
0.0
  0
LINE
  5
152
  8
0
  6
CENTER
 62
     7
 10
135.161749
 20
253.683191
 30
0.0
 11
135.161749
 21
239.427191
 31
0.0
  0
LINE
  5
153
  8
ZEICHNUNGSBEMASSUNGEN
  6
CONTINUOUS
 62
     2
 10
167.220013
 20
246.555191
 30
0.0
 11
167.220013
 21
217.355191
 31
0.0
  0
LINE
  5
154
  8
0
  6
CONTINUOUS
 62
     7
 10
155.961749
 20
248.555191
 30
0.0
 11
155.961749
 21
186.155191
 31
0.0
  0
LINE
  5
155
  8
0
  6
CONTINUOUS
 62
     7
 10
143.961749
 20
248.555191
 30
0.0
 11
143.961749
 21
186.155191
 31
0.0
  0
LINE
  5
156
  8
DEFAULT_1
  6
CENTER
 62
     7
 10
105.961749
 20
221.755191
 30
0.0
 11
105.961749
 21
251.355191
 31
0.0
  0
LINE
  5
157
  8
0
  6
CENTER
 62
     7
 10
142.289749
 20
188.155191
 30
0.0
 11
128.033749
 21
188.155191
 31
0.0
  0
LINE
  5
158
  8
ZEICHNUNGSBEMAßUNGEN
  6
CONTINUOUS
 62
     2
 10
155.961749
 20
155.21085
 30
0.0
 11
105.961749
 21
155.21085
 31
0.0
  0
ARC
  5
159
  8
0
  6
CONTINUOUS
 62
     7
 10
137.161749
 20
186.155191
 30
0.0
 40
18.8
 50
270.0
 51
0.0
  0
ARC
  5
15A
  8
0
  6
CONTINUOUS
 62
     7
 10
137.161749
 20
186.155191
 30
0.0
 40
6.8
 50
270.0
 51
0.0
  0
CIRCLE
  5
15B
  8
0
  6
CONTINUOUS
 62
     7
 10
135.161749
 20
188.155191
 30
0.0
 40
3.5
  0
LINE
  5
15C
  8
DEFAULT_1
  6
CENTER
 62
     7
 10
110.361749
 20
217.355191
 30
0.0
 11
139.961749
 21
217.355191
 31
0.0
  0
LINE
  5
15D
  8
0
  6
CENTER
 62
     7
 10
135.161749
 20
195.283191
 30
0.0
 11
135.161749
 21
181.027191
 31
0.0
  0
LINE
  5
15E
  8
DEFAULT_1
  6
CENTER
 62
     7
 10
105.961749
 20
212.955191
 30
0.0
 11
105.961749
 21
183.355191
 31
0.0
  0
TEXT
  5
15F
  8
ZEICHNUNGSBEMAßUNGEN
  6
CONTINUOUS
 62
     5
 10
106.777702
 20
156.116716
 30
0.0
 40
3.5
  1
1.97
 41
1.017857
 51
15.0
 72
     5
 11
116.277702
 21
156.116716
 31
0.0
  0
TEXT
  5
160
  8
ZEICHNUNGSBEMAßUNGEN
  6
CONTINUOUS
 62
     5
 10
105.277702
 20
156.116716
 30
0.0
 40
3.5
  1
[
 41
1.285714
 51
15.0
 72
     5
 11
106.777702
 21
156.116716
 31
0.0
  0
TEXT
  5
161
  8
ZEICHNUNGSBEMAßUNGEN
  6
CONTINUOUS
 62
     5
 10
116.277702
 20
156.116716
 30
0.0
 40
3.5
  1
]
 41
1.285714
 51
15.0
 72
     5
 11
117.777702
 21
156.116716
 31
0.0
  0
LINE
  5
162
  8
0
  6
CONTINUOUS
 62
     2
 10
132.527053
 20
233.332819
 30
0.0
 11
105.961749
 21
217.355191
 31
0.0
  0
LINE
  5
163
  8
0
  6
CONTINUOUS
 62
     7
 10
105.961749
 20
218.235191
 30
0.0
 11
105.961749
 21
216.475191
 31
0.0
  0
LINE
  5
164
  8
0
  6
CONTINUOUS
 62
     7
 10
106.841749
 20
217.355191
 30
0.0
 11
105.081749
 21
217.355191
 31
0.0
  0
TEXT
  5
165
  8
0
  6
CONTINUOUS
 62
     5
 10
106.247278
 20
218.889438
 30
0.0
 40
3.5
  1
1.22
 50
31.024686
 41
1.017857
 51
15.0
 72
     5
 11
114.388258
 21
223.785808
 31
0.0
  0
TEXT
  5
166
  8
0
  6
CONTINUOUS
 62
     5
 10
115.236481
 20
224.31572
 30
0.0
 40
3.5
  1
]
 50
31.024686
 41
1.285714
 51
15.0
 72
     5
 11
116.521899
 21
225.088831
 31
0.0
  0
INSERT
  5
167
  8
0
  6
CONTINUOUS
 62
     2
  2
_FILLED
 10
132.527053
 20
233.332819
 30
0.0
 41
3.5
 42
3.5
 43
3.5
 50
31.024686
  0
LINE
  5
168
  8
ZEICHNUNGSBEMASSUNGEN
  6
CONTINUOUS
 62
     2
 10
167.220013
 20
188.155191
 30
0.0
 11
167.220013
 21
217.355191
 31
0.0
  0
LINE
  5
169
  8
ZEICHNUNGSBEMASSUNGEN
  6
CONTINUOUS
 62
     2
 10
143.984683
 20
167.355191
 30
0.0
 11
154.293369
 21
167.355191
 31
0.0
  0
LINE
  5
16A
  8
ZEICHNUNGSBEMASSUNGEN
  6
CONTINUOUS
 62
     2
 10
142.161749
 20
188.155191
 30
0.0
 11
168.720013
 21
188.155191
 31
0.0
  0
INSERT
  5
16B
  8
ZEICHNUNGSBEMAßUNGEN
  6
CONTINUOUS
 62
     2
  2
_FILLED
 10
155.961749
 20
155.21085
 30
0.0
 41
3.5
 42
3.5
 43
3.5
  0
LINE
  5
16C
  8
ZEICHNUNGSBEMAßUNGEN
  6
CONTINUOUS
 62
     2
 10
155.961749
 20
180.509616
 30
0.0
 11
155.961749
 21
153.71085
 31
0.0
  0
INSERT
  5
16D
  8
ZEICHNUNGSBEMASSUNGEN
  6
CONTINUOUS
 62
     2
  2
_FILLED
 10
167.220013
 20
188.155191
 30
0.0
 41
3.5
 42
3.5
 43
3.5
 50
270.0
  0
TEXT
  5
16E
  8
ZEICHNUNGSBEMASSUNGEN
  6
CONTINUOUS
 62
     5
 10
166.314146
 20
216.810888
 30
0.0
 40
3.5
  1
[
 50
90.0
 41
1.285714
 51
15.0
 72
     5
 11
166.314146
 21
218.310888
 31
0.0
  0
TEXT
  5
16F
  8
ZEICHNUNGSBEMASSUNGEN
  6
CONTINUOUS
 62
     5
 10
166.314146
 20
203.060888
 30
0.0
 40
3.5
  1
29,2
 50
90.0
 41
0.924812
 51
15.0
 72
     5
 11
166.314146
 21
213.310888
 31
0.0
  0
TEXT
  5
170
  8
ZEICHNUNGSBEMASSUNGEN
  6
CONTINUOUS
 62
     5
 10
166.314146
 20
218.310888
 30
0.0
 40
3.5
  1
1.15
 50
90.0
 41
1.040816
 51
15.0
 72
     5
 11
166.314146
 21
226.810888
 31
0.0
  0
TEXT
  5
171
  8
ZEICHNUNGSBEMASSUNGEN
  6
CONTINUOUS
 62
     5
 10
166.314146
 20
226.810888
 30
0.0
 40
3.5
  1
]
 50
90.0
 41
1.285714
 51
15.0
 72
     5
 11
166.314146
 21
228.310888
 31
0.0
  0
LINE
  5
172
  8
0
  6
CENTER
 62
     7
 10
142.289749
 20
246.555191
 30
0.0
 11
128.033749
 21
246.555191
 31
0.0
  0
ARC
  5
173
  8
0
  6
CONTINUOUS
 62
     7
 10
137.161749
 20
248.555191
 30
0.0
 40
18.8
 50
0.0
 51
90.0
  0
ARC
  5
174
  8
0
  6
CONTINUOUS
 62
     7
 10
137.161749
 20
248.555191
 30
0.0
 40
6.8
 50
0.0
 51
90.0
  0
CIRCLE
  5
175
  8
0
  6
CONTINUOUS
 62
     7
 10
135.161749
 20
246.555191
 30
0.0
 40
3.5
  0
LINE
  5
176
  8
ZEICHNUNGSBEMASSUNGEN
  6
CONTINUOUS
 62
     2
 10
135.161749
 20
275.931139
 30
0.0
 11
105.961749
 21
275.931139
 31
0.0
  0
TEXT
  5
177
  8
ZEICHNUNGSBEMASSUNGEN
  6
CONTINUOUS
 62
     5
 10
108.777556
 20
276.837006
 30
0.0
 40
3.5
  1
1.15
 41
1.040816
 51
15.0
 72
     5
 11
117.277556
 21
276.837006
 31
0.0
  0
TEXT
  5
178
  8
ZEICHNUNGSBEMASSUNGEN
  6
CONTINUOUS
 62
     5
 10
107.277556
 20
276.837006
 30
0.0
 40
3.5
  1
[
 41
1.285714
 51
15.0
 72
     5
 11
108.777556
 21
276.837006
 31
0.0
  0
TEXT
  5
179
  8
ZEICHNUNGSBEMASSUNGEN
  6
CONTINUOUS
 62
     5
 10
117.277556
 20
276.837006
 30
0.0
 40
3.5
  1
]
 41
1.285714
 51
15.0
 72
     5
 11
118.777556
 21
276.837006
 31
0.0
  0
LINE
  5
17A
  8
ZEICHNUNGSBEMASSUNGEN
  6
CONTINUOUS
 62
     2
 10
135.161749
 20
256.811722
 30
0.0
 11
135.161749
 21
277.431139
 31
0.0
  0
INSERT
  5
17B
  8
ZEICHNUNGSBEMASSUNGEN
  6
CONTINUOUS
 62
     2
  2
_FILLED
 10
135.161749
 20
275.931139
 30
0.0
 41
3.5
 42
3.5
 43
3.5
  0
LINE
  5
17C
  8
ZEICHNUNGSBEMASSUNGEN
  6
CONTINUOUS
 62
     2
 10
145.793605
 20
246.555191
 30
0.0
 11
168.720013
 21
246.555191
 31
0.0
  0
INSERT
  5
17D
  8
ZEICHNUNGSBEMASSUNGEN
  6
CONTINUOUS
 62
     2
  2
_FILLED
 10
167.220013
 20
246.555191
 30
0.0
 41
3.5
 42
3.5
 43
3.5
 50
90.0
  0
LINE
  5
17E
  8
ZEICHNUNGSBEMASSUNGEN
  6
CONTINUOUS
 62
     2
 10
177.286958
 20
267.355191
 30
0.0
 11
177.286958
 21
217.355191
 31
0.0
  0
LINE
  5
17F
  8
ZEICHNUNGSBEMASSUNGEN
  6
CONTINUOUS
 62
     2
 10
177.286958
 20
167.355191
 30
0.0
 11
177.286958
 21
217.355191
 31
0.0
  0
INSERT
  5
180
  8
ZEICHNUNGSBEMASSUNGEN
  6
CONTINUOUS
 62
     2
  2
_FILLED
 10
177.286958
 20
167.355191
 30
0.0
 41
3.5
 42
3.5
 43
3.5
 50
270.0
  0
TEXT
  5
181
  8
ZEICHNUNGSBEMASSUNGEN
  6
CONTINUOUS
 62
     5
 10
176.381091
 20
216.651345
 30
0.0
 40
3.5
  1
[
 50
90.0
 41
1.285714
 51
15.0
 72
     5
 11
176.381091
 21
218.151345
 31
0.0
  0
TEXT
  5
182
  8
ZEICHNUNGSBEMASSUNGEN
  6
CONTINUOUS
 62
     5
 10
176.381091
 20
207.901345
 30
0.0
 40
3.5
  1
50
 50
90.0
 51
15.0
 72
     5
 11
176.381091
 21
213.151345
 31
0.0
  0
TEXT
  5
183
  8
ZEICHNUNGSBEMASSUNGEN
  6
CONTINUOUS
 62
     5
 10
176.381091
 20
227.651345
 30
0.0
 40
3.5
  1
]
 50
90.0
 41
1.285714
 51
15.0
 72
     5
 11
176.381091
 21
229.151345
 31
0.0
  0
TEXT
  5
184
  8
ZEICHNUNGSBEMASSUNGEN
  6
CONTINUOUS
 62
     5
 10
176.381091
 20
218.151345
 30
0.0
 40
3.5
  1
1.97
 50
90.0
 41
1.017857
 51
15.0
 72
     5
 11
176.381091
 21
227.651345
 31
0.0
  0
INSERT
  5
185
  8
ZEICHNUNGSBEMASSUNGEN
  6
CONTINUOUS
 62
     2
  2
_FILLED
 10
177.286958
 20
267.355191
 30
0.0
 41
3.5
 42
3.5
 43
3.5
 50
90.0
  0
ENDSEC
  0
EOF
