999
DXF file: np2cm.dxf
999
Pro/ENGINEER 2001040 by Parametric Technology Corporation
0
SECTION
2
HEADER
9
$ACADVER
1
AC1012
9
$EXTMAX
10
210.0000000000
20
297.0000000000
9
$EXTMIN
10
0.0000000000
20
0.0000000000
9
$LIMMIN
10
0.0000000000
20
0.0000000000
9
$LIMMAX
10
210.0000000000
20
297.0000000000
9
$VIEWCTR
10
105.0000000000
20
148.5000000000
9
$VIEWSIZE
40
297.0000000000
9
$CLAYER
8
0
9
$LTSCALE
40
19.3600000000
9
$CELTYPE
6
BYLAYER
9
$DIMSCALE
40
1
9
$DIMASZ
40
3.5000000000
9
$DIMEXO
40
2.2000000000
9
$DIMDLI
40
13.3760000000
9
$DIMEXE
40
6.3360000000
9
$DIMCEN
40
3.1680000000
9
$DIMTXT
40
3.9776785714
9
$DIMLFAC
40
1.0000000000
0
ENDSEC
0
SECTION
2
CLASSES
0
ENDSEC
0
SECTION
2
TABLES
0
TABLE
2
VPORT
5
1F4
100
AcDbSymbolTable
70
2
0
VPORT
5
1F5
100
AcDbSymbolTableRecord
100
AcDbViewportTableRecord
2
*ACTIVE
70
0
10
0.0
20
0.0
11
1.0
21
1.0
12
105.0000000000
22
148.5000000000
13
0.0
23
0.0
14
1.0
24
1.0
15
0.0
25
0.0
16
0.0
26
0.0
36
1.0
17
0.0
27
0.0
37
0.0
40
297.0000000000
41
0.7070707071
42
50.0
43
0.0
44
0.0
50
0.0
51
0.0
71
0
72
100
73
1
74
1
75
0
76
0
77
0
78
0
0
ENDTAB
0
TABLE
2
LTYPE
5
1F6
100
AcDbSymbolTable
70
6
0
LTYPE
5
1F7
100
AcDbSymbolTableRecord
100
AcDbLinetypeTableRecord
2
BYBLOCK
70
0
3

72
65
73
0
40
0.0
0
LTYPE
5
1F8
100
AcDbSymbolTableRecord
100
AcDbLinetypeTableRecord
2
BYLAYER
70
0
3

72
65
73
0
40
0.0
0
LTYPE
5
1F9
100
AcDbSymbolTableRecord
100
AcDbLinetypeTableRecord
2
CONTINUOUS
70
64
3
Solid line
72
65
73
0
40
0
0
LTYPE
5
1FA
100
AcDbSymbolTableRecord
100
AcDbLinetypeTableRecord
2
CENTER
70
64
3
____ _ ____ _ ____ _ ____ _ ____ _ ____ _ ____
72
65
73
4
40
0.6
49
0.375
74
0
49
-0.075
74
0
49
0.075
74
0
49
-0.075
74
0
0
LTYPE
5
1FB
100
AcDbSymbolTableRecord
100
AcDbLinetypeTableRecord
2
HIDDEN
70
64
3
- - - - - - - - - - - - - - - - - - - -
72
65
73
2
40
0.2
49
0.1
74
0
49
-0.1
74
0
0
LTYPE
5
1FC
100
AcDbSymbolTableRecord
100
AcDbLinetypeTableRecord
2
PHANTOM
70
64
3
_____ _ _ _____ _ _ _____ _ _ _____
72
65
73
6
40
0.8
49
0.45
74
0
49
-0.05
74
0
49
0.1
74
0
49
-0.05
74
0
49
0.1
74
0
49
-0.05
74
0
0
LTYPE
5
1FD
100
AcDbSymbolTableRecord
100
AcDbLinetypeTableRecord
2
DOT
70
64
3
. . . . . . . . . . . . . . . . . . . .
72
65
73
2
40
0.2
49
0.1
74
0
49
-0.1
74
0
0
LTYPE
5
1FE
100
AcDbSymbolTableRecord
100
AcDbLinetypeTableRecord
2
DASHED
70
64
3
- - - - - - - - - - - - - - - - - - - -
72
65
73
2
40
0.2
49
0.1
74
0
49
-0.1
74
0
0
ENDTAB
0
TABLE
2
LAYER
5
1FF
100
AcDbSymbolTable
70
36
0
LAYER
5
200
100
AcDbSymbolTableRecord
100
AcDbLayerTableRecord
2
0
70
0
62
7
6
CONTINUOUS
0
LAYER
5
201
100
AcDbSymbolTableRecord
100
AcDbLayerTableRecord
2
DEFAULT_1
70
0
62
7
6
CENTER
0
LAYER
5
202
100
AcDbSymbolTableRecord
100
AcDbLayerTableRecord
2
DEFAULT_2
70
0
62
8
6
HIDDEN
0
LAYER
5
203
100
AcDbSymbolTableRecord
100
AcDbLayerTableRecord
2
DEFAULT_3
70
0
62
7
6
PHANTOM
0
LAYER
5
204
100
AcDbSymbolTableRecord
100
AcDbLayerTableRecord
2
0
70
0
62
7
6
CONTINUOUS
0
LAYER
5
205
100
AcDbSymbolTableRecord
100
AcDbLayerTableRecord
2
010
70
0
62
7
6
CONTINUOUS
0
LAYER
5
206
100
AcDbSymbolTableRecord
100
AcDbLayerTableRecord
2
025
70
0
62
7
6
CONTINUOUS
0
LAYER
5
207
100
AcDbSymbolTableRecord
100
AcDbLayerTableRecord
2
035
70
0
62
7
6
CONTINUOUS
0
LAYER
5
208
100
AcDbSymbolTableRecord
100
AcDbLayerTableRecord
2
05
70
0
62
7
6
CONTINUOUS
0
LAYER
5
209
100
AcDbSymbolTableRecord
100
AcDbLayerTableRecord
2
DEFPOINTS
70
0
62
7
6
CONTINUOUS
0
LAYER
5
20A
100
AcDbSymbolTableRecord
100
AcDbLayerTableRecord
2
MITTE
70
0
62
7
6
CONTINUOUS
0
LAYER
5
20B
100
AcDbSymbolTableRecord
100
AcDbLayerTableRecord
2
RAHMEN
70
0
62
7
6
CONTINUOUS
0
LAYER
5
20C
100
AcDbSymbolTableRecord
100
AcDbLayerTableRecord
2
SCHRAFFIERT
70
0
62
7
6
CONTINUOUS
0
ENDTAB
0
TABLE
2
STYLE
5
20D
100
AcDbSymbolTable
70
1
0
STYLE
5
20E
100
AcDbSymbolTableRecord
100
AcDbTextStyleTableRecord
2
STANDARD
70
0
40
0.0
41
0.80
50
0.0
71
0
42
0.2
3
txt
4

0
ENDTAB
0
TABLE
2
VIEW
5
20F
100
AcDbSymbolTable
70
0
0
ENDTAB
0
TABLE
2
UCS
5
210
100
AcDbSymbolTable
70
0
0
ENDTAB
0
TABLE
2
APPID
5
211
100
AcDbSymbolTable
70
1
0
APPID
5
212
100
AcDbSymbolTableRecord
100
AcDbRegAppTableRecord
2
ACAD
70
0
0
ENDTAB
0
TABLE
2
DIMSTYLE
5
213
100
AcDbSymbolTable
0
DIMSTYLE
105
214
100
AcDbSymbolTableRecord
100
AcDbDimStyleTableRecord
2
STANDARD
70
0
3

4

5

6

7

40
1.0
41
0.18
42
0.0625
43
0.38
44
0.18
45
0.0
46
0.0
47
0.0
48
0.0
140
0.18
141
0.09
142
0.0
143
25.4
144
1.0
145
0.0
146
1.0
147
0.09
71
0
72
0
73
1
74
1
75
0
76
0
77
0
78
0
170
0
171
2
172
0
173
0
174
0
175
0
176
0
177
0
178
0
270
2
271
4
272
4
273
2
274
2
340
20E
275
0
280
0
281
0
282
0
283
1
284
0
285
0
286
0
287
3
288
0
0
ENDTAB
0
TABLE
2
BLOCK_RECORD
5
215
100
AcDbSymbolTable
70
0
0
BLOCK_RECORD
5
216
100
AcDbSymbolTableRecord
100
AcDbBlockTableRecord
2
*MODEL_SPACE
0
BLOCK_RECORD
5
217
100
AcDbSymbolTableRecord
100
AcDbBlockTableRecord
2
*PAPER_SPACE
0
ENDTAB
0
ENDSEC
0
SECTION
2
BLOCKS
0
BLOCK
5
218
100
AcDbEntity
8
0
100
AcDbBlockBegin
2
*MODEL_SPACE
70
0
10
0.0000000000
20
0.0000000000
3
*MODEL_SPACE
1

3
*MODEL_SPACE
1

0
ENDBLK
5
219
100
AcDbEntity
8
0
100
AcDbBlockEnd
0
BLOCK
5
21A
100
AcDbEntity
8
0
100
AcDbBlockBegin
2
*PAPER_SPACE
70
0
10
0.0000000000
20
0.0000000000
3
*PAPER_SPACE
1

3
*PAPER_SPACE
1

0
ENDBLK
5
21B
100
AcDbEntity
8
0
100
AcDbBlockEnd
0
ENDSEC
0
SECTION
2
ENTITIES
0
LINE
5
21C
100
AcDbEntity
8
0
100
AcDbLine
62
7
6
CONTINUOUS
10
0.0000000000
20
0.0000000000
11
210.0000000000
21
0.0000000000
0
LINE
5
21D
100
AcDbEntity
8
0
100
AcDbLine
62
7
6
CONTINUOUS
10
210.0000000000
20
0.0000000000
11
210.0000000000
21
297.0000000000
0
LINE
5
21E
100
AcDbEntity
8
0
100
AcDbLine
62
7
6
CONTINUOUS
10
0.0000000000
20
297.0000000000
11
210.0000000000
21
297.0000000000
0
LINE
5
21F
100
AcDbEntity
8
0
100
AcDbLine
62
7
6
CONTINUOUS
10
0.0000000000
20
0.0000000000
11
0.0000000000
21
297.0000000000
0
LINE
5
220
100
AcDbEntity
8
010
100
AcDbLine
62
7
6
CONTINUOUS
10
103.9814720000
20
230.5432030000
11
95.7495410000
21
230.5432030000
0
LINE
5
221
100
AcDbEntity
8
010
100
AcDbLine
62
7
6
CONTINUOUS
10
106.4959510000
20
230.5432030000
11
105.5979230000
21
230.5432030000
0
LINE
5
222
100
AcDbEntity
8
010
100
AcDbLine
62
7
6
CONTINUOUS
10
107.4239150000
20
230.5432030000
11
107.1545050000
21
230.5432030000
0
LINE
5
223
100
AcDbEntity
8
010
100
AcDbLine
62
7
6
CONTINUOUS
10
103.0120780000
20
176.4284200000
11
103.0120780000
21
182.3284200000
0
LINE
5
224
100
AcDbEntity
8
010
100
AcDbLine
62
7
6
CONTINUOUS
10
103.8489350000
20
176.4284200000
11
103.8489350000
21
182.3284200000
0
LINE
5
225
100
AcDbEntity
8
010
100
AcDbLine
62
7
6
CONTINUOUS
10
104.6857920000
20
176.4284200000
11
104.6857920000
21
182.3284200000
0
LINE
5
226
100
AcDbEntity
8
010
100
AcDbLine
62
7
6
CONTINUOUS
10
105.3831710000
20
176.4284200000
11
105.3831710000
21
182.3284200000
0
LINE
5
227
100
AcDbEntity
8
010
100
AcDbLine
62
7
6
CONTINUOUS
10
106.0805500000
20
176.4284200000
11
106.0805500000
21
182.3284200000
0
LINE
5
228
100
AcDbEntity
8
010
100
AcDbLine
62
7
6
CONTINUOUS
10
106.8058270000
20
176.4284200000
11
106.8058270000
21
182.3284200000
0
LINE
5
229
100
AcDbEntity
8
010
100
AcDbLine
62
7
6
CONTINUOUS
10
107.5032060000
20
176.4284200000
11
107.5032060000
21
182.3284200000
0
LINE
5
22A
100
AcDbEntity
8
010
100
AcDbLine
62
7
6
CONTINUOUS
10
108.1169010000
20
176.4284200000
11
108.1169010000
21
182.3284200000
0
LINE
5
22B
100
AcDbEntity
8
010
100
AcDbLine
62
7
6
CONTINUOUS
10
108.7584890000
20
176.4284200000
11
108.7584890000
21
182.3284200000
0
LINE
5
22C
100
AcDbEntity
8
010
100
AcDbLine
62
7
6
CONTINUOUS
10
109.2606040000
20
176.4284200000
11
109.2606040000
21
182.3284200000
0
LINE
5
22D
100
AcDbEntity
8
010
100
AcDbLine
62
7
6
CONTINUOUS
10
109.7906130000
20
176.4284200000
11
109.7906130000
21
182.3284200000
0
LINE
5
22E
100
AcDbEntity
8
010
100
AcDbLine
62
7
6
CONTINUOUS
10
110.2090410000
20
176.4284200000
11
110.2090410000
21
182.2946740000
0
LINE
5
22F
100
AcDbEntity
8
010
100
AcDbLine
62
7
6
CONTINUOUS
10
102.2868030000
20
176.4284200000
11
102.2868030000
21
182.3284200000
0
LINE
5
230
100
AcDbEntity
8
010
100
AcDbLine
62
7
6
CONTINUOUS
10
100.8096720000
20
176.4284200000
11
100.8096720000
21
182.3284200000
0
LINE
5
231
100
AcDbEntity
8
010
100
AcDbLine
62
7
6
CONTINUOUS
10
93.3058620000
20
176.4284200000
11
93.3058620000
21
182.3284200000
0
LINE
5
232
100
AcDbEntity
8
010
100
AcDbLine
62
7
6
CONTINUOUS
10
93.8358700000
20
176.4284200000
11
93.8358700000
21
182.3284200000
0
LINE
5
233
100
AcDbEntity
8
010
100
AcDbLine
62
7
6
CONTINUOUS
10
94.3379850000
20
176.4284200000
11
94.3379850000
21
182.3284200000
0
LINE
5
234
100
AcDbEntity
8
010
100
AcDbLine
62
7
6
CONTINUOUS
10
94.9795740000
20
176.4284200000
11
94.9795740000
21
182.3284200000
0
LINE
5
235
100
AcDbEntity
8
010
100
AcDbLine
62
7
6
CONTINUOUS
10
95.5932680000
20
176.4284200000
11
95.5932680000
21
182.3284200000
0
LINE
5
236
100
AcDbEntity
8
010
100
AcDbLine
62
7
6
CONTINUOUS
10
96.2906480000
20
176.4284200000
11
96.2906480000
21
182.3284200000
0
LINE
5
237
100
AcDbEntity
8
010
100
AcDbLine
62
7
6
CONTINUOUS
10
97.0159250000
20
176.4284200000
11
97.0159250000
21
182.3284200000
0
LINE
5
238
100
AcDbEntity
8
010
100
AcDbLine
62
7
6
CONTINUOUS
10
97.7133040000
20
176.4284200000
11
97.7133040000
21
182.3284200000
0
LINE
5
239
100
AcDbEntity
8
010
100
AcDbLine
62
7
6
CONTINUOUS
10
98.4106830000
20
176.4284200000
11
98.4106830000
21
182.3284200000
0
LINE
5
23A
100
AcDbEntity
8
010
100
AcDbLine
62
7
6
CONTINUOUS
10
99.2475400000
20
176.4284200000
11
99.2475400000
21
182.3284200000
0
LINE
5
23B
100
AcDbEntity
8
010
100
AcDbLine
62
7
6
CONTINUOUS
10
100.0843970000
20
176.4284200000
11
100.0843970000
21
182.3284200000
0
LINE
5
23C
100
AcDbEntity
8
010
100
AcDbLine
62
7
6
CONTINUOUS
10
92.8874340000
20
176.4284200000
11
92.8874340000
21
182.2946740000
0
LINE
5
23D
100
AcDbEntity
8
MITTE
100
AcDbLine
62
4
6
CENTER
10
101.5482370000
20
77.2356220000
11
101.5482370000
21
245.6852840000
0
LINE
5
23E
100
AcDbEntity
8
RAHMEN
100
AcDbLine
62
2
6
CONTINUOUS
10
205.0000000000
20
5.0000000000
11
205.0000000000
21
292.0000000000
0
LINE
5
23F
100
AcDbEntity
8
RAHMEN
100
AcDbLine
62
2
6
CONTINUOUS
10
205.0000000000
20
292.0000000000
11
5.0000000000
21
292.0000000000
0
LINE
5
240
100
AcDbEntity
8
RAHMEN
100
AcDbLine
62
2
6
CONTINUOUS
10
5.0000000000
20
292.0000000000
11
5.0000000000
21
5.0000000000
0
LINE
5
241
100
AcDbEntity
8
RAHMEN
100
AcDbLine
62
2
6
CONTINUOUS
10
5.0000000000
20
5.0000000000
11
205.0000000000
21
5.0000000000
0
LINE
5
242
100
AcDbEntity
8
05
100
AcDbLine
62
2
6
CONTINUOUS
10
154.0000000000
20
5.0000000000
11
154.0000000000
21
51.0000000000
0
LINE
5
243
100
AcDbEntity
8
05
100
AcDbLine
62
2
6
CONTINUOUS
10
188.0000000000
20
14.0000000000
11
188.0000000000
21
51.0000000000
0
LINE
5
244
100
AcDbEntity
8
05
100
AcDbLine
62
2
6
CONTINUOUS
10
173.0000000000
20
31.0000000000
11
173.0000000000
21
51.0000000000
0
LINE
5
245
100
AcDbEntity
8
05
100
AcDbLine
62
2
6
CONTINUOUS
10
72.0000000000
20
46.0000000000
11
113.0000000000
21
46.0000000000
0
LINE
5
246
100
AcDbEntity
8
05
100
AcDbLine
62
2
6
CONTINUOUS
10
60.0000000000
20
5.0000000000
11
60.0000000000
21
51.0000000000
0
LINE
5
247
100
AcDbEntity
8
05
100
AcDbLine
62
2
6
CONTINUOUS
10
47.0000000000
20
5.0000000000
11
47.0000000000
21
51.0000000000
0
LINE
5
248
100
AcDbEntity
8
05
100
AcDbLine
62
2
6
CONTINUOUS
10
5.0000000000
20
11.0000000000
11
72.0000000000
21
11.0000000000
0
LINE
5
249
100
AcDbEntity
8
05
100
AcDbLine
62
2
6
CONTINUOUS
10
72.0000000000
20
38.0000000000
11
113.0000000000
21
38.0000000000
0
LINE
5
24A
100
AcDbEntity
8
05
100
AcDbLine
62
2
6
CONTINUOUS
10
14.0000000000
20
5.0000000000
11
14.0000000000
21
51.0000000000
0
LINE
5
24B
100
AcDbEntity
8
05
100
AcDbLine
62
2
6
CONTINUOUS
10
72.0000000000
20
5.0000000000
11
72.0000000000
21
51.0000000000
0
LINE
5
24C
100
AcDbEntity
8
05
100
AcDbLine
62
2
6
CONTINUOUS
10
113.0000000000
20
31.0000000000
11
113.0000000000
21
51.0000000000
0
LINE
5
24D
100
AcDbEntity
8
05
100
AcDbLine
62
2
6
CONTINUOUS
10
136.0000000000
20
31.0000000000
11
136.0000000000
21
51.0000000000
0
LINE
5
24E
100
AcDbEntity
8
05
100
AcDbLine
62
2
6
CONTINUOUS
10
205.0000000000
20
5.0000000000
11
205.0000000000
21
51.0000000000
0
LINE
5
24F
100
AcDbEntity
8
05
100
AcDbLine
62
2
6
CONTINUOUS
10
5.0000000000
20
51.0000000000
11
5.0000000000
21
5.0000000000
0
LINE
5
250
100
AcDbEntity
8
05
100
AcDbLine
62
2
6
CONTINUOUS
10
205.0000000000
20
14.0000000000
11
72.0000000000
21
14.0000000000
0
LINE
5
251
100
AcDbEntity
8
05
100
AcDbLine
62
2
6
CONTINUOUS
10
205.0000000000
20
23.0000000000
11
154.0000000000
21
23.0000000000
0
LINE
5
252
100
AcDbEntity
8
05
100
AcDbLine
62
2
6
CONTINUOUS
10
205.0000000000
20
31.0000000000
11
72.0000000000
21
31.0000000000
0
LINE
5
253
100
AcDbEntity
8
05
100
AcDbLine
62
2
6
CONTINUOUS
10
205.0000000000
20
36.0000000000
11
154.0000000000
21
36.0000000000
0
LINE
5
254
100
AcDbEntity
8
05
100
AcDbLine
62
2
6
CONTINUOUS
10
205.0000000000
20
41.0000000000
11
154.0000000000
21
41.0000000000
0
LINE
5
255
100
AcDbEntity
8
05
100
AcDbLine
62
2
6
CONTINUOUS
10
205.0000000000
20
46.0000000000
11
154.0000000000
21
46.0000000000
0
LINE
5
256
100
AcDbEntity
8
05
100
AcDbLine
62
2
6
CONTINUOUS
10
205.0000000000
20
51.0000000000
11
5.0000000000
21
51.0000000000
0
LINE
5
257
100
AcDbEntity
8
05
100
AcDbLine
62
2
6
CONTINUOUS
10
95.1982370000
20
222.0084590000
11
95.1982370000
21
182.7284200000
0
LINE
5
258
100
AcDbEntity
8
05
100
AcDbLine
62
2
6
CONTINUOUS
10
107.8982370000
20
222.0084590000
11
107.8982370000
21
182.7284200000
0
ARC
5
259
100
AcDbEntity
8
05
100
AcDbCircle
62
2
6
CONTINUOUS
10
107.2582372603
20
228.5484588913
40
0.3999997397
100
AcDbArc
50
295.4443750055
51
0.0000155656
0
LINE
5
25A
100
AcDbEntity
8
05
100
AcDbLine
62
2
6
CONTINUOUS
10
107.6582370000
20
228.5484590000
11
107.6582370000
21
230.2742220000
0
ARC
5
25B
100
AcDbEntity
8
05
100
AcDbCircle
62
2
6
CONTINUOUS
10
106.4582344826
20
230.2742212865
40
1.2000025174
100
AcDbArc
50
0.0000340691
51
25.7455636939
0
LINE
5
25C
100
AcDbEntity
8
05
100
AcDbLine
62
2
6
CONTINUOUS
10
107.5391150000
20
230.7954730000
11
106.0282370000
21
233.9284590000
0
LINE
5
25D
100
AcDbEntity
8
05
100
AcDbLine
62
2
6
CONTINUOUS
10
106.0282370000
20
233.9284590000
11
106.3579890000
21
234.1593540000
0
ARC
5
25E
100
AcDbEntity
8
05
100
AcDbCircle
62
2
6
CONTINUOUS
10
105.2108383783
20
235.7976567523
40
1.9999976143
100
AcDbArc
50
304.9999691342
51
327.9757593210
0
ARC
5
25F
100
AcDbEntity
8
05
100
AcDbCircle
62
2
6
CONTINUOUS
10
101.5482419678
20
238.0884615117
40
6.3199974883
100
AcDbArc
50
327.9757183814
51
90.0000450371
0
ARC
5
260
100
AcDbEntity
8
05
100
AcDbCircle
62
2
6
CONTINUOUS
10
101.5482325322
20
238.0884617887
40
6.3199972113
100
AcDbArc
50
89.9999594957
51
212.0242861515
0
ARC
5
261
100
AcDbEntity
8
05
100
AcDbCircle
62
2
6
CONTINUOUS
10
97.8856366217
20
235.7976567523
40
1.9999976143
100
AcDbArc
50
212.0242406790
51
235.0000308658
0
LINE
5
262
100
AcDbEntity
8
05
100
AcDbLine
62
2
6
CONTINUOUS
10
96.7384860000
20
234.1593540000
11
97.0682370000
21
233.9284590000
0
LINE
5
263
100
AcDbEntity
8
05
100
AcDbLine
62
2
6
CONTINUOUS
10
97.0682370000
20
233.9284590000
11
95.5573600000
21
230.7954730000
0
ARC
5
264
100
AcDbEntity
8
05
100
AcDbCircle
62
2
6
CONTINUOUS
10
96.6382400174
20
230.2742190986
40
1.2000030174
100
AcDbArc
50
154.2543318422
51
179.9998614670
0
LINE
5
265
100
AcDbEntity
8
05
100
AcDbLine
62
2
6
CONTINUOUS
10
95.4382370000
20
230.2742220000
11
95.4382370000
21
228.5484590000
0
ARC
5
266
100
AcDbEntity
8
05
100
AcDbCircle
62
2
6
CONTINUOUS
10
95.8382367012
20
228.5484587012
40
0.3999997012
100
AcDbArc
50
179.9999571957
51
270.0000428043
0
LINE
5
267
100
AcDbEntity
8
05
100
AcDbLine
62
2
6
CONTINUOUS
10
95.8382370000
20
228.1484590000
11
107.2882390000
21
228.1484590000
0
LINE
5
268
100
AcDbEntity
8
05
100
AcDbLine
62
2
6
CONTINUOUS
10
107.1797800000
20
222.4084590000
11
107.2882370000
21
222.4084590000
0
ARC
5
269
100
AcDbEntity
8
05
100
AcDbCircle
62
2
6
CONTINUOUS
10
107.2882372988
20
222.8084587012
40
0.3999997012
100
AcDbArc
50
269.9999571957
51
0.0000428043
0
LINE
5
26A
100
AcDbEntity
8
05
100
AcDbLine
62
2
6
CONTINUOUS
10
107.6882370000
20
222.8084590000
11
107.6882370000
21
227.7484590000
0
ARC
5
26B
100
AcDbEntity
8
05
100
AcDbCircle
62
2
6
CONTINUOUS
10
107.2882372988
20
227.7484592988
40
0.3999997012
100
AcDbArc
50
359.9999571957
51
90.0000428043
0
LINE
5
26C
100
AcDbEntity
8
05
100
AcDbLine
62
2
6
CONTINUOUS
10
107.2882370000
20
228.1484590000
11
107.2582390000
21
228.1484590000
0
LINE
5
26D
100
AcDbEntity
8
05
100
AcDbLine
62
2
6
CONTINUOUS
10
95.9166950000
20
222.4084590000
11
95.8082370000
21
222.4084590000
0
ARC
5
26E
100
AcDbEntity
8
05
100
AcDbCircle
62
2
6
CONTINUOUS
10
95.8082367012
20
222.8084587012
40
0.3999997012
100
AcDbArc
50
179.9999571957
51
270.0000428043
0
LINE
5
26F
100
AcDbEntity
8
05
100
AcDbLine
62
2
6
CONTINUOUS
10
95.4082370000
20
222.8084590000
11
95.4082370000
21
227.7484590000
0
ARC
5
270
100
AcDbEntity
8
05
100
AcDbCircle
62
2
6
CONTINUOUS
10
95.8082367012
20
227.7484592988
40
0.3999997012
100
AcDbArc
50
89.9999571957
51
180.0000428043
0
LINE
5
271
100
AcDbEntity
8
05
100
AcDbLine
62
2
6
CONTINUOUS
10
95.8082370000
20
228.1484590000
11
95.8382360000
21
228.1484590000
0
LINE
5
272
100
AcDbEntity
8
05
100
AcDbLine
62
2
6
CONTINUOUS
10
97.1982370000
20
222.4084590000
11
95.5982370000
21
222.4084590000
0
ARC
5
273
100
AcDbEntity
8
05
100
AcDbCircle
62
2
6
CONTINUOUS
10
95.5982370000
20
222.0084590000
40
0.4000000000
100
AcDbArc
50
90.0000000000
51
180.0000000000
0
LINE
5
274
100
AcDbEntity
8
05
100
AcDbLine
62
2
6
CONTINUOUS
10
95.8082350000
20
222.4084590000
11
107.4982370000
21
222.4084590000
0
ARC
5
275
100
AcDbEntity
8
05
100
AcDbCircle
62
2
6
CONTINUOUS
10
107.4982370000
20
222.0084590000
40
0.4000000000
100
AcDbArc
50
0.0000000000
51
90.0000000000
0
LINE
5
276
100
AcDbEntity
8
05
100
AcDbLine
62
2
6
CONTINUOUS
10
110.4482370000
20
176.4284200000
11
110.4482370000
21
181.9284200000
0
LINE
5
277
100
AcDbEntity
8
05
100
AcDbLine
62
2
6
CONTINUOUS
10
92.6482370000
20
176.4284200000
11
92.6482370000
21
181.9284200000
0
ARC
5
278
100
AcDbEntity
8
05
100
AcDbCircle
62
2
6
CONTINUOUS
10
94.7982370000
20
182.7284200000
40
0.4000000000
100
AcDbArc
50
270.0000000000
51
360.0000000000
0
ARC
5
279
100
AcDbEntity
8
05
100
AcDbCircle
62
2
6
CONTINUOUS
10
110.0482370000
20
181.9284200000
40
0.4000000000
100
AcDbArc
50
0.0000000000
51
90.0000000000
0
ARC
5
27A
100
AcDbEntity
8
05
100
AcDbCircle
62
2
6
CONTINUOUS
10
108.2982370000
20
182.7284200000
40
0.4000000000
100
AcDbArc
50
180.0000000000
51
270.0000000000
0
LINE
5
27B
100
AcDbEntity
8
05
100
AcDbLine
62
2
6
CONTINUOUS
10
108.3182370000
20
182.3284200000
11
110.0482370000
21
182.3284200000
0
ARC
5
27C
100
AcDbEntity
8
05
100
AcDbCircle
62
2
6
CONTINUOUS
10
93.0482370000
20
181.9284200000
40
0.4000000000
100
AcDbArc
50
90.0000000000
51
180.0000000000
0
LINE
5
27D
100
AcDbEntity
8
05
100
AcDbLine
62
2
6
CONTINUOUS
10
93.0482370000
20
182.3284200000
11
108.3182360000
21
182.3284200000
0
LINE
5
27E
100
AcDbEntity
8
05
100
AcDbLine
62
2
6
CONTINUOUS
10
110.4491070000
20
176.4288510000
11
112.2477990000
21
174.6301590000
0
LINE
5
27F
100
AcDbEntity
8
05
100
AcDbLine
62
2
6
CONTINUOUS
10
92.6491070000
20
176.4288510000
11
90.8181430000
21
174.5978880000
0
LINE
5
280
100
AcDbEntity
8
05
100
AcDbLine
62
2
6
CONTINUOUS
10
112.2477990000
20
174.6284200000
11
112.2477990000
21
172.4047980000
0
LINE
5
281
100
AcDbEntity
8
05
100
AcDbLine
62
2
6
CONTINUOUS
10
90.8181430000
20
174.5978880000
11
90.8181430000
21
172.4047980000
0
LINE
5
282
100
AcDbEntity
8
05
100
AcDbLine
62
2
6
CONTINUOUS
10
92.6486760000
20
176.4284200000
11
110.3876370000
21
176.4284200000
0
LINE
5
283
100
AcDbEntity
8
05
100
AcDbLine
62
2
6
CONTINUOUS
10
90.8486760000
20
174.6284200000
11
112.2477990000
21
174.6284200000
0
LINE
5
284
100
AcDbEntity
8
05
100
AcDbLine
62
2
6
CONTINUOUS
10
114.0482370000
20
114.8047980000
11
114.0482370000
21
172.0047980000
0
LINE
5
285
100
AcDbEntity
8
05
100
AcDbLine
62
2
6
CONTINUOUS
10
89.0482370000
20
114.8047980000
11
89.0482370000
21
172.0047980000
0
LINE
5
286
100
AcDbEntity
8
05
100
AcDbLine
62
2
6
CONTINUOUS
10
89.6482370000
20
78.4047980000
11
113.4482370000
21
78.4047980000
0
LINE
5
287
100
AcDbEntity
8
05
100
AcDbLine
62
2
6
CONTINUOUS
10
89.0482370000
20
96.0047980000
11
114.0482370000
21
96.0047980000
0
LINE
5
288
100
AcDbEntity
8
05
100
AcDbLine
62
2
6
CONTINUOUS
10
113.6482370000
20
96.4047980000
11
89.4482370000
21
96.4047980000
0
LINE
5
289
100
AcDbEntity
8
05
100
AcDbLine
62
2
6
CONTINUOUS
10
89.4482370000
20
97.4047980000
11
113.6482370000
21
97.4047980000
0
LINE
5
28A
100
AcDbEntity
8
05
100
AcDbLine
62
2
6
CONTINUOUS
10
89.4482370000
20
113.4047980000
11
113.6482370000
21
113.4047980000
0
LINE
5
28B
100
AcDbEntity
8
05
100
AcDbLine
62
2
6
CONTINUOUS
10
113.6482370000
20
114.4047980000
11
89.4482370000
21
114.4047980000
0
LINE
5
28C
100
AcDbEntity
8
05
100
AcDbLine
62
2
6
CONTINUOUS
10
89.0482370000
20
114.8047980000
11
114.0482370000
21
114.8047980000
0
LINE
5
28D
100
AcDbEntity
8
05
100
AcDbLine
62
2
6
CONTINUOUS
10
89.0482370000
20
79.0047980000
11
114.0482370000
21
79.0047980000
0
LINE
5
28E
100
AcDbEntity
8
05
100
AcDbLine
62
2
6
CONTINUOUS
10
114.0482370000
20
79.0047980000
11
114.0482370000
21
96.0047980000
0
LINE
5
28F
100
AcDbEntity
8
05
100
AcDbLine
62
2
6
CONTINUOUS
10
113.4482370000
20
78.4047980000
11
114.0482370000
21
79.0047980000
0
LINE
5
290
100
AcDbEntity
8
05
100
AcDbLine
62
2
6
CONTINUOUS
10
113.6482370000
20
96.4047980000
11
114.0482370000
21
96.0047980000
0
LINE
5
291
100
AcDbEntity
8
05
100
AcDbLine
62
2
6
CONTINUOUS
10
113.6482370000
20
97.4047980000
11
114.1482370000
21
97.9047980000
0
LINE
5
292
100
AcDbEntity
8
05
100
AcDbLine
62
2
6
CONTINUOUS
10
113.6482370000
20
104.9047980000
11
114.1482370000
21
104.4047980000
0
LINE
5
293
100
AcDbEntity
8
05
100
AcDbLine
62
2
6
CONTINUOUS
10
113.6482370000
20
105.9047980000
11
114.1482370000
21
106.4047980000
0
LINE
5
294
100
AcDbEntity
8
05
100
AcDbLine
62
2
6
CONTINUOUS
10
113.6482370000
20
104.9047980000
11
113.6482370000
21
105.9047980000
0
LINE
5
295
100
AcDbEntity
8
05
100
AcDbLine
62
2
6
CONTINUOUS
10
113.6482370000
20
113.4047980000
11
114.1482370000
21
112.9047980000
0
LINE
5
296
100
AcDbEntity
8
05
100
AcDbLine
62
2
6
CONTINUOUS
10
113.6482370000
20
114.4047980000
11
113.6482370000
21
113.4047980000
0
LINE
5
297
100
AcDbEntity
8
05
100
AcDbLine
62
2
6
CONTINUOUS
10
113.6482370000
20
114.4047980000
11
114.0482370000
21
114.8047980000
0
LINE
5
298
100
AcDbEntity
8
05
100
AcDbLine
62
2
6
CONTINUOUS
10
89.0482370000
20
79.0047980000
11
89.0482370000
21
96.0047980000
0
LINE
5
299
100
AcDbEntity
8
05
100
AcDbLine
62
2
6
CONTINUOUS
10
89.6482370000
20
78.4047980000
11
89.0482370000
21
79.0047980000
0
LINE
5
29A
100
AcDbEntity
8
05
100
AcDbLine
62
2
6
CONTINUOUS
10
89.4482370000
20
96.4047980000
11
89.4482370000
21
97.4047980000
0
LINE
5
29B
100
AcDbEntity
8
05
100
AcDbLine
62
2
6
CONTINUOUS
10
89.4482370000
20
96.4047980000
11
89.4482370000
21
97.4047980000
0
LINE
5
29C
100
AcDbEntity
8
05
100
AcDbLine
62
2
6
CONTINUOUS
10
89.4482370000
20
96.4047980000
11
89.0482370000
21
96.0047980000
0
LINE
5
29D
100
AcDbEntity
8
05
100
AcDbLine
62
2
6
CONTINUOUS
10
89.4482370000
20
97.4047980000
11
88.9482370000
21
97.9047980000
0
LINE
5
29E
100
AcDbEntity
8
05
100
AcDbLine
62
2
6
CONTINUOUS
10
89.4482370000
20
104.9047980000
11
88.9482370000
21
104.4047980000
0
LINE
5
29F
100
AcDbEntity
8
05
100
AcDbLine
62
2
6
CONTINUOUS
10
89.4482370000
20
105.9047980000
11
88.9482370000
21
106.4047980000
0
LINE
5
2A0
100
AcDbEntity
8
05
100
AcDbLine
62
2
6
CONTINUOUS
10
89.4482370000
20
104.9047980000
11
89.4482370000
21
105.9047980000
0
LINE
5
2A1
100
AcDbEntity
8
05
100
AcDbLine
62
2
6
CONTINUOUS
10
89.4482370000
20
113.4047980000
11
88.9482370000
21
112.9047980000
0
LINE
5
2A2
100
AcDbEntity
8
05
100
AcDbLine
62
2
6
CONTINUOUS
10
89.4482370000
20
113.4047980000
11
89.4482370000
21
114.4047980000
0
LINE
5
2A3
100
AcDbEntity
8
05
100
AcDbLine
62
2
6
CONTINUOUS
10
89.4482370000
20
114.4047980000
11
89.0482370000
21
114.8047980000
0
LINE
5
2A4
100
AcDbEntity
8
05
100
AcDbLine
62
2
6
CONTINUOUS
10
89.4482370000
20
172.4047980000
11
113.6482370000
21
172.4047980000
0
LINE
5
2A5
100
AcDbEntity
8
05
100
AcDbLine
62
2
6
CONTINUOUS
10
89.0482370000
20
172.0047980000
11
114.0482370000
21
172.0047980000
0
LINE
5
2A6
100
AcDbEntity
8
05
100
AcDbLine
62
2
6
CONTINUOUS
10
114.0482370000
20
172.0047980000
11
113.6482370000
21
172.4047980000
0
LINE
5
2A7
100
AcDbEntity
8
05
100
AcDbLine
62
2
6
CONTINUOUS
10
89.0482370000
20
172.0047980000
11
89.4482370000
21
172.4047980000
0
LINE
5
2A8
100
AcDbEntity
8
RAHMEN
100
AcDbLine
62
7
6
CONTINUOUS
10
210.0000000000
20
0.0000000000
11
210.0000000000
21
297.0000000000
0
LINE
5
2A9
100
AcDbEntity
8
RAHMEN
100
AcDbLine
62
7
6
CONTINUOUS
10
210.0000000000
20
297.0000000000
11
0.0000000000
21
297.0000000000
0
LINE
5
2AA
100
AcDbEntity
8
RAHMEN
100
AcDbLine
62
7
6
CONTINUOUS
10
0.0000000000
20
297.0000000000
11
0.0000000000
21
0.0000000000
0
LINE
5
2AB
100
AcDbEntity
8
RAHMEN
100
AcDbLine
62
7
6
CONTINUOUS
10
0.0000000000
20
0.0000000000
11
210.0000000000
21
0.0000000000
0
LINE
5
2AC
100
AcDbEntity
8
05
100
AcDbLine
62
7
6
CONTINUOUS
10
97.5761270000
20
8.2089520000
11
97.8594800000
21
8.4923040000
0
LINE
5
2AD
100
AcDbEntity
8
05
100
AcDbLine
62
7
6
CONTINUOUS
10
99.6202690000
20
10.2530940000
11
100.0602470000
21
10.6930720000
0
LINE
5
2AE
100
AcDbEntity
8
05
100
AcDbLine
62
7
6
CONTINUOUS
10
98.5024150000
20
9.1352400000
11
98.7923930000
21
9.4252180000
0
LINE
5
2AF
100
AcDbEntity
8
05
100
AcDbLine
62
7
6
CONTINUOUS
10
97.2579290000
20
8.2089520000
11
97.9501160000
21
8.9011390000
0
LINE
5
2B0
100
AcDbEntity
8
05
100
AcDbLine
62
7
6
CONTINUOUS
10
99.3020710000
20
10.2530940000
11
99.7420490000
21
10.6930720000
0
LINE
5
2B1
100
AcDbEntity
8
05
100
AcDbLine
62
7
6
CONTINUOUS
10
98.1842170000
20
9.1352400000
11
98.4741950000
21
9.4252180000
0
LINE
5
2B2
100
AcDbEntity
8
05
100
AcDbLine
62
7
6
CONTINUOUS
10
96.9397310000
20
8.2089520000
11
98.1559970000
21
9.4252180000
0
LINE
5
2B3
100
AcDbEntity
8
05
100
AcDbLine
62
7
6
CONTINUOUS
10
98.9838730000
20
10.2530940000
11
99.4238510000
21
10.6930720000
0
LINE
5
2B4
100
AcDbEntity
8
05
100
AcDbLine
62
7
6
CONTINUOUS
10
96.6215330000
20
8.2089520000
11
98.1313890000
21
9.7188080000
0
LINE
5
2B5
100
AcDbEntity
8
05
100
AcDbLine
62
7
6
CONTINUOUS
10
98.6656750000
20
10.2530940000
11
99.1056530000
21
10.6930720000
0
LINE
5
2B6
100
AcDbEntity
8
05
100
AcDbLine
62
7
6
CONTINUOUS
10
96.3033350000
20
8.2089520000
11
98.2220250000
21
10.1276420000
0
LINE
5
2B7
100
AcDbEntity
8
05
100
AcDbLine
62
7
6
CONTINUOUS
10
98.3474770000
20
10.2530940000
11
98.7874550000
21
10.6930720000
0
LINE
5
2B8
100
AcDbEntity
8
05
100
AcDbLine
62
7
6
CONTINUOUS
10
96.1183660000
20
8.3421810000
11
98.4692570000
21
10.6930720000
0
LINE
5
2B9
100
AcDbEntity
8
05
100
AcDbLine
62
7
6
CONTINUOUS
10
96.2090020000
20
8.7510150000
11
98.1510590000
21
10.6930720000
0
LINE
5
2BA
100
AcDbEntity
8
05
100
AcDbLine
62
7
6
CONTINUOUS
10
96.2996390000
20
9.1598500000
11
97.8328610000
21
10.6930720000
0
LINE
5
2BB
100
AcDbEntity
8
05
100
AcDbLine
62
7
6
CONTINUOUS
10
96.3902750000
20
9.5686840000
11
97.5146630000
21
10.6930720000
0
LINE
5
2BC
100
AcDbEntity
8
05
100
AcDbLine
62
7
6
CONTINUOUS
10
96.4809110000
20
9.9775190000
11
97.1964650000
21
10.6930720000
0
LINE
5
2BD
100
AcDbEntity
8
05
100
AcDbLine
62
7
6
CONTINUOUS
10
96.5715480000
20
10.3863530000
11
96.8782670000
21
10.6930720000
0
LINE
5
2BE
100
AcDbEntity
8
05
100
AcDbLine
62
7
6
CONTINUOUS
10
95.9390390000
20
10.0720420000
11
95.9639990000
21
10.0970020000
0
LINE
5
2BF
100
AcDbEntity
8
05
100
AcDbLine
62
7
6
CONTINUOUS
10
93.7577510000
20
8.2089520000
11
93.9600800000
21
8.4112820000
0
LINE
5
2C0
100
AcDbEntity
8
05
100
AcDbLine
62
7
6
CONTINUOUS
10
95.6208410000
20
10.0720420000
11
96.0546360000
21
10.5058370000
0
LINE
5
2C1
100
AcDbEntity
8
05
100
AcDbLine
62
7
6
CONTINUOUS
10
93.4395530000
20
8.2089520000
11
94.0507170000
21
8.8201160000
0
LINE
5
2C2
100
AcDbEntity
8
05
100
AcDbLine
62
7
6
CONTINUOUS
10
95.3026430000
20
10.0720420000
11
95.9236730000
21
10.6930720000
0
LINE
5
2C3
100
AcDbEntity
8
05
100
AcDbLine
62
7
6
CONTINUOUS
10
93.1213550000
20
8.2089520000
11
94.1413530000
21
9.2289510000
0
LINE
5
2C4
100
AcDbEntity
8
05
100
AcDbLine
62
7
6
CONTINUOUS
10
94.9844450000
20
10.0720420000
11
95.6054740000
21
10.6930720000
0
LINE
5
2C5
100
AcDbEntity
8
05
100
AcDbLine
62
7
6
CONTINUOUS
10
92.8031570000
20
8.2089520000
11
94.2319900000
21
9.6377850000
0
LINE
5
2C6
100
AcDbEntity
8
05
100
AcDbLine
62
7
6
CONTINUOUS
10
94.6662460000
20
10.0720420000
11
95.2872760000
21
10.6930720000
0
LINE
5
2C7
100
AcDbEntity
8
05
100
AcDbLine
62
7
6
CONTINUOUS
10
92.4849590000
20
8.2089520000
11
94.3226260000
21
10.0466200000
0
LINE
5
2C8
100
AcDbEntity
8
05
100
AcDbLine
62
7
6
CONTINUOUS
10
94.3480480000
20
10.0720420000
11
94.9690780000
21
10.6930720000
0
LINE
5
2C9
100
AcDbEntity
8
05
100
AcDbLine
62
7
6
CONTINUOUS
10
92.2189660000
20
8.2611580000
11
94.6508800000
21
10.6930720000
0
LINE
5
2CA
100
AcDbEntity
8
05
100
AcDbLine
62
7
6
CONTINUOUS
10
92.3096030000
20
8.6699920000
11
94.3326820000
21
10.6930720000
0
LINE
5
2CB
100
AcDbEntity
8
05
100
AcDbLine
62
7
6
CONTINUOUS
10
92.4002390000
20
9.0788270000
11
94.0144840000
21
10.6930720000
0
LINE
5
2CC
100
AcDbEntity
8
05
100
AcDbLine
62
7
6
CONTINUOUS
10
92.4908760000
20
9.4876610000
11
93.6962860000
21
10.6930720000
0
LINE
5
2CD
100
AcDbEntity
8
05
100
AcDbLine
62
7
6
CONTINUOUS
10
92.5815120000
20
9.8964960000
11
93.3780880000
21
10.6930720000
0
LINE
5
2CE
100
AcDbEntity
8
05
100
AcDbLine
62
7
6
CONTINUOUS
10
92.4388600000
20
10.0720420000
11
93.0598900000
21
10.6930720000
0
LINE
5
2CF
100
AcDbEntity
8
05
100
AcDbLine
62
7
6
CONTINUOUS
10
92.1206620000
20
10.0720420000
11
92.7416920000
21
10.6930720000
0
LINE
5
2D0
100
AcDbEntity
8
05
100
AcDbLine
62
7
6
CONTINUOUS
10
91.8024640000
20
10.0720420000
11
92.4234940000
21
10.6930720000
0
LINE
5
2D1
100
AcDbEntity
8
05
100
AcDbLine
62
7
6
CONTINUOUS
10
89.8883760000
20
8.4761520000
11
90.3685390000
21
8.9563150000
0
LINE
5
2D2
100
AcDbEntity
8
05
100
AcDbLine
62
7
6
CONTINUOUS
10
91.4842660000
20
10.0720420000
11
92.1052960000
21
10.6930720000
0
LINE
5
2D3
100
AcDbEntity
8
05
100
AcDbLine
62
7
6
CONTINUOUS
10
89.4054660000
20
8.3114400000
11
90.4591750000
21
9.3651490000
0
LINE
5
2D4
100
AcDbEntity
8
05
100
AcDbLine
62
7
6
CONTINUOUS
10
91.1660680000
20
10.0720420000
11
91.7870980000
21
10.6930720000
0
LINE
5
2D5
100
AcDbEntity
8
05
100
AcDbLine
62
7
6
CONTINUOUS
10
89.0027690000
20
8.2269410000
11
90.5498110000
21
9.7739840000
0
LINE
5
2D6
100
AcDbEntity
8
05
100
AcDbLine
62
7
6
CONTINUOUS
10
91.1305160000
20
10.3546880000
11
91.4689000000
21
10.6930720000
0
LINE
5
2D7
100
AcDbEntity
8
05
100
AcDbLine
62
7
6
CONTINUOUS
10
88.6368590000
20
8.1792300000
11
90.6404480000
21
10.1828180000
0
LINE
5
2D8
100
AcDbEntity
8
05
100
AcDbLine
62
7
6
CONTINUOUS
10
88.2894110000
20
8.1499790000
11
90.7310840000
21
10.5916520000
0
LINE
5
2D9
100
AcDbEntity
8
05
100
AcDbLine
62
7
6
CONTINUOUS
10
87.9558910000
20
8.1346570000
11
90.5143060000
21
10.6930720000
0
LINE
5
2DA
100
AcDbEntity
8
05
100
AcDbLine
62
7
6
CONTINUOUS
10
87.6346880000
20
8.1316520000
11
88.3351190000
21
8.8320840000
0
LINE
5
2DB
100
AcDbEntity
8
05
100
AcDbLine
62
7
6
CONTINUOUS
10
88.7236060000
20
9.2205700000
11
90.1961080000
21
10.6930720000
0
LINE
5
2DC
100
AcDbEntity
8
05
100
AcDbLine
62
7
6
CONTINUOUS
10
87.3245180000
20
8.1396810000
11
87.9444690000
21
8.7596310000
0
LINE
5
2DD
100
AcDbEntity
8
05
100
AcDbLine
62
7
6
CONTINUOUS
10
88.8142420000
20
9.6294040000
11
89.8779100000
21
10.6930720000
0
LINE
5
2DE
100
AcDbEntity
8
05
100
AcDbLine
62
7
6
CONTINUOUS
10
87.0243430000
20
8.1577030000
11
87.6233120000
21
8.7566730000
0
LINE
5
2DF
100
AcDbEntity
8
05
100
AcDbLine
62
7
6
CONTINUOUS
10
88.9048780000
20
10.0382390000
11
89.5597110000
21
10.6930720000
0
LINE
5
2E0
100
AcDbEntity
8
05
100
AcDbLine
62
7
6
CONTINUOUS
10
86.7333060000
20
8.1848640000
11
87.3407990000
21
8.7923570000
0
LINE
5
2E1
100
AcDbEntity
8
05
100
AcDbLine
62
7
6
CONTINUOUS
10
88.9955150000
20
10.4470730000
11
89.2415130000
21
10.6930720000
0
LINE
5
2E2
100
AcDbEntity
8
05
100
AcDbLine
62
7
6
CONTINUOUS
10
86.4520070000
20
8.2217640000
11
87.0972290000
21
8.8669850000
0
LINE
5
2E3
100
AcDbEntity
8
05
100
AcDbLine
62
7
6
CONTINUOUS
10
86.1841710000
20
8.2721250000
11
86.9024090000
21
8.9903630000
0
LINE
5
2E4
100
AcDbEntity
8
05
100
AcDbLine
62
7
6
CONTINUOUS
10
85.9287580000
20
8.3349100000
11
86.8448360000
21
9.2509890000
0
LINE
5
2E5
100
AcDbEntity
8
05
100
AcDbLine
62
7
6
CONTINUOUS
10
85.6873210000
20
8.4116710000
11
86.9354730000
21
9.6598230000
0
LINE
5
2E6
100
AcDbEntity
8
05
100
AcDbLine
62
7
6
CONTINUOUS
10
85.4667180000
20
8.5092670000
11
87.0261090000
21
10.0686580000
0
LINE
5
2E7
100
AcDbEntity
8
05
100
AcDbLine
62
7
6
CONTINUOUS
10
85.2651030000
20
8.6258500000
11
87.1167450000
21
10.4774920000
0
LINE
5
2E8
100
AcDbEntity
8
05
100
AcDbLine
62
7
6
CONTINUOUS
10
85.1018940000
20
8.7808390000
11
87.0141270000
21
10.6930720000
0
LINE
5
2E9
100
AcDbEntity
8
05
100
AcDbLine
62
7
6
CONTINUOUS
10
85.1092480000
20
9.1063910000
11
86.6959290000
21
10.6930720000
0
LINE
5
2EA
100
AcDbEntity
8
05
100
AcDbLine
62
7
6
CONTINUOUS
10
83.8936110000
20
8.2089520000
11
84.2024780000
21
8.5178190000
0
LINE
5
2EB
100
AcDbEntity
8
05
100
AcDbLine
62
7
6
CONTINUOUS
10
85.1998850000
20
9.5152260000
11
86.3777310000
21
10.6930720000
0
LINE
5
2EC
100
AcDbEntity
8
05
100
AcDbLine
62
7
6
CONTINUOUS
10
83.5754130000
20
8.2089520000
11
84.0153920000
21
8.6489310000
0
LINE
5
2ED
100
AcDbEntity
8
05
100
AcDbLine
62
7
6
CONTINUOUS
10
85.2905210000
20
9.9240600000
11
86.0595330000
21
10.6930720000
0
LINE
5
2EE
100
AcDbEntity
8
05
100
AcDbLine
62
7
6
CONTINUOUS
10
83.2572150000
20
8.2089520000
11
83.6971940000
21
8.6489310000
0
LINE
5
2EF
100
AcDbEntity
8
05
100
AcDbLine
62
7
6
CONTINUOUS
10
85.3811580000
20
10.3328950000
11
85.7413350000
21
10.6930720000
0
LINE
5
2F0
100
AcDbEntity
8
05
100
AcDbLine
62
7
6
CONTINUOUS
10
82.9390170000
20
8.2089520000
11
83.3789960000
21
8.6489310000
0
LINE
5
2F1
100
AcDbEntity
8
05
100
AcDbLine
62
7
6
CONTINUOUS
10
84.0360880000
20
9.3060230000
11
84.1751650000
21
9.4451000000
0
LINE
5
2F2
100
AcDbEntity
8
05
100
AcDbLine
62
7
6
CONTINUOUS
10
82.6208190000
20
8.2089520000
11
83.0607970000
21
8.6489310000
0
LINE
5
2F3
100
AcDbEntity
8
05
100
AcDbLine
62
7
6
CONTINUOUS
10
83.7178900000
20
9.3060230000
11
84.0078680000
21
9.5960010000
0
LINE
5
2F4
100
AcDbEntity
8
05
100
AcDbLine
62
7
6
CONTINUOUS
10
82.3026210000
20
8.2089520000
11
82.7425990000
21
8.6489310000
0
LINE
5
2F5
100
AcDbEntity
8
05
100
AcDbLine
62
7
6
CONTINUOUS
10
84.3467620000
20
10.2530940000
11
84.6556600000
21
10.5619910000
0
LINE
5
2F6
100
AcDbEntity
8
05
100
AcDbLine
62
7
6
CONTINUOUS
10
83.3996920000
20
9.3060230000
11
83.6896700000
21
9.5960010000
0
LINE
5
2F7
100
AcDbEntity
8
05
100
AcDbLine
62
7
6
CONTINUOUS
10
81.9844230000
20
8.2089520000
11
82.4244010000
21
8.6489310000
0
LINE
5
2F8
100
AcDbEntity
8
05
100
AcDbLine
62
7
6
CONTINUOUS
10
84.0285640000
20
10.2530940000
11
84.4685430000
21
10.6930720000
0
LINE
5
2F9
100
AcDbEntity
8
05
100
AcDbLine
62
7
6
CONTINUOUS
10
83.0814940000
20
9.3060230000
11
83.3714720000
21
9.5960010000
0
LINE
5
2FA
100
AcDbEntity
8
05
100
AcDbLine
62
7
6
CONTINUOUS
10
81.6662250000
20
8.2089520000
11
82.1062030000
21
8.6489310000
0
LINE
5
2FB
100
AcDbEntity
8
05
100
AcDbLine
62
7
6
CONTINUOUS
10
83.7103660000
20
10.2530940000
11
84.1503450000
21
10.6930720000
0
LINE
5
2FC
100
AcDbEntity
8
05
100
AcDbLine
62
7
6
CONTINUOUS
10
82.7632960000
20
9.3060230000
11
83.0532740000
21
9.5960010000
0
LINE
5
2FD
100
AcDbEntity
8
05
100
AcDbLine
62
7
6
CONTINUOUS
10
81.3480270000
20
8.2089520000
11
81.7880050000
21
8.6489310000
0
LINE
5
2FE
100
AcDbEntity
8
05
100
AcDbLine
62
7
6
CONTINUOUS
10
83.3921680000
20
10.2530940000
11
83.8321470000
21
10.6930720000
0
LINE
5
2FF
100
AcDbEntity
8
05
100
AcDbLine
62
7
6
CONTINUOUS
10
82.4450970000
20
9.3060230000
11
82.7350760000
21
9.5960010000
0
LINE
5
300
100
AcDbEntity
8
05
100
AcDbLine
62
7
6
CONTINUOUS
10
81.0298290000
20
8.2089520000
11
81.4698070000
21
8.6489310000
0
LINE
5
301
100
AcDbEntity
8
05
100
AcDbLine
62
7
6
CONTINUOUS
10
83.0739700000
20
10.2530940000
11
83.5139480000
21
10.6930720000
0
LINE
5
302
100
AcDbEntity
8
05
100
AcDbLine
62
7
6
CONTINUOUS
10
82.1268990000
20
9.3060230000
11
82.4168780000
21
9.5960010000
0
LINE
5
303
100
AcDbEntity
8
05
100
AcDbLine
62
7
6
CONTINUOUS
10
80.7116310000
20
8.2089520000
11
81.3186940000
21
8.8160160000
0
LINE
5
304
100
AcDbEntity
8
05
100
AcDbLine
62
7
6
CONTINUOUS
10
82.7557720000
20
10.2530940000
11
83.1957500000
21
10.6930720000
0
LINE
5
305
100
AcDbEntity
8
05
100
AcDbLine
62
7
6
CONTINUOUS
10
81.8087010000
20
9.3060230000
11
82.0986800000
21
9.5960010000
0
LINE
5
306
100
AcDbEntity
8
05
100
AcDbLine
62
7
6
CONTINUOUS
10
80.3934330000
20
8.2089520000
11
81.4093310000
21
9.2248500000
0
LINE
5
307
100
AcDbEntity
8
05
100
AcDbLine
62
7
6
CONTINUOUS
10
82.4375740000
20
10.2530940000
11
82.8775520000
21
10.6930720000
0
LINE
5
308
100
AcDbEntity
8
05
100
AcDbLine
62
7
6
CONTINUOUS
10
81.4905030000
20
9.3060230000
11
81.7804820000
21
9.5960010000
0
LINE
5
309
100
AcDbEntity
8
05
100
AcDbLine
62
7
6
CONTINUOUS
10
80.0752350000
20
8.2089520000
11
81.4999670000
21
9.6336850000
0
LINE
5
30A
100
AcDbEntity
8
05
100
AcDbLine
62
7
6
CONTINUOUS
10
82.1193760000
20
10.2530940000
11
82.5593540000
21
10.6930720000
0
LINE
5
30B
100
AcDbEntity
8
05
100
AcDbLine
62
7
6
CONTINUOUS
10
79.7570370000
20
8.2089520000
11
81.5906030000
21
10.0425190000
0
LINE
5
30C
100
AcDbEntity
8
05
100
AcDbLine
62
7
6
CONTINUOUS
10
81.8011780000
20
10.2530940000
11
82.2411560000
21
10.6930720000
0
LINE
5
30D
100
AcDbEntity
8
05
100
AcDbLine
62
7
6
CONTINUOUS
10
79.4869440000
20
8.2570570000
11
81.9229580000
21
10.6930720000
0
LINE
5
30E
100
AcDbEntity
8
05
100
AcDbLine
62
7
6
CONTINUOUS
10
79.5775800000
20
8.6658920000
11
81.6047600000
21
10.6930720000
0
LINE
5
30F
100
AcDbEntity
8
05
100
AcDbLine
62
7
6
CONTINUOUS
10
79.6682170000
20
9.0747260000
11
81.2865620000
21
10.6930720000
0
LINE
5
310
100
AcDbEntity
8
05
100
AcDbLine
62
7
6
CONTINUOUS
10
78.4842440000
20
8.2089520000
11
78.6617050000
21
8.3864130000
0
LINE
5
311
100
AcDbEntity
8
05
100
AcDbLine
62
7
6
CONTINUOUS
10
79.7588530000
20
9.4835610000
11
80.9683640000
21
10.6930720000
0
LINE
5
312
100
AcDbEntity
8
05
100
AcDbLine
62
7
6
CONTINUOUS
10
78.1660460000
20
8.2089520000
11
78.7523410000
21
8.7952470000
0
LINE
5
313
100
AcDbEntity
8
05
100
AcDbLine
62
7
6
CONTINUOUS
10
79.8494890000
20
9.8923950000
11
80.6501660000
21
10.6930720000
0
LINE
5
314
100
AcDbEntity
8
05
100
AcDbLine
62
7
6
CONTINUOUS
10
77.8478480000
20
8.2089520000
11
78.8429780000
21
9.2040820000
0
LINE
5
315
100
AcDbEntity
8
05
100
AcDbLine
62
7
6
CONTINUOUS
10
79.9401260000
20
10.3012300000
11
80.3319680000
21
10.6930720000
0
LINE
5
316
100
AcDbEntity
8
05
100
AcDbLine
62
7
6
CONTINUOUS
10
77.5296500000
20
8.2089520000
11
78.9336140000
21
9.6129160000
0
LINE
5
317
100
AcDbEntity
8
05
100
AcDbLine
62
7
6
CONTINUOUS
10
77.2114520000
20
8.2089520000
11
79.0242510000
21
10.0217510000
0
LINE
5
318
100
AcDbEntity
8
05
100
AcDbLine
62
7
6
CONTINUOUS
10
76.8932540000
20
8.2089520000
11
79.1148870000
21
10.4305850000
0
LINE
5
319
100
AcDbEntity
8
05
100
AcDbLine
62
7
6
CONTINUOUS
10
76.6255330000
20
8.2594290000
11
79.0591760000
21
10.6930720000
0
LINE
5
31A
100
AcDbEntity
8
05
100
AcDbLine
62
7
6
CONTINUOUS
10
76.4580220000
20
8.4101170000
11
78.7409780000
21
10.6930720000
0
LINE
5
31B
100
AcDbEntity
8
05
100
AcDbLine
62
7
6
CONTINUOUS
10
76.2905120000
20
8.5608040000
11
78.4227800000
21
10.6930720000
0
LINE
5
31C
100
AcDbEntity
8
05
100
AcDbLine
62
7
6
CONTINUOUS
10
76.1230020000
20
8.7114920000
11
77.1030810000
21
9.6915710000
0
LINE
5
31D
100
AcDbEntity
8
05
100
AcDbLine
62
7
6
CONTINUOUS
10
77.2831370000
20
9.8716270000
11
78.1045820000
21
10.6930720000
0
LINE
5
31E
100
AcDbEntity
8
05
100
AcDbLine
62
7
6
CONTINUOUS
10
75.9554910000
20
8.8621800000
11
76.9163070000
21
9.8229950000
0
LINE
5
31F
100
AcDbEntity
8
05
100
AcDbLine
62
7
6
CONTINUOUS
10
77.3737730000
20
10.2804620000
11
77.7863840000
21
10.6930720000
0
LINE
5
320
100
AcDbEntity
8
05
100
AcDbLine
62
7
6
CONTINUOUS
10
75.7879810000
20
9.0128680000
11
76.7295320000
21
9.9544190000
0
LINE
5
321
100
AcDbEntity
8
05
100
AcDbLine
62
7
6
CONTINUOUS
10
77.4644100000
20
10.6892960000
11
77.4681860000
21
10.6930720000
0
LINE
5
322
100
AcDbEntity
8
05
100
AcDbLine
62
7
6
CONTINUOUS
10
74.6658680000
20
8.2089520000
11
74.8620460000
21
8.4051310000
0
LINE
5
323
100
AcDbEntity
8
05
100
AcDbLine
62
7
6
CONTINUOUS
10
75.6204710000
20
9.1635550000
11
76.5427580000
21
10.0858420000
0
LINE
5
324
100
AcDbEntity
8
05
100
AcDbLine
62
7
6
CONTINUOUS
10
74.3476700000
20
8.2089520000
11
74.9526830000
21
8.8139650000
0
LINE
5
325
100
AcDbEntity
8
05
100
AcDbLine
62
7
6
CONTINUOUS
10
75.4529600000
20
9.3142430000
11
76.3559830000
21
10.2172660000
0
LINE
5
326
100
AcDbEntity
8
05
100
AcDbLine
62
7
6
CONTINUOUS
10
74.0294720000
20
8.2089520000
11
75.0433190000
21
9.2228000000
0
LINE
5
327
100
AcDbEntity
8
05
100
AcDbLine
62
7
6
CONTINUOUS
10
75.2854500000
20
9.4649310000
11
76.1692090000
21
10.3486900000
0
LINE
5
328
100
AcDbEntity
8
05
100
AcDbLine
62
7
6
CONTINUOUS
10
73.7112740000
20
8.2089520000
11
75.9824350000
21
10.4801130000
0
LINE
5
329
100
AcDbEntity
8
05
100
AcDbLine
62
7
6
CONTINUOUS
10
73.3930760000
20
8.2089520000
11
75.7956600000
21
10.6115370000
0
LINE
5
32A
100
AcDbEntity
8
05
100
AcDbLine
62
7
6
CONTINUOUS
10
73.1209320000
20
8.2550070000
11
75.5589970000
21
10.6930720000
0
LINE
5
32B
100
AcDbEntity
8
05
100
AcDbLine
62
7
6
CONTINUOUS
10
73.2115690000
20
8.6638420000
11
75.2407990000
21
10.6930720000
0
LINE
5
32C
100
AcDbEntity
8
05
100
AcDbLine
62
7
6
CONTINUOUS
10
73.3022050000
20
9.0726760000
11
74.9226010000
21
10.6930720000
0
LINE
5
32D
100
AcDbEntity
8
05
100
AcDbLine
62
7
6
CONTINUOUS
10
73.3928420000
20
9.4815110000
11
74.6044030000
21
10.6930720000
0
LINE
5
32E
100
AcDbEntity
8
05
100
AcDbLine
62
7
6
CONTINUOUS
10
73.4834780000
20
9.8903450000
11
74.2862050000
21
10.6930720000
0
LINE
5
32F
100
AcDbEntity
8
05
100
AcDbLine
62
7
6
CONTINUOUS
10
73.5741150000
20
10.2991800000
11
73.9680070000
21
10.6930720000
0
LINE
5
330
100
AcDbEntity
8
05
100
AcDbLine
62
7
6
CONTINUOUS
10
98.8206130000
20
9.1352400000
11
99.1105910000
21
9.4252180000
0
LINE
5
331
100
AcDbEntity
8
05
100
AcDbLine
62
7
6
CONTINUOUS
10
99.8666600000
20
10.1812870000
11
100.3784450000
21
10.6930720000
0
LINE
5
332
100
AcDbEntity
8
05
100
AcDbLine
62
7
6
CONTINUOUS
10
99.1388110000
20
9.1352400000
11
99.4292410000
21
9.4256700000
0
LINE
5
333
100
AcDbEntity
8
05
100
AcDbLine
62
7
6
CONTINUOUS
10
99.9467390000
20
9.9431670000
11
100.6966430000
21
10.6930720000
0
LINE
5
334
100
AcDbEntity
8
05
100
AcDbLine
62
7
6
CONTINUOUS
10
99.4562560000
20
9.1344860000
11
101.0146710000
21
10.6929020000
0
LINE
5
335
100
AcDbEntity
8
05
100
AcDbLine
62
7
6
CONTINUOUS
10
99.6305160000
20
8.9905480000
11
101.2989430000
21
10.6589760000
0
LINE
5
336
100
AcDbEntity
8
05
100
AcDbLine
62
7
6
CONTINUOUS
10
99.6130000000
20
8.6548350000
11
101.5351130000
21
10.5769480000
0
LINE
5
337
100
AcDbEntity
8
05
100
AcDbLine
62
7
6
CONTINUOUS
10
99.6052610000
20
8.3288970000
11
101.7250750000
21
10.4487110000
0
LINE
5
338
100
AcDbEntity
8
05
100
AcDbLine
62
7
6
CONTINUOUS
10
99.8035140000
20
8.2089520000
11
101.8509000000
21
10.2563380000
0
LINE
5
339
100
AcDbEntity
8
05
100
AcDbLine
62
7
6
CONTINUOUS
10
100.1217120000
20
8.2089520000
11
101.2212130000
21
9.3084530000
0
LINE
5
33A
100
AcDbEntity
8
05
100
AcDbLine
62
7
6
CONTINUOUS
10
101.2660830000
20
9.3533230000
11
101.8342290000
21
9.9214690000
0
LINE
5
33B
100
AcDbEntity
8
05
100
AcDbLine
62
7
6
CONTINUOUS
10
100.4399100000
20
8.2089520000
11
101.3457580000
21
9.1148000000
0
LINE
5
33C
100
AcDbEntity
8
05
100
AcDbLine
62
7
6
CONTINUOUS
10
102.6292330000
20
10.3982750000
11
102.9240300000
21
10.6930720000
0
LINE
5
33D
100
AcDbEntity
8
05
100
AcDbLine
62
7
6
CONTINUOUS
10
100.7581080000
20
8.2089520000
11
101.3299420000
21
8.7807860000
0
LINE
5
33E
100
AcDbEntity
8
05
100
AcDbLine
62
7
6
CONTINUOUS
10
102.5385960000
20
9.9894400000
11
103.2422280000
21
10.6930720000
0
LINE
5
33F
100
AcDbEntity
8
05
100
AcDbLine
62
7
6
CONTINUOUS
10
101.0763060000
20
8.2089520000
11
101.3071930000
21
8.4398390000
0
LINE
5
340
100
AcDbEntity
8
05
100
AcDbLine
62
7
6
CONTINUOUS
10
102.4479600000
20
9.5806060000
11
103.5604260000
21
10.6930720000
0
LINE
5
341
100
AcDbEntity
8
05
100
AcDbLine
62
7
6
CONTINUOUS
10
102.3573230000
20
9.1717720000
11
103.8786240000
21
10.6930720000
0
LINE
5
342
100
AcDbEntity
8
05
100
AcDbLine
62
7
6
CONTINUOUS
10
102.2666870000
20
8.7629370000
11
104.1968220000
21
10.6930720000
0
LINE
5
343
100
AcDbEntity
8
05
100
AcDbLine
62
7
6
CONTINUOUS
10
102.1760510000
20
8.3541030000
11
104.3703470000
21
10.5483990000
0
LINE
5
344
100
AcDbEntity
8
05
100
AcDbLine
62
7
6
CONTINUOUS
10
102.3490980000
20
8.2089520000
11
104.2797100000
21
10.1395640000
0
LINE
5
345
100
AcDbEntity
8
05
100
AcDbLine
62
7
6
CONTINUOUS
10
102.6672960000
20
8.2089520000
11
104.1890740000
21
9.7307300000
0
LINE
5
346
100
AcDbEntity
8
05
100
AcDbLine
62
7
6
CONTINUOUS
10
102.9854940000
20
8.2089520000
11
104.0984370000
21
9.3218950000
0
LINE
5
347
100
AcDbEntity
8
05
100
AcDbLine
62
7
6
CONTINUOUS
10
105.3950670000
20
10.6185250000
11
105.4696140000
21
10.6930720000
0
LINE
5
348
100
AcDbEntity
8
05
100
AcDbLine
62
7
6
CONTINUOUS
10
103.3036920000
20
8.2089520000
11
104.0078010000
21
8.9130610000
0
LINE
5
349
100
AcDbEntity
8
05
100
AcDbLine
62
7
6
CONTINUOUS
10
105.3044300000
20
10.2096900000
11
105.7878120000
21
10.6930720000
0
LINE
5
34A
100
AcDbEntity
8
05
100
AcDbLine
62
7
6
CONTINUOUS
10
103.6218900000
20
8.2089520000
11
103.9171640000
21
8.5042260000
0
LINE
5
34B
100
AcDbEntity
8
05
100
AcDbLine
62
7
6
CONTINUOUS
10
105.2137940000
20
9.8008560000
11
106.1060100000
21
10.6930720000
0
LINE
5
34C
100
AcDbEntity
8
05
100
AcDbLine
62
7
6
CONTINUOUS
10
105.1231580000
20
9.3920210000
11
106.4242080000
21
10.6930720000
0
LINE
5
34D
100
AcDbEntity
8
05
100
AcDbLine
62
7
6
CONTINUOUS
10
105.0325210000
20
8.9831870000
11
106.7424060000
21
10.6930720000
0
LINE
5
34E
100
AcDbEntity
8
05
100
AcDbLine
62
7
6
CONTINUOUS
10
104.9418850000
20
8.5743520000
11
107.0364400000
21
10.6689080000
0
LINE
5
34F
100
AcDbEntity
8
05
100
AcDbLine
62
7
6
CONTINUOUS
10
104.8946830000
20
8.2089520000
11
106.9458040000
21
10.2600730000
0
LINE
5
350
100
AcDbEntity
8
05
100
AcDbLine
62
7
6
CONTINUOUS
10
105.2128810000
20
8.2089520000
11
106.8577180000
21
9.8537890000
0
LINE
5
351
100
AcDbEntity
8
05
100
AcDbLine
62
7
6
CONTINUOUS
10
105.5310790000
20
8.2089520000
11
107.4121960000
21
10.0900700000
0
LINE
5
352
100
AcDbEntity
8
05
100
AcDbLine
62
7
6
CONTINUOUS
10
105.8492770000
20
8.2089520000
11
107.9666750000
21
10.3263510000
0
LINE
5
353
100
AcDbEntity
8
05
100
AcDbLine
62
7
6
CONTINUOUS
10
106.1674750000
20
8.2089520000
11
106.5832580000
21
8.6247350000
0
LINE
5
354
100
AcDbEntity
8
05
100
AcDbLine
62
7
6
CONTINUOUS
10
106.9071250000
20
8.9486020000
11
108.5211540000
21
10.5626310000
0
LINE
5
355
100
AcDbEntity
8
05
100
AcDbLine
62
7
6
CONTINUOUS
10
106.4856730000
20
8.2089520000
11
106.4926210000
21
8.2159010000
0
LINE
5
356
100
AcDbEntity
8
05
100
AcDbLine
62
7
6
CONTINUOUS
10
107.3871300000
20
9.1104090000
11
108.9697930000
21
10.6930720000
0
LINE
5
357
100
AcDbEntity
8
05
100
AcDbLine
62
7
6
CONTINUOUS
10
107.5451590000
20
8.9502400000
11
109.2879910000
21
10.6930720000
0
LINE
5
358
100
AcDbEntity
8
05
100
AcDbLine
62
7
6
CONTINUOUS
10
107.7031880000
20
8.7900710000
11
109.6061890000
21
10.6930720000
0
LINE
5
359
100
AcDbEntity
8
05
100
AcDbLine
62
7
6
CONTINUOUS
10
107.8612170000
20
8.6299020000
11
109.0334790000
21
9.8021650000
0
LINE
5
35A
100
AcDbEntity
8
05
100
AcDbLine
62
7
6
CONTINUOUS
10
109.1250400000
20
9.8937250000
11
109.9243870000
21
10.6930720000
0
LINE
5
35B
100
AcDbEntity
8
05
100
AcDbLine
62
7
6
CONTINUOUS
10
108.0192460000
20
8.4697330000
11
109.1915080000
21
9.6419950000
0
LINE
5
35C
100
AcDbEntity
8
05
100
AcDbLine
62
7
6
CONTINUOUS
10
109.6795190000
20
10.1300060000
11
110.2425850000
21
10.6930720000
0
LINE
5
35D
100
AcDbEntity
8
05
100
AcDbLine
62
7
6
CONTINUOUS
10
108.1772750000
20
8.3095640000
11
109.3495370000
21
9.4818260000
0
LINE
5
35E
100
AcDbEntity
8
05
100
AcDbLine
62
7
6
CONTINUOUS
10
110.2339980000
20
10.3662870000
11
110.5607830000
21
10.6930720000
0
LINE
5
35F
100
AcDbEntity
8
05
100
AcDbLine
62
7
6
CONTINUOUS
10
108.3948610000
20
8.2089520000
11
109.5075660000
21
9.3216570000
0
LINE
5
360
100
AcDbEntity
8
05
100
AcDbLine
62
7
6
CONTINUOUS
10
110.7884760000
20
10.6025670000
11
110.8789810000
21
10.6930720000
0
LINE
5
361
100
AcDbEntity
8
05
100
AcDbLine
62
7
6
CONTINUOUS
10
108.7130590000
20
8.2089520000
11
109.6655950000
21
9.1614880000
0
LINE
5
362
100
AcDbEntity
8
05
100
AcDbLine
62
7
6
CONTINUOUS
10
109.0312570000
20
8.2089520000
11
109.8236240000
21
9.0013190000
0
LINE
5
363
100
AcDbEntity
8
05
100
AcDbLine
62
7
6
CONTINUOUS
10
109.3494550000
20
8.2089520000
11
109.9816530000
21
8.8411500000
0
LINE
5
364
100
AcDbEntity
8
05
100
AcDbLine
62
7
6
CONTINUOUS
10
109.6676530000
20
8.2089520000
11
110.1396820000
21
8.6809810000
0
LINE
5
365
100
AcDbEntity
8
05
100
AcDbLine
62
7
6
CONTINUOUS
10
109.9858510000
20
8.2089520000
11
110.2977110000
21
8.5208120000
0
LINE
5
366
100
AcDbEntity
8
05
100
AcDbLine
62
7
6
CONTINUOUS
10
110.3040500000
20
8.2089520000
11
110.4557400000
21
8.3606430000
0
LINE
5
367
100
AcDbEntity
8
05
100
AcDbLine
62
7
6
CONTINUOUS
10
115.3077010000
20
10.6670200000
11
115.3344820000
21
10.6938010000
0
LINE
5
368
100
AcDbEntity
8
05
100
AcDbLine
62
7
6
CONTINUOUS
10
114.3531070000
20
9.3942270000
11
115.6526800000
21
10.6938010000
0
LINE
5
369
100
AcDbEntity
8
05
100
AcDbLine
62
7
6
CONTINUOUS
10
113.4860300000
20
8.2089520000
11
115.9708790000
21
10.6938010000
0
LINE
5
36A
100
AcDbEntity
8
05
100
AcDbLine
62
7
6
CONTINUOUS
10
113.8042280000
20
8.2089520000
11
116.2890770000
21
10.6938010000
0
LINE
5
36B
100
AcDbEntity
8
05
100
AcDbLine
62
7
6
CONTINUOUS
10
114.1224260000
20
8.2089520000
11
116.6072750000
21
10.6938010000
0
LINE
5
36C
100
AcDbEntity
8
05
100
AcDbLine
62
7
6
CONTINUOUS
10
114.4406240000
20
8.2089520000
11
116.9254730000
21
10.6938010000
0
LINE
5
36D
100
AcDbEntity
8
05
100
AcDbLine
62
7
6
CONTINUOUS
10
114.7588220000
20
8.2089520000
11
116.2846820000
21
9.7348120000
0
LINE
5
36E
100
AcDbEntity
8
05
100
AcDbLine
62
7
6
CONTINUOUS
10
116.8285960000
20
10.2787260000
11
117.2436710000
21
10.6938010000
0
LINE
5
36F
100
AcDbEntity
8
05
100
AcDbLine
62
7
6
CONTINUOUS
10
115.0770200000
20
8.2089520000
11
115.3300880000
21
8.4620200000
0
LINE
5
370
100
AcDbEntity
8
05
100
AcDbLine
62
7
6
CONTINUOUS
10
116.8922360000
20
10.0241680000
11
117.5618690000
21
10.6938010000
0
LINE
5
371
100
AcDbEntity
8
05
100
AcDbLine
62
7
6
CONTINUOUS
10
115.5570520000
20
8.6889840000
11
115.9302400000
21
9.0621710000
0
LINE
5
372
100
AcDbEntity
8
05
100
AcDbLine
62
7
6
CONTINUOUS
10
115.8752500000
20
8.6889840000
11
116.2484380000
21
9.0621710000
0
LINE
5
373
100
AcDbEntity
8
05
100
AcDbLine
62
7
6
CONTINUOUS
10
116.9558760000
20
9.7696100000
11
117.8800670000
21
10.6938010000
0
LINE
5
374
100
AcDbEntity
8
05
100
AcDbLine
62
7
6
CONTINUOUS
10
116.1934480000
20
8.6889840000
11
116.5666360000
21
9.0621710000
0
LINE
5
375
100
AcDbEntity
8
05
100
AcDbLine
62
7
6
CONTINUOUS
10
117.0195150000
20
9.5150510000
11
118.1982650000
21
10.6938010000
0
LINE
5
376
100
AcDbEntity
8
05
100
AcDbLine
62
7
6
CONTINUOUS
10
116.5116460000
20
8.6889840000
11
116.8848340000
21
9.0621710000
0
LINE
5
377
100
AcDbEntity
8
05
100
AcDbLine
62
7
6
CONTINUOUS
10
117.0831550000
20
9.2604930000
11
118.3292860000
21
10.5066230000
0
LINE
5
378
100
AcDbEntity
8
05
100
AcDbLine
62
7
6
CONTINUOUS
10
116.8298440000
20
8.6889840000
11
118.3929250000
21
10.2520650000
0
LINE
5
379
100
AcDbEntity
8
05
100
AcDbLine
62
7
6
CONTINUOUS
10
117.1480420000
20
8.6889840000
11
118.4565650000
21
9.9975060000
0
LINE
5
37A
100
AcDbEntity
8
05
100
AcDbLine
62
7
6
CONTINUOUS
10
117.2740740000
20
8.4968170000
11
118.5202040000
21
9.7429480000
0
LINE
5
37B
100
AcDbEntity
8
05
100
AcDbLine
62
7
6
CONTINUOUS
10
117.3377130000
20
8.2422590000
11
118.5838440000
21
9.4883900000
0
LINE
5
37C
100
AcDbEntity
8
05
100
AcDbLine
62
7
6
CONTINUOUS
10
117.6226050000
20
8.2089520000
11
118.6474840000
21
9.2338310000
0
LINE
5
37D
100
AcDbEntity
8
05
100
AcDbLine
62
7
6
CONTINUOUS
10
117.9408030000
20
8.2089520000
11
118.7111230000
21
8.9792730000
0
LINE
5
37E
100
AcDbEntity
8
05
100
AcDbLine
62
7
6
CONTINUOUS
10
119.8640330000
20
10.1321820000
11
120.2440540000
21
10.5122030000
0
LINE
5
37F
100
AcDbEntity
8
05
100
AcDbLine
62
7
6
CONTINUOUS
10
118.2590010000
20
8.2089520000
11
118.7747630000
21
8.7247140000
0
LINE
5
380
100
AcDbEntity
8
05
100
AcDbLine
62
7
6
CONTINUOUS
10
119.7959150000
20
9.7458660000
11
120.6185860000
21
10.5685370000
0
LINE
5
381
100
AcDbEntity
8
05
100
AcDbLine
62
7
6
CONTINUOUS
10
118.5771990000
20
8.2089520000
11
118.8384020000
21
8.4701560000
0
LINE
5
382
100
AcDbEntity
8
05
100
AcDbLine
62
7
6
CONTINUOUS
10
119.7277970000
20
9.3595500000
11
120.9813030000
21
10.6130560000
0
LINE
5
383
100
AcDbEntity
8
05
100
AcDbLine
62
7
6
CONTINUOUS
10
118.8953970000
20
8.2089520000
11
118.9020420000
21
8.2155970000
0
LINE
5
384
100
AcDbEntity
8
05
100
AcDbLine
62
7
6
CONTINUOUS
10
119.6596790000
20
8.9732340000
11
121.3333580000
21
10.6469130000
0
LINE
5
385
100
AcDbEntity
8
05
100
AcDbLine
62
7
6
CONTINUOUS
10
119.6152770000
20
8.6106340000
11
121.6757100000
21
10.6710670000
0
LINE
5
386
100
AcDbEntity
8
05
100
AcDbLine
62
7
6
CONTINUOUS
10
119.7378940000
20
8.4150530000
11
122.0091650000
21
10.6863240000
0
LINE
5
387
100
AcDbEntity
8
05
100
AcDbLine
62
7
6
CONTINUOUS
10
119.9839510000
20
8.3429130000
11
121.3408190000
21
9.6997800000
0
LINE
5
388
100
AcDbEntity
8
05
100
AcDbLine
62
7
6
CONTINUOUS
10
121.8827100000
20
10.2416710000
11
122.3344090000
21
10.6933700000
0
LINE
5
389
100
AcDbEntity
8
05
100
AcDbLine
62
7
6
CONTINUOUS
10
120.2652030000
20
8.3059660000
11
121.2727010000
21
9.3134640000
0
LINE
5
38A
100
AcDbEntity
8
05
100
AcDbLine
62
7
6
CONTINUOUS
10
122.2192190000
20
10.2599820000
11
122.6520320000
21
10.6927950000
0
LINE
5
38B
100
AcDbEntity
8
05
100
AcDbLine
62
7
6
CONTINUOUS
10
120.5518220000
20
8.2743870000
11
121.2250940000
21
8.9476590000
0
LINE
5
38C
100
AcDbEntity
8
05
100
AcDbLine
62
7
6
CONTINUOUS
10
122.5263210000
20
10.2488860000
11
122.9625450000
21
10.6851100000
0
LINE
5
38D
100
AcDbEntity
8
05
100
AcDbLine
62
7
6
CONTINUOUS
10
120.8440880000
20
8.2484550000
11
121.3438720000
21
8.7482390000
0
LINE
5
38E
100
AcDbEntity
8
05
100
AcDbLine
62
7
6
CONTINUOUS
10
122.8104210000
20
10.2147880000
11
123.2663950000
21
10.6707620000
0
LINE
5
38F
100
AcDbEntity
8
05
100
AcDbLine
62
7
6
CONTINUOUS
10
121.1423120000
20
8.2284810000
11
121.5883040000
21
8.6744730000
0
LINE
5
390
100
AcDbEntity
8
05
100
AcDbLine
62
7
6
CONTINUOUS
10
123.0259950000
20
10.1121640000
11
123.5639730000
21
10.6501420000
0
LINE
5
391
100
AcDbEntity
8
05
100
AcDbLine
62
7
6
CONTINUOUS
10
121.4468470000
20
8.2148180000
11
121.8836220000
21
8.6515930000
0
LINE
5
392
100
AcDbEntity
8
05
100
AcDbLine
62
7
6
CONTINUOUS
10
123.1960220000
20
9.9639930000
11
123.8556280000
21
10.6235990000
0
LINE
5
393
100
AcDbEntity
8
05
100
AcDbLine
62
7
6
CONTINUOUS
10
122.3537820000
20
9.1217520000
11
122.5334060000
21
9.3013760000
0
LINE
5
394
100
AcDbEntity
8
05
100
AcDbLine
62
7
6
CONTINUOUS
10
121.7580900000
20
8.2078620000
11
122.2048330000
21
8.6546050000
0
LINE
5
395
100
AcDbEntity
8
05
100
AcDbLine
62
7
6
CONTINUOUS
10
123.5142200000
20
9.9639930000
11
124.1416670000
21
10.5914400000
0
LINE
5
396
100
AcDbEntity
8
05
100
AcDbLine
62
7
6
CONTINUOUS
10
122.6288760000
20
9.0786490000
11
122.8516040000
21
9.3013760000
0
LINE
5
397
100
AcDbEntity
8
05
100
AcDbLine
62
7
6
CONTINUOUS
10
122.0764930000
20
8.2080680000
11
122.5603930000
21
8.6919670000
0
LINE
5
398
100
AcDbEntity
8
05
100
AcDbLine
62
7
6
CONTINUOUS
10
123.8324180000
20
9.9639930000
11
124.4223670000
21
10.5539410000
0
LINE
5
399
100
AcDbEntity
8
05
100
AcDbLine
62
7
6
CONTINUOUS
10
122.9470740000
20
9.0786490000
11
123.1698020000
21
9.3013760000
0
LINE
5
39A
100
AcDbEntity
8
05
100
AcDbLine
62
7
6
CONTINUOUS
10
122.4025750000
20
8.2159520000
11
123.4880000000
21
9.3013760000
0
LINE
5
39B
100
AcDbEntity
8
05
100
AcDbLine
62
7
6
CONTINUOUS
10
124.1506160000
20
9.9639930000
11
124.6387420000
21
10.4521180000
0
LINE
5
39C
100
AcDbEntity
8
05
100
AcDbLine
62
7
6
CONTINUOUS
10
122.7369360000
20
8.2321150000
11
123.8061980000
21
9.3013760000
0
LINE
5
39D
100
AcDbEntity
8
05
100
AcDbLine
62
7
6
CONTINUOUS
10
124.4688140000
20
9.9639930000
11
124.7195490000
21
10.2147280000
0
LINE
5
39E
100
AcDbEntity
8
05
100
AcDbLine
62
7
6
CONTINUOUS
10
123.0319720000
20
8.2089520000
11
124.1243960000
21
9.3013760000
0
LINE
5
39F
100
AcDbEntity
8
05
100
AcDbLine
62
7
6
CONTINUOUS
10
123.3501700000
20
8.2089520000
11
124.4425940000
21
9.3013760000
0
LINE
5
3A0
100
AcDbEntity
8
05
100
AcDbLine
62
7
6
CONTINUOUS
10
123.6683680000
20
8.2089520000
11
124.5166470000
21
9.0572320000
0
LINE
5
3A1
100
AcDbEntity
8
05
100
AcDbLine
62
7
6
CONTINUOUS
10
123.9865660000
20
8.2089520000
11
124.4485290000
21
8.6709160000
0
LINE
5
3A2
100
AcDbEntity
8
05
100
AcDbLine
62
7
6
CONTINUOUS
10
124.3047640000
20
8.2089520000
11
124.3804110000
21
8.2846000000
0
LINE
5
3A3
100
AcDbEntity
8
05
100
AcDbLine
62
7
6
CONTINUOUS
10
99.8961450000
20
8.2089520000
11
99.6025370000
21
8.5025600000
0
LINE
5
3A4
100
AcDbEntity
8
05
100
AcDbLine
62
7
6
CONTINUOUS
10
98.1776440000
20
9.9274530000
11
97.4120250000
21
10.6930720000
0
LINE
5
3A5
100
AcDbEntity
8
05
100
AcDbLine
62
7
6
CONTINUOUS
10
98.9698570000
20
9.1352400000
11
98.6798790000
21
9.4252180000
0
LINE
5
3A6
100
AcDbEntity
8
05
100
AcDbLine
62
7
6
CONTINUOUS
10
98.6516590000
20
9.1352400000
11
98.3616810000
21
9.4252180000
0
LINE
5
3A7
100
AcDbEntity
8
05
100
AcDbLine
62
7
6
CONTINUOUS
10
98.1199030000
20
9.6669960000
11
97.0938270000
21
10.6930720000
0
LINE
5
3A8
100
AcDbEntity
8
05
100
AcDbLine
62
7
6
CONTINUOUS
10
98.3334610000
20
9.1352400000
11
96.7756290000
21
10.6930720000
0
LINE
5
3A9
100
AcDbEntity
8
05
100
AcDbLine
62
7
6
CONTINUOUS
10
98.0152630000
20
9.1352400000
11
96.6064980000
21
10.5440050000
0
LINE
5
3AA
100
AcDbEntity
8
05
100
AcDbLine
62
7
6
CONTINUOUS
10
97.9466770000
20
8.8856280000
11
96.5487570000
21
10.2835480000
0
LINE
5
3AB
100
AcDbEntity
8
05
100
AcDbLine
62
7
6
CONTINUOUS
10
97.8889360000
20
8.6251710000
11
96.4910150000
21
10.0230920000
0
LINE
5
3AC
100
AcDbEntity
8
05
100
AcDbLine
62
7
6
CONTINUOUS
10
96.0462220000
20
10.4678850000
11
95.8210350000
21
10.6930720000
0
LINE
5
3AD
100
AcDbEntity
8
05
100
AcDbLine
62
7
6
CONTINUOUS
10
97.8311940000
20
8.3647150000
11
96.4332730000
21
9.7626360000
0
LINE
5
3AE
100
AcDbEntity
8
05
100
AcDbLine
62
7
6
CONTINUOUS
10
95.9884800000
20
10.2074290000
11
95.5028370000
21
10.6930720000
0
LINE
5
3AF
100
AcDbEntity
8
05
100
AcDbLine
62
7
6
CONTINUOUS
10
97.6687580000
20
8.2089520000
11
96.3755310000
21
9.5021790000
0
LINE
5
3B0
100
AcDbEntity
8
05
100
AcDbLine
62
7
6
CONTINUOUS
10
95.8056690000
20
10.0720420000
11
95.1846390000
21
10.6930720000
0
LINE
5
3B1
100
AcDbEntity
8
05
100
AcDbLine
62
7
6
CONTINUOUS
10
97.3505600000
20
8.2089520000
11
96.3177890000
21
9.2417230000
0
LINE
5
3B2
100
AcDbEntity
8
05
100
AcDbLine
62
7
6
CONTINUOUS
10
95.4874710000
20
10.0720420000
11
94.8664410000
21
10.6930720000
0
LINE
5
3B3
100
AcDbEntity
8
05
100
AcDbLine
62
7
6
CONTINUOUS
10
97.0323620000
20
8.2089520000
11
96.2600480000
21
8.9812670000
0
LINE
5
3B4
100
AcDbEntity
8
05
100
AcDbLine
62
7
6
CONTINUOUS
10
95.1692730000
20
10.0720420000
11
94.5482430000
21
10.6930720000
0
LINE
5
3B5
100
AcDbEntity
8
05
100
AcDbLine
62
7
6
CONTINUOUS
10
96.7141640000
20
8.2089520000
11
96.2023060000
21
8.7208110000
0
LINE
5
3B6
100
AcDbEntity
8
05
100
AcDbLine
62
7
6
CONTINUOUS
10
94.8510750000
20
10.0720420000
11
94.2300450000
21
10.6930720000
0
LINE
5
3B7
100
AcDbEntity
8
05
100
AcDbLine
62
7
6
CONTINUOUS
10
96.3959660000
20
8.2089520000
11
96.1445640000
21
8.4603540000
0
LINE
5
3B8
100
AcDbEntity
8
05
100
AcDbLine
62
7
6
CONTINUOUS
10
94.5328760000
20
10.0720420000
11
93.9118470000
21
10.6930720000
0
LINE
5
3B9
100
AcDbEntity
8
05
100
AcDbLine
62
7
6
CONTINUOUS
10
94.3076510000
20
9.9790700000
11
93.5936480000
21
10.6930720000
0
LINE
5
3BA
100
AcDbEntity
8
05
100
AcDbLine
62
7
6
CONTINUOUS
10
94.2499090000
20
9.7186140000
11
93.2754500000
21
10.6930720000
0
LINE
5
3BB
100
AcDbEntity
8
05
100
AcDbLine
62
7
6
CONTINUOUS
10
94.1921670000
20
9.4581570000
11
92.9572520000
21
10.6930720000
0
LINE
5
3BC
100
AcDbEntity
8
05
100
AcDbLine
62
7
6
CONTINUOUS
10
94.1344250000
20
9.1977010000
11
92.6390540000
21
10.6930720000
0
LINE
5
3BD
100
AcDbEntity
8
05
100
AcDbLine
62
7
6
CONTINUOUS
10
94.0766830000
20
8.9372450000
11
92.3208560000
21
10.6930720000
0
LINE
5
3BE
100
AcDbEntity
8
05
100
AcDbLine
62
7
6
CONTINUOUS
10
94.0189420000
20
8.6767880000
11
92.0026580000
21
10.6930720000
0
LINE
5
3BF
100
AcDbEntity
8
05
100
AcDbLine
62
7
6
CONTINUOUS
10
93.9612000000
20
8.4163320000
11
92.5632790000
21
9.8142530000
0
LINE
5
3C0
100
AcDbEntity
8
05
100
AcDbLine
62
7
6
CONTINUOUS
10
92.3054900000
20
10.0720420000
11
91.6844600000
21
10.6930720000
0
LINE
5
3C1
100
AcDbEntity
8
05
100
AcDbLine
62
7
6
CONTINUOUS
10
93.8503820000
20
8.2089520000
11
92.5055370000
21
9.5537970000
0
LINE
5
3C2
100
AcDbEntity
8
05
100
AcDbLine
62
7
6
CONTINUOUS
10
91.9872920000
20
10.0720420000
11
91.3662620000
21
10.6930720000
0
LINE
5
3C3
100
AcDbEntity
8
05
100
AcDbLine
62
7
6
CONTINUOUS
10
93.5321840000
20
8.2089520000
11
92.4477960000
21
9.2933400000
0
LINE
5
3C4
100
AcDbEntity
8
05
100
AcDbLine
62
7
6
CONTINUOUS
10
91.6690940000
20
10.0720420000
11
91.1769590000
21
10.5641770000
0
LINE
5
3C5
100
AcDbEntity
8
05
100
AcDbLine
62
7
6
CONTINUOUS
10
93.2139860000
20
8.2089520000
11
92.3900540000
21
9.0328840000
0
LINE
5
3C6
100
AcDbEntity
8
05
100
AcDbLine
62
7
6
CONTINUOUS
10
90.7492670000
20
10.6736710000
11
90.7298660000
21
10.6930720000
0
LINE
5
3C7
100
AcDbEntity
8
05
100
AcDbLine
62
7
6
CONTINUOUS
10
91.3508960000
20
10.0720420000
11
91.1192170000
21
10.3037210000
0
LINE
5
3C8
100
AcDbEntity
8
05
100
AcDbLine
62
7
6
CONTINUOUS
10
92.8957880000
20
8.2089520000
11
92.3323120000
21
8.7724280000
0
LINE
5
3C9
100
AcDbEntity
8
05
100
AcDbLine
62
7
6
CONTINUOUS
10
90.6915250000
20
10.4132140000
11
90.4116680000
21
10.6930720000
0
LINE
5
3CA
100
AcDbEntity
8
05
100
AcDbLine
62
7
6
CONTINUOUS
10
92.5775900000
20
8.2089520000
11
92.2745700000
21
8.5119710000
0
LINE
5
3CB
100
AcDbEntity
8
05
100
AcDbLine
62
7
6
CONTINUOUS
10
90.6337840000
20
10.1527580000
11
90.0934700000
21
10.6930720000
0
LINE
5
3CC
100
AcDbEntity
8
05
100
AcDbLine
62
7
6
CONTINUOUS
10
92.2593920000
20
8.2089520000
11
92.2168290000
21
8.2515150000
0
LINE
5
3CD
100
AcDbEntity
8
05
100
AcDbLine
62
7
6
CONTINUOUS
10
90.5760420000
20
9.8923020000
11
89.7752720000
21
10.6930720000
0
LINE
5
3CE
100
AcDbEntity
8
05
100
AcDbLine
62
7
6
CONTINUOUS
10
90.5183000000
20
9.6318460000
11
89.4570740000
21
10.6930720000
0
LINE
5
3CF
100
AcDbEntity
8
05
100
AcDbLine
62
7
6
CONTINUOUS
10
90.4605580000
20
9.3713890000
11
89.1388760000
21
10.6930720000
0
LINE
5
3D0
100
AcDbEntity
8
05
100
AcDbLine
62
7
6
CONTINUOUS
10
90.4028170000
20
9.1109330000
11
89.0084280000
21
10.5053220000
0
LINE
5
3D1
100
AcDbEntity
8
05
100
AcDbLine
62
7
6
CONTINUOUS
10
90.3450750000
20
8.8504770000
11
88.9506860000
21
10.2448650000
0
LINE
5
3D2
100
AcDbEntity
8
05
100
AcDbLine
62
7
6
CONTINUOUS
10
90.2138080000
20
8.6635450000
11
88.8929450000
21
9.9844090000
0
LINE
5
3D3
100
AcDbEntity
8
05
100
AcDbLine
62
7
6
CONTINUOUS
10
90.0174480000
20
8.5417070000
11
88.8352030000
21
9.7239530000
0
LINE
5
3D4
100
AcDbEntity
8
05
100
AcDbLine
62
7
6
CONTINUOUS
10
89.8026520000
20
8.4383050000
11
88.7774610000
21
9.4634960000
0
LINE
5
3D5
100
AcDbEntity
8
05
100
AcDbLine
62
7
6
CONTINUOUS
10
89.5671730000
20
8.3555860000
11
88.7197190000
21
9.2030400000
0
LINE
5
3D6
100
AcDbEntity
8
05
100
AcDbLine
62
7
6
CONTINUOUS
10
89.3151830000
20
8.2893790000
11
88.6187120000
21
8.9858500000
0
LINE
5
3D7
100
AcDbEntity
8
05
100
AcDbLine
62
7
6
CONTINUOUS
10
87.1186190000
20
10.4859430000
11
86.9114890000
21
10.6930720000
0
LINE
5
3D8
100
AcDbEntity
8
05
100
AcDbLine
62
7
6
CONTINUOUS
10
89.0511440000
20
8.2352190000
11
88.4221760000
21
8.8641880000
0
LINE
5
3D9
100
AcDbEntity
8
05
100
AcDbLine
62
7
6
CONTINUOUS
10
87.0608770000
20
10.2254860000
11
86.5932910000
21
10.6930720000
0
LINE
5
3DA
100
AcDbEntity
8
05
100
AcDbLine
62
7
6
CONTINUOUS
10
88.7736700000
20
8.1944950000
11
88.1774040000
21
8.7907610000
0
LINE
5
3DB
100
AcDbEntity
8
05
100
AcDbLine
62
7
6
CONTINUOUS
10
87.0031350000
20
9.9650300000
11
86.2750930000
21
10.6930720000
0
LINE
5
3DC
100
AcDbEntity
8
05
100
AcDbLine
62
7
6
CONTINUOUS
10
88.4851820000
20
8.1647850000
11
87.8938350000
21
8.7561320000
0
LINE
5
3DD
100
AcDbEntity
8
05
100
AcDbLine
62
7
6
CONTINUOUS
10
86.9453930000
20
9.7045740000
11
85.9568950000
21
10.6930720000
0
LINE
5
3DE
100
AcDbEntity
8
05
100
AcDbLine
62
7
6
CONTINUOUS
10
88.1877790000
20
8.1439900000
11
87.5712750000
21
8.7604950000
0
LINE
5
3DF
100
AcDbEntity
8
05
100
AcDbLine
62
7
6
CONTINUOUS
10
86.8876520000
20
9.4441170000
11
85.6386970000
21
10.6930720000
0
LINE
5
3E0
100
AcDbEntity
8
05
100
AcDbLine
62
7
6
CONTINUOUS
10
87.8806500000
20
8.1329210000
11
87.1766500000
21
8.8369210000
0
LINE
5
3E1
100
AcDbEntity
8
05
100
AcDbLine
62
7
6
CONTINUOUS
10
86.8299100000
20
9.1836610000
11
85.4355100000
21
10.5780610000
0
LINE
5
3E2
100
AcDbEntity
8
05
100
AcDbLine
62
7
6
CONTINUOUS
10
87.5628170000
20
8.1325560000
11
85.3777680000
21
10.3176050000
0
LINE
5
3E3
100
AcDbEntity
8
05
100
AcDbLine
62
7
6
CONTINUOUS
10
87.2330740000
20
8.1441010000
11
85.3200260000
21
10.0571490000
0
LINE
5
3E4
100
AcDbEntity
8
05
100
AcDbLine
62
7
6
CONTINUOUS
10
84.6846080000
20
10.6925670000
11
84.6841030000
21
10.6930720000
0
LINE
5
3E5
100
AcDbEntity
8
05
100
AcDbLine
62
7
6
CONTINUOUS
10
86.8899190000
20
8.1690580000
11
85.2622840000
21
9.7966920000
0
LINE
5
3E6
100
AcDbEntity
8
05
100
AcDbLine
62
7
6
CONTINUOUS
10
84.6268660000
20
10.4321110000
11
84.3659050000
21
10.6930720000
0
LINE
5
3E7
100
AcDbEntity
8
05
100
AcDbLine
62
7
6
CONTINUOUS
10
86.5309040000
20
8.2098750000
11
85.2045430000
21
9.5362360000
0
LINE
5
3E8
100
AcDbEntity
8
05
100
AcDbLine
62
7
6
CONTINUOUS
10
84.4876850000
20
10.2530940000
11
84.0477070000
21
10.6930720000
0
LINE
5
3E9
100
AcDbEntity
8
05
100
AcDbLine
62
7
6
CONTINUOUS
10
86.1408320000
20
8.2817490000
11
85.1468010000
21
9.2757800000
0
LINE
5
3EA
100
AcDbEntity
8
05
100
AcDbLine
62
7
6
CONTINUOUS
10
84.1694870000
20
10.2530940000
11
83.7295090000
21
10.6930720000
0
LINE
5
3EB
100
AcDbEntity
8
05
100
AcDbLine
62
7
6
CONTINUOUS
10
85.6959590000
20
8.4084240000
11
85.0890590000
21
9.0153240000
0
LINE
5
3EC
100
AcDbEntity
8
05
100
AcDbLine
62
7
6
CONTINUOUS
10
83.8512890000
20
10.2530940000
11
83.4113110000
21
10.6930720000
0
LINE
5
3ED
100
AcDbEntity
8
05
100
AcDbLine
62
7
6
CONTINUOUS
10
84.2052730000
20
9.5809110000
11
84.1901830000
21
9.5960010000
0
LINE
5
3EE
100
AcDbEntity
8
05
100
AcDbLine
62
7
6
CONTINUOUS
10
83.5330910000
20
10.2530940000
11
83.0931130000
21
10.6930720000
0
LINE
5
3EF
100
AcDbEntity
8
05
100
AcDbLine
62
7
6
CONTINUOUS
10
84.1475320000
20
9.3204550000
11
83.8719850000
21
9.5960010000
0
LINE
5
3F0
100
AcDbEntity
8
05
100
AcDbLine
62
7
6
CONTINUOUS
10
83.2148930000
20
10.2530940000
11
82.7749150000
21
10.6930720000
0
LINE
5
3F1
100
AcDbEntity
8
05
100
AcDbLine
62
7
6
CONTINUOUS
10
83.8437660000
20
9.3060230000
11
83.5537870000
21
9.5960010000
0
LINE
5
3F2
100
AcDbEntity
8
05
100
AcDbLine
62
7
6
CONTINUOUS
10
82.8966950000
20
10.2530940000
11
82.4567170000
21
10.6930720000
0
LINE
5
3F3
100
AcDbEntity
8
05
100
AcDbLine
62
7
6
CONTINUOUS
10
84.2226740000
20
8.6089170000
11
84.1826600000
21
8.6489310000
0
LINE
5
3F4
100
AcDbEntity
8
05
100
AcDbLine
62
7
6
CONTINUOUS
10
82.5784970000
20
10.2530940000
11
82.1385190000
21
10.6930720000
0
LINE
5
3F5
100
AcDbEntity
8
05
100
AcDbLine
62
7
6
CONTINUOUS
10
83.5255680000
20
9.3060230000
11
83.2355890000
21
9.5960010000
0
LINE
5
3F6
100
AcDbEntity
8
05
100
AcDbLine
62
7
6
CONTINUOUS
10
84.1649320000
20
8.3484610000
11
83.8644620000
21
8.6489310000
0
LINE
5
3F7
100
AcDbEntity
8
05
100
AcDbLine
62
7
6
CONTINUOUS
10
82.2602990000
20
10.2530940000
11
81.8203210000
21
10.6930720000
0
LINE
5
3F8
100
AcDbEntity
8
05
100
AcDbLine
62
7
6
CONTINUOUS
10
83.2073700000
20
9.3060230000
11
82.9173910000
21
9.5960010000
0
LINE
5
3F9
100
AcDbEntity
8
05
100
AcDbLine
62
7
6
CONTINUOUS
10
83.9862420000
20
8.2089520000
11
83.5462640000
21
8.6489310000
0
LINE
5
3FA
100
AcDbEntity
8
05
100
AcDbLine
62
7
6
CONTINUOUS
10
81.9421010000
20
10.2530940000
11
81.5021230000
21
10.6930720000
0
LINE
5
3FB
100
AcDbEntity
8
05
100
AcDbLine
62
7
6
CONTINUOUS
10
82.8891720000
20
9.3060230000
11
82.5991930000
21
9.5960010000
0
LINE
5
3FC
100
AcDbEntity
8
05
100
AcDbLine
62
7
6
CONTINUOUS
10
83.6680440000
20
8.2089520000
11
83.2280660000
21
8.6489310000
0
LINE
5
3FD
100
AcDbEntity
8
05
100
AcDbLine
62
7
6
CONTINUOUS
10
81.6348580000
20
10.2421380000
11
81.1839240000
21
10.6930720000
0
LINE
5
3FE
100
AcDbEntity
8
05
100
AcDbLine
62
7
6
CONTINUOUS
10
82.5709740000
20
9.3060230000
11
82.2809950000
21
9.5960010000
0
LINE
5
3FF
100
AcDbEntity
8
05
100
AcDbLine
62
7
6
CONTINUOUS
10
83.3498460000
20
8.2089520000
11
82.9098680000
21
8.6489310000
0
LINE
5
400
100
AcDbEntity
8
05
100
AcDbLine
62
7
6
CONTINUOUS
10
81.5771160000
20
9.9816820000
11
80.8657260000
21
10.6930720000
0
LINE
5
401
100
AcDbEntity
8
05
100
AcDbLine
62
7
6
CONTINUOUS
10
82.2527750000
20
9.3060230000
11
81.9627970000
21
9.5960010000
0
LINE
5
402
100
AcDbEntity
8
05
100
AcDbLine
62
7
6
CONTINUOUS
10
83.0316480000
20
8.2089520000
11
82.5916700000
21
8.6489310000
0
LINE
5
403
100
AcDbEntity
8
05
100
AcDbLine
62
7
6
CONTINUOUS
10
81.5193740000
20
9.7212260000
11
80.5475280000
21
10.6930720000
0
LINE
5
404
100
AcDbEntity
8
05
100
AcDbLine
62
7
6
CONTINUOUS
10
81.9345770000
20
9.3060230000
11
81.6445990000
21
9.5960010000
0
LINE
5
405
100
AcDbEntity
8
05
100
AcDbLine
62
7
6
CONTINUOUS
10
82.7134500000
20
8.2089520000
11
82.2734720000
21
8.6489310000
0
LINE
5
406
100
AcDbEntity
8
05
100
AcDbLine
62
7
6
CONTINUOUS
10
81.6163790000
20
9.3060230000
11
80.2293300000
21
10.6930720000
0
LINE
5
407
100
AcDbEntity
8
05
100
AcDbLine
62
7
6
CONTINUOUS
10
82.3952520000
20
8.2089520000
11
81.9552740000
21
8.6489310000
0
LINE
5
408
100
AcDbEntity
8
05
100
AcDbLine
62
7
6
CONTINUOUS
10
81.4038910000
20
9.2003130000
11
80.0059700000
21
10.5982340000
0
LINE
5
409
100
AcDbEntity
8
05
100
AcDbLine
62
7
6
CONTINUOUS
10
82.0770540000
20
8.2089520000
11
81.6370750000
21
8.6489310000
0
LINE
5
40A
100
AcDbEntity
8
05
100
AcDbLine
62
7
6
CONTINUOUS
10
81.3461490000
20
8.9398570000
11
79.9482280000
21
10.3377780000
0
LINE
5
40B
100
AcDbEntity
8
05
100
AcDbLine
62
7
6
CONTINUOUS
10
81.7588560000
20
8.2089520000
11
81.3188770000
21
8.6489310000
0
LINE
5
40C
100
AcDbEntity
8
05
100
AcDbLine
62
7
6
CONTINUOUS
10
81.2884070000
20
8.6794010000
11
79.8904870000
21
10.0773220000
0
LINE
5
40D
100
AcDbEntity
8
05
100
AcDbLine
62
7
6
CONTINUOUS
10
81.4406580000
20
8.2089520000
11
79.8327450000
21
9.8168650000
0
LINE
5
40E
100
AcDbEntity
8
05
100
AcDbLine
62
7
6
CONTINUOUS
10
79.1337840000
20
10.5158260000
11
78.9565380000
21
10.6930720000
0
LINE
5
40F
100
AcDbEntity
8
05
100
AcDbLine
62
7
6
CONTINUOUS
10
81.1224600000
20
8.2089520000
11
79.7750030000
21
9.5564090000
0
LINE
5
410
100
AcDbEntity
8
05
100
AcDbLine
62
7
6
CONTINUOUS
10
79.0760430000
20
10.2553690000
11
78.6383400000
21
10.6930720000
0
LINE
5
411
100
AcDbEntity
8
05
100
AcDbLine
62
7
6
CONTINUOUS
10
80.8042620000
20
8.2089520000
11
79.7172610000
21
9.2959530000
0
LINE
5
412
100
AcDbEntity
8
05
100
AcDbLine
62
7
6
CONTINUOUS
10
79.0183010000
20
9.9949130000
11
78.3201420000
21
10.6930720000
0
LINE
5
413
100
AcDbEntity
8
05
100
AcDbLine
62
7
6
CONTINUOUS
10
80.4860640000
20
8.2089520000
11
79.6595200000
21
9.0354960000
0
LINE
5
414
100
AcDbEntity
8
05
100
AcDbLine
62
7
6
CONTINUOUS
10
78.9605590000
20
9.7344570000
11
78.0019440000
21
10.6930720000
0
LINE
5
415
100
AcDbEntity
8
05
100
AcDbLine
62
7
6
CONTINUOUS
10
80.1678660000
20
8.2089520000
11
79.6017780000
21
8.7750400000
0
LINE
5
416
100
AcDbEntity
8
05
100
AcDbLine
62
7
6
CONTINUOUS
10
78.9028170000
20
9.4740000000
11
77.6837460000
21
10.6930720000
0
LINE
5
417
100
AcDbEntity
8
05
100
AcDbLine
62
7
6
CONTINUOUS
10
79.8496680000
20
8.2089520000
11
79.5440360000
21
8.5145840000
0
LINE
5
418
100
AcDbEntity
8
05
100
AcDbLine
62
7
6
CONTINUOUS
10
78.8450760000
20
9.2135440000
11
77.4471550000
21
10.6114650000
0
LINE
5
419
100
AcDbEntity
8
05
100
AcDbLine
62
7
6
CONTINUOUS
10
79.5314700000
20
8.2089520000
11
79.4862940000
21
8.2541280000
0
LINE
5
41A
100
AcDbEntity
8
05
100
AcDbLine
62
7
6
CONTINUOUS
10
78.7873340000
20
8.9530880000
11
77.3894130000
21
10.3510090000
0
LINE
5
41B
100
AcDbEntity
8
05
100
AcDbLine
62
7
6
CONTINUOUS
10
78.7295920000
20
8.6926320000
11
77.3316710000
21
10.0905520000
0
LINE
5
41C
100
AcDbEntity
8
05
100
AcDbLine
62
7
6
CONTINUOUS
10
78.6718500000
20
8.4321750000
11
77.2739300000
21
9.8300960000
0
LINE
5
41D
100
AcDbEntity
8
05
100
AcDbLine
62
7
6
CONTINUOUS
10
78.5768750000
20
8.2089520000
11
77.0733040000
21
9.7125240000
0
LINE
5
41E
100
AcDbEntity
8
05
100
AcDbLine
62
7
6
CONTINUOUS
10
78.2586770000
20
8.2089520000
11
75.9995820000
21
10.4680470000
0
LINE
5
41F
100
AcDbEntity
8
05
100
AcDbLine
62
7
6
CONTINUOUS
10
77.9404790000
20
8.2089520000
11
75.4563600000
21
10.6930720000
0
LINE
5
420
100
AcDbEntity
8
05
100
AcDbLine
62
7
6
CONTINUOUS
10
77.6222810000
20
8.2089520000
11
75.1381610000
21
10.6930720000
0
LINE
5
421
100
AcDbEntity
8
05
100
AcDbLine
62
7
6
CONTINUOUS
10
77.3040830000
20
8.2089520000
11
74.8199630000
21
10.6930720000
0
LINE
5
422
100
AcDbEntity
8
05
100
AcDbLine
62
7
6
CONTINUOUS
10
76.9858850000
20
8.2089520000
11
74.5017650000
21
10.6930720000
0
LINE
5
423
100
AcDbEntity
8
05
100
AcDbLine
62
7
6
CONTINUOUS
10
76.5426650000
20
8.3339750000
11
74.1835670000
21
10.6930720000
0
LINE
5
424
100
AcDbEntity
8
05
100
AcDbLine
62
7
6
CONTINUOUS
10
75.0963650000
20
9.4620760000
11
73.8653690000
21
10.6930720000
0
LINE
5
425
100
AcDbEntity
8
05
100
AcDbLine
62
7
6
CONTINUOUS
10
75.0386240000
20
9.2016200000
11
73.6407030000
21
10.5995400000
0
LINE
5
426
100
AcDbEntity
8
05
100
AcDbLine
62
7
6
CONTINUOUS
10
74.9808820000
20
8.9411630000
11
73.5829610000
21
10.3390840000
0
LINE
5
427
100
AcDbEntity
8
05
100
AcDbLine
62
7
6
CONTINUOUS
10
74.9231400000
20
8.6807070000
11
73.5252190000
21
10.0786280000
0
LINE
5
428
100
AcDbEntity
8
05
100
AcDbLine
62
7
6
CONTINUOUS
10
74.8653980000
20
8.4202510000
11
73.4674780000
21
9.8181710000
0
LINE
5
429
100
AcDbEntity
8
05
100
AcDbLine
62
7
6
CONTINUOUS
10
74.7584990000
20
8.2089520000
11
73.4097360000
21
9.5577150000
0
LINE
5
42A
100
AcDbEntity
8
05
100
AcDbLine
62
7
6
CONTINUOUS
10
74.4403010000
20
8.2089520000
11
73.3519940000
21
9.2972590000
0
LINE
5
42B
100
AcDbEntity
8
05
100
AcDbLine
62
7
6
CONTINUOUS
10
74.1221030000
20
8.2089520000
11
73.2942520000
21
9.0368030000
0
LINE
5
42C
100
AcDbEntity
8
05
100
AcDbLine
62
7
6
CONTINUOUS
10
73.8039050000
20
8.2089520000
11
73.2365110000
21
8.7763460000
0
LINE
5
42D
100
AcDbEntity
8
05
100
AcDbLine
62
7
6
CONTINUOUS
10
73.4857070000
20
8.2089520000
11
73.1787690000
21
8.5158900000
0
LINE
5
42E
100
AcDbEntity
8
05
100
AcDbLine
62
7
6
CONTINUOUS
10
73.1675080000
20
8.2089520000
11
73.1210270000
21
8.2554340000
0
LINE
5
42F
100
AcDbEntity
8
05
100
AcDbLine
62
7
6
CONTINUOUS
10
100.2143430000
20
8.2089520000
11
99.6229950000
21
8.8003000000
0
LINE
5
430
100
AcDbEntity
8
05
100
AcDbLine
62
7
6
CONTINUOUS
10
98.2353860000
20
10.1879090000
11
97.7302230000
21
10.6930720000
0
LINE
5
431
100
AcDbEntity
8
05
100
AcDbLine
62
7
6
CONTINUOUS
10
99.2880550000
20
9.1352400000
11
98.9980770000
21
9.4252180000
0
LINE
5
432
100
AcDbEntity
8
05
100
AcDbLine
62
7
6
CONTINUOUS
10
100.5325410000
20
8.2089520000
11
99.3162750000
21
9.4252180000
0
LINE
5
433
100
AcDbEntity
8
05
100
AcDbLine
62
7
6
CONTINUOUS
10
98.4884000000
20
10.2530940000
11
98.0484210000
21
10.6930720000
0
LINE
5
434
100
AcDbEntity
8
05
100
AcDbLine
62
7
6
CONTINUOUS
10
100.8507390000
20
8.2089520000
11
99.5865410000
21
9.4731500000
0
LINE
5
435
100
AcDbEntity
8
05
100
AcDbLine
62
7
6
CONTINUOUS
10
98.8065980000
20
10.2530940000
11
98.3666190000
21
10.6930720000
0
LINE
5
436
100
AcDbEntity
8
05
100
AcDbLine
62
7
6
CONTINUOUS
10
101.1689370000
20
8.2089520000
11
99.7895650000
21
9.5883250000
0
LINE
5
437
100
AcDbEntity
8
05
100
AcDbLine
62
7
6
CONTINUOUS
10
99.1247960000
20
10.2530940000
11
98.6848170000
21
10.6930720000
0
LINE
5
438
100
AcDbEntity
8
05
100
AcDbLine
62
7
6
CONTINUOUS
10
101.3114220000
20
8.3846650000
11
99.9276840000
21
9.7684040000
0
LINE
5
439
100
AcDbEntity
8
05
100
AcDbLine
62
7
6
CONTINUOUS
10
99.4429940000
20
10.2530940000
11
99.0030150000
21
10.6930720000
0
LINE
5
43A
100
AcDbEntity
8
05
100
AcDbLine
62
7
6
CONTINUOUS
10
101.3236390000
20
8.6906470000
11
99.9146710000
21
10.0996140000
0
LINE
5
43B
100
AcDbEntity
8
05
100
AcDbLine
62
7
6
CONTINUOUS
10
99.7916150000
20
10.2226700000
11
99.3212130000
21
10.6930720000
0
LINE
5
43C
100
AcDbEntity
8
05
100
AcDbLine
62
7
6
CONTINUOUS
10
101.3444350000
20
8.9880480000
11
99.6394110000
21
10.6930720000
0
LINE
5
43D
100
AcDbEntity
8
05
100
AcDbLine
62
7
6
CONTINUOUS
10
102.4417290000
20
8.2089520000
11
102.1979220000
21
8.4527590000
0
LINE
5
43E
100
AcDbEntity
8
05
100
AcDbLine
62
7
6
CONTINUOUS
10
101.2866150000
20
9.3640660000
11
99.9576100000
21
10.6930720000
0
LINE
5
43F
100
AcDbEntity
8
05
100
AcDbLine
62
7
6
CONTINUOUS
10
102.7599270000
20
8.2089520000
11
102.2556640000
21
8.7132160000
0
LINE
5
440
100
AcDbEntity
8
05
100
AcDbLine
62
7
6
CONTINUOUS
10
101.4817000000
20
9.4871790000
11
100.2758080000
21
10.6930720000
0
LINE
5
441
100
AcDbEntity
8
05
100
AcDbLine
62
7
6
CONTINUOUS
10
103.0781250000
20
8.2089520000
11
102.3134060000
21
8.9736720000
0
LINE
5
442
100
AcDbEntity
8
05
100
AcDbLine
62
7
6
CONTINUOUS
10
101.6502860000
20
9.6367910000
11
100.5940060000
21
10.6930720000
0
LINE
5
443
100
AcDbEntity
8
05
100
AcDbLine
62
7
6
CONTINUOUS
10
103.3963230000
20
8.2089520000
11
102.3711480000
21
9.2341280000
0
LINE
5
444
100
AcDbEntity
8
05
100
AcDbLine
62
7
6
CONTINUOUS
10
101.7853460000
20
9.8199300000
11
100.9122040000
21
10.6930720000
0
LINE
5
445
100
AcDbEntity
8
05
100
AcDbLine
62
7
6
CONTINUOUS
10
103.7145210000
20
8.2089520000
11
102.4288890000
21
9.4945840000
0
LINE
5
446
100
AcDbEntity
8
05
100
AcDbLine
62
7
6
CONTINUOUS
10
101.8709020000
20
10.0525710000
11
101.2554280000
21
10.6680460000
0
LINE
5
447
100
AcDbEntity
8
05
100
AcDbLine
62
7
6
CONTINUOUS
10
103.8845520000
20
8.3571200000
11
102.4866310000
21
9.7550410000
0
LINE
5
448
100
AcDbEntity
8
05
100
AcDbLine
62
7
6
CONTINUOUS
10
103.9422940000
20
8.6175760000
11
102.5443730000
21
10.0154970000
0
LINE
5
449
100
AcDbEntity
8
05
100
AcDbLine
62
7
6
CONTINUOUS
10
104.0000350000
20
8.8780330000
11
102.6021150000
21
10.2759530000
0
LINE
5
44A
100
AcDbEntity
8
05
100
AcDbLine
62
7
6
CONTINUOUS
10
104.9873140000
20
8.2089520000
11
104.8838210000
21
8.3124450000
0
LINE
5
44B
100
AcDbEntity
8
05
100
AcDbLine
62
7
6
CONTINUOUS
10
104.0577770000
20
9.1384890000
11
102.6598560000
21
10.5364100000
0
LINE
5
44C
100
AcDbEntity
8
05
100
AcDbLine
62
7
6
CONTINUOUS
10
105.3055120000
20
8.2089520000
11
104.9415630000
21
8.5729010000
0
LINE
5
44D
100
AcDbEntity
8
05
100
AcDbLine
62
7
6
CONTINUOUS
10
104.1155190000
20
9.3989450000
11
102.8213920000
21
10.6930720000
0
LINE
5
44E
100
AcDbEntity
8
05
100
AcDbLine
62
7
6
CONTINUOUS
10
105.6237100000
20
8.2089520000
11
104.9993050000
21
8.8333570000
0
LINE
5
44F
100
AcDbEntity
8
05
100
AcDbLine
62
7
6
CONTINUOUS
10
104.1732610000
20
9.6594010000
11
103.1395900000
21
10.6930720000
0
LINE
5
450
100
AcDbEntity
8
05
100
AcDbLine
62
7
6
CONTINUOUS
10
105.9419080000
20
8.2089520000
11
105.0570460000
21
9.0938140000
0
LINE
5
451
100
AcDbEntity
8
05
100
AcDbLine
62
7
6
CONTINUOUS
10
104.2310020000
20
9.9198580000
11
103.4577880000
21
10.6930720000
0
LINE
5
452
100
AcDbEntity
8
05
100
AcDbLine
62
7
6
CONTINUOUS
10
106.2601060000
20
8.2089520000
11
105.1147880000
21
9.3542700000
0
LINE
5
453
100
AcDbEntity
8
05
100
AcDbLine
62
7
6
CONTINUOUS
10
104.2887440000
20
10.1803140000
11
103.7759860000
21
10.6930720000
0
LINE
5
454
100
AcDbEntity
8
05
100
AcDbLine
62
7
6
CONTINUOUS
10
106.5069090000
20
8.2803470000
11
105.1725300000
21
9.6147260000
0
LINE
5
455
100
AcDbEntity
8
05
100
AcDbLine
62
7
6
CONTINUOUS
10
104.3464860000
20
10.4407700000
11
104.0941840000
21
10.6930720000
0
LINE
5
456
100
AcDbEntity
8
05
100
AcDbLine
62
7
6
CONTINUOUS
10
106.5646510000
20
8.5408040000
11
105.2302720000
21
9.8751820000
0
LINE
5
457
100
AcDbEntity
8
05
100
AcDbLine
62
7
6
CONTINUOUS
10
106.6223920000
20
8.8012600000
11
105.2880140000
21
10.1356390000
0
LINE
5
458
100
AcDbEntity
8
05
100
AcDbLine
62
7
6
CONTINUOUS
10
106.8272750000
20
8.9145760000
11
105.3457550000
21
10.3960950000
0
LINE
5
459
100
AcDbEntity
8
05
100
AcDbLine
62
7
6
CONTINUOUS
10
107.0503950000
20
9.0096540000
11
105.4034970000
21
10.6565510000
0
LINE
5
45A
100
AcDbEntity
8
05
100
AcDbLine
62
7
6
CONTINUOUS
10
107.2735140000
20
9.1047320000
11
105.6851740000
21
10.6930720000
0
LINE
5
45B
100
AcDbEntity
8
05
100
AcDbLine
62
7
6
CONTINUOUS
10
108.4874920000
20
8.2089520000
11
106.0033720000
21
10.6930720000
0
LINE
5
45C
100
AcDbEntity
8
05
100
AcDbLine
62
7
6
CONTINUOUS
10
108.8056900000
20
8.2089520000
11
107.0702760000
21
9.9443670000
0
LINE
5
45D
100
AcDbEntity
8
05
100
AcDbLine
62
7
6
CONTINUOUS
10
106.9111010000
20
10.1035410000
11
106.3215710000
21
10.6930720000
0
LINE
5
45E
100
AcDbEntity
8
05
100
AcDbLine
62
7
6
CONTINUOUS
10
109.1238880000
20
8.2089520000
11
107.2933950000
21
10.0394450000
0
LINE
5
45F
100
AcDbEntity
8
05
100
AcDbLine
62
7
6
CONTINUOUS
10
106.9688430000
20
10.3639980000
11
106.6397690000
21
10.6930720000
0
LINE
5
460
100
AcDbEntity
8
05
100
AcDbLine
62
7
6
CONTINUOUS
10
109.4420860000
20
8.2089520000
11
107.5165150000
21
10.1345230000
0
LINE
5
461
100
AcDbEntity
8
05
100
AcDbLine
62
7
6
CONTINUOUS
10
107.0265850000
20
10.6244540000
11
106.9579670000
21
10.6930720000
0
LINE
5
462
100
AcDbEntity
8
05
100
AcDbLine
62
7
6
CONTINUOUS
10
109.7602840000
20
8.2089520000
11
107.7396350000
21
10.2296020000
0
LINE
5
463
100
AcDbEntity
8
05
100
AcDbLine
62
7
6
CONTINUOUS
10
110.0784820000
20
8.2089520000
11
107.9627550000
21
10.3246800000
0
LINE
5
464
100
AcDbEntity
8
05
100
AcDbLine
62
7
6
CONTINUOUS
10
110.3966810000
20
8.2089520000
11
108.1858740000
21
10.4197580000
0
LINE
5
465
100
AcDbEntity
8
05
100
AcDbLine
62
7
6
CONTINUOUS
10
109.0584720000
20
9.8653590000
11
108.4089940000
21
10.5148370000
0
LINE
5
466
100
AcDbEntity
8
05
100
AcDbLine
62
7
6
CONTINUOUS
10
109.2815920000
20
9.9604370000
11
108.6321140000
21
10.6099150000
0
LINE
5
467
100
AcDbEntity
8
05
100
AcDbLine
62
7
6
CONTINUOUS
10
109.5047120000
20
10.0555150000
11
108.8671550000
21
10.6930720000
0
LINE
5
468
100
AcDbEntity
8
05
100
AcDbLine
62
7
6
CONTINUOUS
10
109.7278310000
20
10.1505930000
11
109.1853530000
21
10.6930720000
0
LINE
5
469
100
AcDbEntity
8
05
100
AcDbLine
62
7
6
CONTINUOUS
10
109.9509510000
20
10.2456720000
11
109.5035510000
21
10.6930720000
0
LINE
5
46A
100
AcDbEntity
8
05
100
AcDbLine
62
7
6
CONTINUOUS
10
110.1740710000
20
10.3407500000
11
109.8217490000
21
10.6930720000
0
LINE
5
46B
100
AcDbEntity
8
05
100
AcDbLine
62
7
6
CONTINUOUS
10
110.3971910000
20
10.4358280000
11
110.1399470000
21
10.6930720000
0
LINE
5
46C
100
AcDbEntity
8
05
100
AcDbLine
62
7
6
CONTINUOUS
10
110.6203100000
20
10.5309070000
11
110.4581450000
21
10.6930720000
0
LINE
5
46D
100
AcDbEntity
8
05
100
AcDbLine
62
7
6
CONTINUOUS
10
110.8434300000
20
10.6259850000
11
110.7763430000
21
10.6930720000
0
LINE
5
46E
100
AcDbEntity
8
05
100
AcDbLine
62
7
6
CONTINUOUS
10
113.5786610000
20
8.2089520000
11
113.5132270000
21
8.2743870000
0
LINE
5
46F
100
AcDbEntity
8
05
100
AcDbLine
62
7
6
CONTINUOUS
10
113.8968590000
20
8.2089520000
11
113.6495970000
21
8.4562140000
0
LINE
5
470
100
AcDbEntity
8
05
100
AcDbLine
62
7
6
CONTINUOUS
10
114.2150570000
20
8.2089520000
11
113.7859680000
21
8.6380420000
0
LINE
5
471
100
AcDbEntity
8
05
100
AcDbLine
62
7
6
CONTINUOUS
10
114.5332550000
20
8.2089520000
11
113.9223380000
21
8.8198690000
0
LINE
5
472
100
AcDbEntity
8
05
100
AcDbLine
62
7
6
CONTINUOUS
10
114.8514530000
20
8.2089520000
11
114.0587090000
21
9.0016960000
0
LINE
5
473
100
AcDbEntity
8
05
100
AcDbLine
62
7
6
CONTINUOUS
10
115.1528720000
20
8.2257320000
11
114.1950800000
21
9.1835240000
0
LINE
5
474
100
AcDbEntity
8
05
100
AcDbLine
62
7
6
CONTINUOUS
10
115.2892420000
20
8.4075590000
11
114.3314500000
21
9.3653510000
0
LINE
5
475
100
AcDbEntity
8
05
100
AcDbLine
62
7
6
CONTINUOUS
10
115.4256130000
20
8.5893870000
11
114.4678210000
21
9.5471790000
0
LINE
5
476
100
AcDbEntity
8
05
100
AcDbLine
62
7
6
CONTINUOUS
10
115.6442140000
20
8.6889840000
11
114.6041910000
21
9.7290060000
0
LINE
5
477
100
AcDbEntity
8
05
100
AcDbLine
62
7
6
CONTINUOUS
10
115.9624120000
20
8.6889840000
11
114.7405620000
21
9.9108340000
0
LINE
5
478
100
AcDbEntity
8
05
100
AcDbLine
62
7
6
CONTINUOUS
10
116.2806100000
20
8.6889840000
11
115.9074220000
21
9.0621710000
0
LINE
5
479
100
AcDbEntity
8
05
100
AcDbLine
62
7
6
CONTINUOUS
10
115.8347250000
20
9.1348690000
11
114.8769330000
21
10.0926610000
0
LINE
5
47A
100
AcDbEntity
8
05
100
AcDbLine
62
7
6
CONTINUOUS
10
116.5988080000
20
8.6889840000
11
116.2256200000
21
9.0621710000
0
LINE
5
47B
100
AcDbEntity
8
05
100
AcDbLine
62
7
6
CONTINUOUS
10
115.9710950000
20
9.3166960000
11
115.0133030000
21
10.2744890000
0
LINE
5
47C
100
AcDbEntity
8
05
100
AcDbLine
62
7
6
CONTINUOUS
10
117.3970380000
20
8.2089520000
11
117.3290410000
21
8.2769490000
0
LINE
5
47D
100
AcDbEntity
8
05
100
AcDbLine
62
7
6
CONTINUOUS
10
116.1074660000
20
9.4985240000
11
115.1496740000
21
10.4563160000
0
LINE
5
47E
100
AcDbEntity
8
05
100
AcDbLine
62
7
6
CONTINUOUS
10
116.9170060000
20
8.6889840000
11
116.5438180000
21
9.0621710000
0
LINE
5
47F
100
AcDbEntity
8
05
100
AcDbLine
62
7
6
CONTINUOUS
10
117.7152360000
20
8.2089520000
11
116.8620160000
21
9.0621710000
0
LINE
5
480
100
AcDbEntity
8
05
100
AcDbLine
62
7
6
CONTINUOUS
10
116.2438370000
20
9.6803510000
11
115.2860440000
21
10.6381440000
0
LINE
5
481
100
AcDbEntity
8
05
100
AcDbLine
62
7
6
CONTINUOUS
10
118.0334340000
20
8.2089520000
11
117.1169090000
21
9.1254770000
0
LINE
5
482
100
AcDbEntity
8
05
100
AcDbLine
62
7
6
CONTINUOUS
10
116.3802070000
20
9.8621790000
11
115.5485850000
21
10.6938010000
0
LINE
5
483
100
AcDbEntity
8
05
100
AcDbLine
62
7
6
CONTINUOUS
10
118.3516320000
20
8.2089520000
11
117.0108430000
21
9.5497410000
0
LINE
5
484
100
AcDbEntity
8
05
100
AcDbLine
62
7
6
CONTINUOUS
10
116.5165780000
20
10.0440060000
11
115.8667830000
21
10.6938010000
0
LINE
5
485
100
AcDbEntity
8
05
100
AcDbLine
62
7
6
CONTINUOUS
10
118.6698300000
20
8.2089520000
11
116.9047770000
21
9.9740050000
0
LINE
5
486
100
AcDbEntity
8
05
100
AcDbLine
62
7
6
CONTINUOUS
10
116.6529480000
20
10.2258340000
11
116.1849810000
21
10.6938010000
0
LINE
5
487
100
AcDbEntity
8
05
100
AcDbLine
62
7
6
CONTINUOUS
10
118.8755950000
20
8.3213850000
11
116.7987110000
21
10.3982690000
0
LINE
5
488
100
AcDbEntity
8
05
100
AcDbLine
62
7
6
CONTINUOUS
10
116.7893190000
20
10.4076610000
11
116.5031790000
21
10.6938010000
0
LINE
5
489
100
AcDbEntity
8
05
100
AcDbLine
62
7
6
CONTINUOUS
10
118.7695290000
20
8.7456490000
11
116.8213770000
21
10.6938010000
0
LINE
5
48A
100
AcDbEntity
8
05
100
AcDbLine
62
7
6
CONTINUOUS
10
118.6634630000
20
9.1699130000
11
117.1395760000
21
10.6938010000
0
LINE
5
48B
100
AcDbEntity
8
05
100
AcDbLine
62
7
6
CONTINUOUS
10
119.7324920000
20
8.4190820000
11
119.6739720000
21
8.4776020000
0
LINE
5
48C
100
AcDbEntity
8
05
100
AcDbLine
62
7
6
CONTINUOUS
10
118.5573970000
20
9.5941770000
11
117.4577740000
21
10.6938010000
0
LINE
5
48D
100
AcDbEntity
8
05
100
AcDbLine
62
7
6
CONTINUOUS
10
120.1492980000
20
8.3204740000
11
119.6352250000
21
8.8345480000
0
LINE
5
48E
100
AcDbEntity
8
05
100
AcDbLine
62
7
6
CONTINUOUS
10
118.4513310000
20
10.0184410000
11
117.7759720000
21
10.6938010000
0
LINE
5
48F
100
AcDbEntity
8
05
100
AcDbLine
62
7
6
CONTINUOUS
10
120.5092820000
20
8.2786890000
11
119.6829220000
21
9.1050490000
0
LINE
5
490
100
AcDbEntity
8
05
100
AcDbLine
62
7
6
CONTINUOUS
10
118.3452650000
20
10.4427050000
11
118.0941700000
21
10.6938010000
0
LINE
5
491
100
AcDbEntity
8
05
100
AcDbLine
62
7
6
CONTINUOUS
10
120.8588570000
20
8.2473120000
11
119.7306180000
21
9.3755500000
0
LINE
5
492
100
AcDbEntity
8
05
100
AcDbLine
62
7
6
CONTINUOUS
10
121.1989400000
20
8.2254260000
11
119.7783150000
21
9.6460520000
0
LINE
5
493
100
AcDbEntity
8
05
100
AcDbLine
62
7
6
CONTINUOUS
10
121.5303060000
20
8.2122580000
11
119.8260120000
21
9.9165530000
0
LINE
5
494
100
AcDbEntity
8
05
100
AcDbLine
62
7
6
CONTINUOUS
10
121.8536160000
20
8.2071470000
11
119.8737080000
21
10.1870540000
0
LINE
5
495
100
AcDbEntity
8
05
100
AcDbLine
62
7
6
CONTINUOUS
10
122.1694370000
20
8.2095230000
11
121.7175430000
21
8.6614180000
0
LINE
5
496
100
AcDbEntity
8
05
100
AcDbLine
62
7
6
CONTINUOUS
10
121.2416420000
20
9.1373190000
11
119.9704990000
21
10.4084620000
0
LINE
5
497
100
AcDbEntity
8
05
100
AcDbLine
62
7
6
CONTINUOUS
10
122.4782650000
20
8.2188940000
11
122.0476490000
21
8.6495100000
0
LINE
5
498
100
AcDbEntity
8
05
100
AcDbLine
62
7
6
CONTINUOUS
10
121.2893390000
20
9.4078200000
11
120.1933910000
21
10.5037670000
0
LINE
5
499
100
AcDbEntity
8
05
100
AcDbLine
62
7
6
CONTINUOUS
10
122.7805300000
20
8.2348260000
11
122.3498670000
21
8.6654900000
0
LINE
5
49A
100
AcDbEntity
8
05
100
AcDbLine
62
7
6
CONTINUOUS
10
121.3370350000
20
9.6783210000
11
120.4681720000
21
10.5471850000
0
LINE
5
49B
100
AcDbEntity
8
05
100
AcDbLine
62
7
6
CONTINUOUS
10
123.1246030000
20
8.2089520000
11
122.6300090000
21
8.7035460000
0
LINE
5
49C
100
AcDbEntity
8
05
100
AcDbLine
62
7
6
CONTINUOUS
10
121.3847320000
20
9.9488230000
11
120.7480050000
21
10.5855500000
0
LINE
5
49D
100
AcDbEntity
8
05
100
AcDbLine
62
7
6
CONTINUOUS
10
123.4428010000
20
8.2089520000
11
122.8555260000
21
8.7962270000
0
LINE
5
49E
100
AcDbEntity
8
05
100
AcDbLine
62
7
6
CONTINUOUS
10
121.5029990000
20
10.1487530000
11
121.0331350000
21
10.6186170000
0
LINE
5
49F
100
AcDbEntity
8
05
100
AcDbLine
62
7
6
CONTINUOUS
10
122.5731040000
20
9.0786490000
11
122.3801960000
21
9.2715570000
0
LINE
5
4A0
100
AcDbEntity
8
05
100
AcDbLine
62
7
6
CONTINUOUS
10
123.7609990000
20
8.2089520000
11
122.9559880000
21
9.0139630000
0
LINE
5
4A1
100
AcDbEntity
8
05
100
AcDbLine
62
7
6
CONTINUOUS
10
121.7450410000
20
10.2249100000
11
121.3238330000
21
10.6461180000
0
LINE
5
4A2
100
AcDbEntity
8
05
100
AcDbLine
62
7
6
CONTINUOUS
10
122.8913020000
20
9.0786490000
11
122.6685740000
21
9.3013760000
0
LINE
5
4A3
100
AcDbEntity
8
05
100
AcDbLine
62
7
6
CONTINUOUS
10
124.0791970000
20
8.2089520000
11
122.9867720000
21
9.3013760000
0
LINE
5
4A4
100
AcDbEntity
8
05
100
AcDbLine
62
7
6
CONTINUOUS
10
122.0342750000
20
10.2538740000
11
121.6204010000
21
10.6677480000
0
LINE
5
4A5
100
AcDbEntity
8
05
100
AcDbLine
62
7
6
CONTINUOUS
10
124.3716180000
20
8.2347290000
11
123.3049710000
21
9.3013760000
0
LINE
5
4A6
100
AcDbEntity
8
05
100
AcDbLine
62
7
6
CONTINUOUS
10
122.3477810000
20
10.2585660000
11
121.9231780000
21
10.6831690000
0
LINE
5
4A7
100
AcDbEntity
8
05
100
AcDbLine
62
7
6
CONTINUOUS
10
124.4193150000
20
8.5052300000
11
123.6231690000
21
9.3013760000
0
LINE
5
4A8
100
AcDbEntity
8
05
100
AcDbLine
62
7
6
CONTINUOUS
10
122.6928320000
20
10.2317130000
11
122.2325510000
21
10.6919940000
0
LINE
5
4A9
100
AcDbEntity
8
05
100
AcDbLine
62
7
6
CONTINUOUS
10
124.4670110000
20
8.7757320000
11
123.9413670000
21
9.3013760000
0
LINE
5
4AA
100
AcDbEntity
8
05
100
AcDbLine
62
7
6
CONTINUOUS
10
123.2787500000
20
9.9639930000
11
122.5489540000
21
10.6937890000
0
LINE
5
4AB
100
AcDbEntity
8
05
100
AcDbLine
62
7
6
CONTINUOUS
10
124.5147080000
20
9.0462330000
11
124.2595650000
21
9.3013760000
0
LINE
5
4AC
100
AcDbEntity
8
05
100
AcDbLine
62
7
6
CONTINUOUS
10
123.5969480000
20
9.9639930000
11
122.8728890000
21
10.6880520000
0
LINE
5
4AD
100
AcDbEntity
8
05
100
AcDbLine
62
7
6
CONTINUOUS
10
123.9151460000
20
9.9639930000
11
123.2049290000
21
10.6742100000
0
LINE
5
4AE
100
AcDbEntity
8
05
100
AcDbLine
62
7
6
CONTINUOUS
10
124.2333440000
20
9.9639930000
11
123.5457450000
21
10.6515930000
0
LINE
5
4AF
100
AcDbEntity
8
05
100
AcDbLine
62
7
6
CONTINUOUS
10
124.5515420000
20
9.9639930000
11
123.8961190000
21
10.6194160000
0
LINE
5
4B0
100
AcDbEntity
8
05
100
AcDbLine
62
7
6
CONTINUOUS
10
124.7054950000
20
10.1282390000
11
124.2569840000
21
10.5767500000
0
LINE
5
4B1
100
AcDbEntity
8
035
100
AcDbLine
62
3
6
CONTINUOUS
10
73.1107220000
20
8.2089520000
11
74.8185550000
21
8.2089520000
0
LINE
5
4B2
100
AcDbEntity
8
035
100
AcDbLine
62
3
6
CONTINUOUS
10
73.6614380000
20
10.6930720000
11
75.6797860000
21
10.6930720000
0
LINE
5
4B3
100
AcDbEntity
8
035
100
AcDbLine
62
3
6
CONTINUOUS
10
73.1107220000
20
8.2089520000
11
73.6614380000
21
10.6930720000
0
LINE
5
4B4
100
AcDbEntity
8
035
100
AcDbLine
62
3
6
CONTINUOUS
10
74.8185550000
20
8.2089520000
11
75.1283320000
21
9.6062700000
0
LINE
5
4B5
100
AcDbEntity
8
035
100
AcDbLine
62
3
6
CONTINUOUS
10
78.6223630000
20
8.2089520000
11
79.1730790000
21
10.6930720000
0
LINE
5
4B6
100
AcDbEntity
8
035
100
AcDbLine
62
3
6
CONTINUOUS
10
77.2243080000
20
9.6062700000
11
77.4652470000
21
10.6930720000
0
LINE
5
4B7
100
AcDbEntity
8
035
100
AcDbLine
62
3
6
CONTINUOUS
10
75.1283320000
20
9.6062700000
11
76.6816440000
21
8.2089520000
0
LINE
5
4B8
100
AcDbEntity
8
035
100
AcDbLine
62
3
6
CONTINUOUS
10
75.6797860000
20
10.6930720000
11
77.2243080000
21
9.6062700000
0
LINE
5
4B9
100
AcDbEntity
8
035
100
AcDbLine
62
3
6
CONTINUOUS
10
77.4652470000
20
10.6930720000
11
79.1730790000
21
10.6930720000
0
LINE
5
4BA
100
AcDbEntity
8
035
100
AcDbLine
62
3
6
CONTINUOUS
10
76.6816440000
20
8.2089520000
11
78.6223630000
21
8.2089520000
0
LINE
5
4BB
100
AcDbEntity
8
035
100
AcDbLine
62
3
6
CONTINUOUS
10
79.4762790000
20
8.2089520000
11
80.0269950000
21
10.6930720000
0
LINE
5
4BC
100
AcDbEntity
8
035
100
AcDbLine
62
3
6
CONTINUOUS
10
81.2816520000
20
8.6489310000
11
81.4273260000
21
9.3060230000
0
LINE
5
4BD
100
AcDbEntity
8
035
100
AcDbLine
62
3
6
CONTINUOUS
10
84.1443320000
20
9.3060230000
11
84.2086190000
21
9.5960010000
0
LINE
5
4BE
100
AcDbEntity
8
035
100
AcDbLine
62
3
6
CONTINUOUS
10
84.1340040000
20
8.2089520000
11
84.2315440000
21
8.6489310000
0
LINE
5
4BF
100
AcDbEntity
8
035
100
AcDbLine
62
3
6
CONTINUOUS
10
79.4762790000
20
8.2089520000
11
84.1340040000
21
8.2089520000
0
LINE
5
4C0
100
AcDbEntity
8
035
100
AcDbLine
62
3
6
CONTINUOUS
10
80.0269950000
20
10.6930720000
11
84.6847200000
21
10.6930720000
0
LINE
5
4C1
100
AcDbEntity
8
035
100
AcDbLine
62
3
6
CONTINUOUS
10
81.4916130000
20
9.5960010000
11
81.6372870000
21
10.2530940000
0
LINE
5
4C2
100
AcDbEntity
8
035
100
AcDbLine
62
3
6
CONTINUOUS
10
84.5871790000
20
10.2530940000
11
84.6847200000
21
10.6930720000
0
LINE
5
4C3
100
AcDbEntity
8
035
100
AcDbLine
62
3
6
CONTINUOUS
10
85.0785120000
20
8.9677470000
11
85.4610070000
21
10.6930720000
0
LINE
5
4C4
100
AcDbEntity
8
035
100
AcDbLine
62
3
6
CONTINUOUS
10
86.8294160000
20
9.1814320000
11
87.1645380000
21
10.6930720000
0
LINE
5
4C5
100
AcDbEntity
8
035
100
AcDbLine
62
3
6
CONTINUOUS
10
88.6970730000
20
9.1008870000
11
89.0500510000
21
10.6930720000
0
LINE
5
4C6
100
AcDbEntity
8
035
100
AcDbLine
62
3
6
CONTINUOUS
10
90.3443260000
20
8.8470990000
11
90.7535680000
21
10.6930720000
0
LINE
5
4C7
100
AcDbEntity
8
035
100
AcDbLine
62
3
6
CONTINUOUS
10
85.4610070000
20
10.6930720000
11
87.1645380000
21
10.6930720000
0
ARC
5
4C8
100
AcDbEntity
8
035
100
AcDbCircle
62
3
6
CONTINUOUS
10
85.3565382511
20
8.9076074747
40
0.2844562511
100
AcDbArc
50
167.7944635173
51
179.9992899294
0
ARC
5
4C9
100
AcDbEntity
8
035
100
AcDbCircle
62
3
6
CONTINUOUS
10
85.3565385413
20
8.9076113390
40
0.2844565413
100
AcDbArc
50
180.0000682898
51
234.6229224813
0
ARC
5
4CA
100
AcDbEntity
8
035
100
AcDbCircle
62
3
6
CONTINUOUS
10
86.4662366591
20
10.4704306902
40
2.2011814138
100
AcDbArc
50
234.6229020698
51
253.6104761870
0
ARC
5
4CB
100
AcDbEntity
8
035
100
AcDbCircle
62
3
6
CONTINUOUS
10
87.2145988754
20
13.0148393689
40
4.8533619377
100
AcDbArc
50
253.6103910211
51
263.0540333551
0
ARC
5
4CC
100
AcDbEntity
8
035
100
AcDbCircle
62
3
6
CONTINUOUS
10
87.7114581813
20
17.0931766141
40
8.9618536141
100
AcDbArc
50
263.0539945915
51
270.0000116273
0
ARC
5
4CD
100
AcDbEntity
8
035
100
AcDbCircle
62
3
6
CONTINUOUS
10
87.7114613187
20
17.0931683755
40
8.9618453755
100
AcDbArc
50
269.9999915694
51
276.9460086052
0
ARC
5
4CE
100
AcDbEntity
8
035
100
AcDbCircle
62
3
6
CONTINUOUS
10
88.2083201246
20
13.0148393689
40
4.8533619377
100
AcDbArc
50
276.9459666449
51
286.3896089789
0
ARC
5
4CF
100
AcDbEntity
8
035
100
AcDbCircle
62
3
6
CONTINUOUS
10
88.9566823409
20
10.4704306902
40
2.2011814138
100
AcDbArc
50
286.3895238130
51
305.3770979302
0
ARC
5
4D0
100
AcDbEntity
8
035
100
AcDbCircle
62
3
6
CONTINUOUS
10
90.0663810713
20
8.9076107687
40
0.2844557216
100
AcDbArc
50
305.3770434265
51
347.7177170673
0
ARC
5
4D1
100
AcDbEntity
8
035
100
AcDbCircle
62
3
6
CONTINUOUS
10
87.0025297663
20
9.1404964568
40
0.1778877663
100
AcDbArc
50
179.9998250514
51
225.0422913416
0
ARC
5
4D2
100
AcDbEntity
8
035
100
AcDbCircle
62
3
6
CONTINUOUS
10
87.3618635061
20
9.5003622419
40
0.6864387665
100
AcDbArc
50
225.0423614170
51
247.5300128082
0
ARC
5
4D3
100
AcDbEntity
8
035
100
AcDbCircle
62
3
6
CONTINUOUS
10
87.6034918176
20
10.0845620937
40
1.3186362892
100
AcDbArc
50
247.5298821870
51
260.2785491795
0
ARC
5
4D4
100
AcDbEntity
8
035
100
AcDbCircle
62
3
6
CONTINUOUS
10
87.7630903846
20
11.0161117087
40
2.2637587087
100
AcDbArc
50
260.2783770082
51
269.9999902662
0
ARC
5
4D5
100
AcDbEntity
8
035
100
AcDbCircle
62
3
6
CONTINUOUS
10
87.7630896154
20
11.0161117087
40
2.2637587087
100
AcDbArc
50
270.0000097338
51
279.7216229918
0
ARC
5
4D6
100
AcDbEntity
8
035
100
AcDbCircle
62
3
6
CONTINUOUS
10
87.9226881824
20
10.0845620937
40
1.3186362892
100
AcDbArc
50
279.7214508205
51
292.4701178130
0
ARC
5
4D7
100
AcDbEntity
8
035
100
AcDbCircle
62
3
6
CONTINUOUS
10
88.1643164939
20
9.5003622419
40
0.6864387665
100
AcDbArc
50
292.4699871918
51
314.9576385830
0
ARC
5
4D8
100
AcDbEntity
8
035
100
AcDbCircle
62
3
6
CONTINUOUS
10
88.5236507293
20
9.1404979651
40
0.1778884834
100
AcDbArc
50
314.9572524508
51
347.1339192357
0
ARC
5
4D9
100
AcDbEntity
8
035
100
AcDbCircle
62
3
6
CONTINUOUS
10
87.0025290776
20
9.1404969937
40
0.1778870776
100
AcDbArc
50
166.6959850486
51
179.9999979692
0
LINE
5
4DA
100
AcDbEntity
8
035
100
AcDbLine
62
3
6
CONTINUOUS
10
89.0500510000
20
10.6930720000
11
90.7535680000
21
10.6930720000
0
LINE
5
4DB
100
AcDbEntity
8
035
100
AcDbLine
62
3
6
CONTINUOUS
10
91.0678550000
20
10.0720420000
11
91.2055340000
21
10.6930720000
0
LINE
5
4DC
100
AcDbEntity
8
035
100
AcDbLine
62
3
6
CONTINUOUS
10
92.2073930000
20
8.2089520000
11
92.6204300000
21
10.0720420000
0
LINE
5
4DD
100
AcDbEntity
8
035
100
AcDbLine
62
3
6
CONTINUOUS
10
93.9152250000
20
8.2089520000
11
94.3282620000
21
10.0720420000
0
LINE
5
4DE
100
AcDbEntity
8
035
100
AcDbLine
62
3
6
CONTINUOUS
10
95.9584660000
20
10.0720420000
11
96.0961450000
21
10.6930720000
0
LINE
5
4DF
100
AcDbEntity
8
035
100
AcDbLine
62
3
6
CONTINUOUS
10
91.0678550000
20
10.0720420000
11
92.6204300000
21
10.0720420000
0
LINE
5
4E0
100
AcDbEntity
8
035
100
AcDbLine
62
3
6
CONTINUOUS
10
92.2073930000
20
8.2089520000
11
93.9152250000
21
8.2089520000
0
LINE
5
4E1
100
AcDbEntity
8
035
100
AcDbLine
62
3
6
CONTINUOUS
10
91.2055340000
20
10.6930720000
11
96.0961450000
21
10.6930720000
0
LINE
5
4E2
100
AcDbEntity
8
035
100
AcDbLine
62
3
6
CONTINUOUS
10
94.3282620000
20
10.0720420000
11
95.9584660000
21
10.0720420000
0
LINE
5
4E3
100
AcDbEntity
8
035
100
AcDbLine
62
3
6
CONTINUOUS
10
96.0888300000
20
8.2089520000
11
96.6395460000
21
10.6930720000
0
LINE
5
4E4
100
AcDbEntity
8
035
100
AcDbLine
62
3
6
CONTINUOUS
10
97.7966620000
20
8.2089520000
11
98.0020150000
21
9.1352400000
0
LINE
5
4E5
100
AcDbEntity
8
035
100
AcDbLine
62
3
6
CONTINUOUS
10
96.0888300000
20
8.2089520000
11
97.7966620000
21
8.2089520000
0
LINE
5
4E6
100
AcDbEntity
8
035
100
AcDbLine
62
3
6
CONTINUOUS
10
96.6395460000
20
10.6930720000
11
100.9979220000
21
10.6930720000
0
LINE
5
4E7
100
AcDbEntity
8
035
100
AcDbLine
62
3
6
CONTINUOUS
10
101.3081340000
20
8.4689140000
11
101.3485860000
21
9.0474050000
0
LINE
5
4E8
100
AcDbEntity
8
035
100
AcDbLine
62
3
6
CONTINUOUS
10
99.5959630000
20
8.4068680000
11
99.6272290000
21
8.8619210000
0
LINE
5
4E9
100
AcDbEntity
8
035
100
AcDbLine
62
3
6
CONTINUOUS
10
98.0663020000
20
9.4252180000
11
98.2498370000
21
10.2530940000
0
ARC
5
4EA
100
AcDbEntity
8
035
100
AcDbCircle
62
3
6
CONTINUOUS
10
101.6953320000
20
8.4418380000
40
0.3881440000
100
AcDbArc
50
176.0000000000
51
216.8698980000
0
ARC
5
4EB
100
AcDbEntity
8
035
100
AcDbCircle
62
3
6
CONTINUOUS
10
99.9697530000
20
8.4119050000
40
0.3738240000
100
AcDbArc
50
180.7720050000
51
212.8818750000
0
LINE
5
4EC
100
AcDbEntity
8
035
100
AcDbLine
62
3
6
CONTINUOUS
10
99.6558180000
20
8.2089520000
11
101.3848170000
21
8.2089520000
0
ARC
5
4ED
100
AcDbEntity
8
035
100
AcDbCircle
62
3
6
CONTINUOUS
10
101.0645091256
20
9.0692414046
40
0.2849148980
100
AcDbArc
50
355.6044351018
51
14.9998321139
0
ARC
5
4EE
100
AcDbEntity
8
035
100
AcDbCircle
62
3
6
CONTINUOUS
10
101.0645115927
20
9.0692393407
40
0.2849130492
100
AcDbArc
50
15.0003614107
51
49.8062951149
0
ARC
5
4EF
100
AcDbEntity
8
035
100
AcDbCircle
62
3
6
CONTINUOUS
10
100.8802286242
20
8.8511285638
40
0.5704520544
100
AcDbArc
50
49.8058236467
51
55.6063554031
0
ARC
5
4F0
100
AcDbEntity
8
035
100
AcDbCircle
62
3
6
CONTINUOUS
10
100.3132482994
20
11.1994672129
40
2.0775325922
100
AcDbArc
50
295.3416402972
51
298.8636783469
0
ARC
5
4F1
100
AcDbEntity
8
035
100
AcDbCircle
62
3
6
CONTINUOUS
10
100.6415395293
20
10.6038639832
40
1.3974455839
100
AcDbArc
50
298.8639281557
51
315.7882926038
0
ARC
5
4F2
100
AcDbEntity
8
035
100
AcDbCircle
62
3
6
CONTINUOUS
10
100.9889757242
20
10.2658585190
40
0.9127192659
100
AcDbArc
50
315.7883093494
51
340.1939355680
0
ARC
5
4F3
100
AcDbEntity
8
035
100
AcDbCircle
62
3
6
CONTINUOUS
10
101.4188091494
20
10.1110581593
40
0.4558605079
100
AcDbArc
50
340.1938658204
51
14.9997995246
0
ARC
5
4F4
100
AcDbEntity
8
035
100
AcDbCircle
62
3
6
CONTINUOUS
10
101.4188087341
20
10.1110565785
40
0.4558613183
100
AcDbArc
50
14.9999779363
51
49.8059116405
0
ARC
5
4F5
100
AcDbEntity
8
035
100
AcDbCircle
62
3
6
CONTINUOUS
10
101.1239631890
20
9.7620752320
40
0.9127222113
100
AcDbArc
50
49.8061438314
51
74.2117700500
0
ARC
5
4F6
100
AcDbEntity
8
035
100
AcDbCircle
62
3
6
CONTINUOUS
10
100.9920781414
20
9.2956381767
40
1.3974460423
100
AcDbArc
50
74.2117641360
51
89.7603990413
0
LINE
5
4F7
100
AcDbEntity
8
035
100
AcDbLine
62
3
6
CONTINUOUS
10
102.1438710000
20
8.2089520000
11
102.6945880000
21
10.6930720000
0
LINE
5
4F8
100
AcDbEntity
8
035
100
AcDbLine
62
3
6
CONTINUOUS
10
103.8517040000
20
8.2089520000
11
104.4024200000
21
10.6930720000
0
LINE
5
4F9
100
AcDbEntity
8
035
100
AcDbLine
62
3
6
CONTINUOUS
10
102.1438710000
20
8.2089520000
11
103.8517040000
21
8.2089520000
0
LINE
5
4FA
100
AcDbEntity
8
035
100
AcDbLine
62
3
6
CONTINUOUS
10
102.6945880000
20
10.6930720000
11
104.4024200000
21
10.6930720000
0
LINE
5
4FB
100
AcDbEntity
8
035
100
AcDbLine
62
3
6
CONTINUOUS
10
104.8608770000
20
8.2089520000
11
105.4115940000
21
10.6930720000
0
LINE
5
4FC
100
AcDbEntity
8
035
100
AcDbLine
62
3
6
CONTINUOUS
10
106.4910810000
20
8.2089520000
11
106.6287600000
21
8.8299820000
0
LINE
5
4FD
100
AcDbEntity
8
035
100
AcDbLine
62
3
6
CONTINUOUS
10
105.4115940000
20
10.6930720000
11
107.0417970000
21
10.6930720000
0
LINE
5
4FE
100
AcDbEntity
8
035
100
AcDbLine
62
3
6
CONTINUOUS
10
104.8608770000
20
8.2089520000
11
106.4910810000
21
8.2089520000
0
LINE
5
4FF
100
AcDbEntity
8
035
100
AcDbLine
62
3
6
CONTINUOUS
10
106.6287600000
20
8.8299820000
11
107.3574440000
21
9.1404970000
0
LINE
5
500
100
AcDbEntity
8
035
100
AcDbLine
62
3
6
CONTINUOUS
10
106.8555250000
20
9.8528550000
11
108.8272580000
21
10.6930720000
0
LINE
5
501
100
AcDbEntity
8
035
100
AcDbLine
62
3
6
CONTINUOUS
10
108.8272580000
20
10.6930720000
11
111.0008630000
21
10.6930720000
0
LINE
5
502
100
AcDbEntity
8
035
100
AcDbLine
62
3
6
CONTINUOUS
10
107.3574440000
20
9.1404970000
11
108.2765420000
21
8.2089520000
0
LINE
5
503
100
AcDbEntity
8
035
100
AcDbLine
62
3
6
CONTINUOUS
10
108.9969820000
20
9.8391560000
11
110.6054040000
21
8.2089520000
0
LINE
5
504
100
AcDbEntity
8
035
100
AcDbLine
62
3
6
CONTINUOUS
10
108.9969820000
20
9.8391560000
11
111.0008630000
21
10.6930720000
0
LINE
5
505
100
AcDbEntity
8
035
100
AcDbLine
62
3
6
CONTINUOUS
10
106.8555250000
20
9.8528550000
11
107.0417970000
21
10.6930720000
0
LINE
5
506
100
AcDbEntity
8
035
100
AcDbLine
62
3
6
CONTINUOUS
10
108.2765420000
20
8.2089520000
11
110.6054040000
21
8.2089520000
0
LINE
5
507
100
AcDbEntity
8
035
100
AcDbLine
62
3
6
CONTINUOUS
10
113.4641510000
20
8.2089520000
11
115.1402870000
21
8.2089520000
0
LINE
5
508
100
AcDbEntity
8
035
100
AcDbLine
62
3
6
CONTINUOUS
10
115.3277870000
20
10.6938010000
11
118.2824910000
21
10.6938010000
0
LINE
5
509
100
AcDbEntity
8
035
100
AcDbLine
62
3
6
CONTINUOUS
10
113.4641510000
20
8.2089520000
11
115.3277870000
21
10.6938010000
0
LINE
5
50A
100
AcDbEntity
8
035
100
AcDbLine
62
3
6
CONTINUOUS
10
118.2824910000
20
10.6938010000
11
118.9037030000
21
8.2089520000
0
LINE
5
50B
100
AcDbEntity
8
035
100
AcDbLine
62
3
6
CONTINUOUS
10
115.5003110000
20
8.6889840000
11
117.2260320000
21
8.6889840000
0
LINE
5
50C
100
AcDbEntity
8
035
100
AcDbLine
62
3
6
CONTINUOUS
10
115.7802020000
20
9.0621710000
11
117.1327350000
21
9.0621710000
0
LINE
5
50D
100
AcDbEntity
8
035
100
AcDbLine
62
3
6
CONTINUOUS
10
119.6150190000
20
8.7199520000
11
119.8833800000
21
10.2419070000
0
LINE
5
50E
100
AcDbEntity
8
035
100
AcDbLine
62
3
6
CONTINUOUS
10
124.3670730000
20
8.2089520000
11
124.5596970000
21
9.3013760000
0
LINE
5
50F
100
AcDbEntity
8
035
100
AcDbLine
62
3
6
CONTINUOUS
10
121.2261250000
20
9.0493180000
11
121.3860210000
21
9.9561340000
0
LINE
5
510
100
AcDbEntity
8
035
100
AcDbLine
62
3
6
CONTINUOUS
10
122.8140420000
20
8.2089520000
11
122.8190480000
21
8.2373380000
0
LINE
5
511
100
AcDbEntity
8
035
100
AcDbLine
62
3
6
CONTINUOUS
10
122.3461810000
20
9.0786490000
11
122.3854540000
21
9.3013760000
0
LINE
5
512
100
AcDbEntity
8
035
100
AcDbLine
62
3
6
CONTINUOUS
10
122.3461810000
20
9.0786490000
11
122.9673930000
21
9.0786490000
0
ARC
5
513
100
AcDbEntity
8
035
100
AcDbCircle
62
3
6
CONTINUOUS
10
122.4684270000
20
-3.0031280000
40
13.6971530000
100
AcDbArc
50
81.6598950000
51
99.8027900000
0
ARC
5
514
100
AcDbEntity
8
035
100
AcDbCircle
62
3
6
CONTINUOUS
10
121.9084660000
20
21.9041900000
40
13.6971530000
100
AcDbArc
50
261.4614730000
51
273.8118150000
0
ARC
5
515
100
AcDbEntity
8
035
100
AcDbCircle
62
3
6
CONTINUOUS
10
120.1892670000
20
10.1879710000
40
0.3106060000
100
AcDbArc
50
99.8027900000
51
170.0000000000
0
ARC
5
516
100
AcDbEntity
8
035
100
AcDbCircle
62
3
6
CONTINUOUS
10
119.9209060000
20
8.6660160000
40
0.3106060000
100
AcDbArc
50
170.0000000000
51
261.4614730000
0
ARC
5
517
100
AcDbEntity
8
035
100
AcDbCircle
62
3
6
CONTINUOUS
10
124.4101300000
20
10.2418500000
40
0.3106060000
100
AcDbArc
50
350.0000000000
51
81.6598950000
0
LINE
5
518
100
AcDbEntity
8
035
100
AcDbLine
62
3
6
CONTINUOUS
10
123.1015710000
20
9.9639930000
11
124.6765340000
21
9.9639930000
0
LINE
5
519
100
AcDbEntity
8
035
100
AcDbLine
62
3
6
CONTINUOUS
10
124.6765340000
20
9.9639930000
11
124.7160170000
21
10.1879140000
0
LINE
5
51A
100
AcDbEntity
8
035
100
AcDbLine
62
3
6
CONTINUOUS
10
122.9478530000
20
8.9678320000
11
122.9673930000
21
9.0786490000
0
ARC
5
51B
100
AcDbEntity
8
035
100
AcDbCircle
62
3
6
CONTINUOUS
10
122.2442760000
20
6.6982740000
40
3.5617970000
100
AcDbArc
50
80.2083390000
51
99.7818250000
0
ARC
5
51C
100
AcDbEntity
8
035
100
AcDbCircle
62
3
6
CONTINUOUS
10
122.0108590000
20
12.2111170000
40
3.5617970000
100
AcDbArc
50
261.5304680000
51
281.1930680000
0
ARC
5
51D
100
AcDbEntity
8
035
100
AcDbCircle
62
3
6
CONTINUOUS
10
121.6919080000
20
9.9021980000
40
0.3106060000
100
AcDbArc
50
99.7818250000
51
170.0000000000
0
ARC
5
51E
100
AcDbEntity
8
035
100
AcDbCircle
62
3
6
CONTINUOUS
10
122.7971930000
20
9.9021030000
40
0.3106060000
100
AcDbArc
50
11.4934250000
51
80.2083390000
0
ARC
5
51F
100
AcDbEntity
8
035
100
AcDbCircle
62
3
6
CONTINUOUS
10
121.5320120000
20
8.9953820000
40
0.3106060000
100
AcDbArc
50
170.0000000000
51
261.5304680000
0
ARC
5
520
100
AcDbEntity
8
035
100
AcDbCircle
62
3
6
CONTINUOUS
10
122.6419660000
20
9.0217680000
40
0.3106060000
100
AcDbArc
50
281.1930680000
51
350.0000000000
0
LINE
5
521
100
AcDbEntity
8
035
100
AcDbLine
62
3
6
CONTINUOUS
10
122.8140420000
20
8.2089520000
11
124.3670730000
21
8.2089520000
0
LINE
5
522
100
AcDbEntity
8
035
100
AcDbLine
62
3
6
CONTINUOUS
10
117.3460400000
20
8.2089520000
11
118.9037030000
21
8.2089520000
0
LINE
5
523
100
AcDbEntity
8
035
100
AcDbLine
62
3
6
CONTINUOUS
10
81.6372870000
20
10.2530940000
11
84.5871790000
21
10.2530940000
0
LINE
5
524
100
AcDbEntity
8
035
100
AcDbLine
62
3
6
CONTINUOUS
10
81.4916130000
20
9.5960010000
11
84.2086190000
21
9.5960010000
0
LINE
5
525
100
AcDbEntity
8
035
100
AcDbLine
62
3
6
CONTINUOUS
10
81.4273260000
20
9.3060230000
11
84.1443320000
21
9.3060230000
0
LINE
5
526
100
AcDbEntity
8
035
100
AcDbLine
62
3
6
CONTINUOUS
10
81.2816520000
20
8.6489310000
11
84.2315440000
21
8.6489310000
0
LINE
5
527
100
AcDbEntity
8
035
100
AcDbLine
62
3
6
CONTINUOUS
10
98.2498370000
20
10.2530940000
11
99.6563970000
21
10.2530940000
0
LINE
5
528
100
AcDbEntity
8
035
100
AcDbLine
62
3
6
CONTINUOUS
10
98.0663020000
20
9.4252180000
11
99.4266270000
21
9.4252180000
0
LINE
5
529
100
AcDbEntity
8
035
100
AcDbLine
62
3
6
CONTINUOUS
10
98.0020150000
20
9.1352400000
11
99.4509000000
21
9.1352400000
0
LINE
5
52A
100
AcDbEntity
8
035
100
AcDbLine
62
3
6
CONTINUOUS
10
99.6563970000
20
10.2530940000
11
99.7674140000
21
10.2349300000
0
LINE
5
52B
100
AcDbEntity
8
035
100
AcDbLine
62
3
6
CONTINUOUS
10
99.7674140000
20
10.2349300000
11
99.8636110000
21
10.1861990000
0
LINE
5
52C
100
AcDbEntity
8
035
100
AcDbLine
62
3
6
CONTINUOUS
10
99.8636110000
20
10.1861990000
11
99.9097870000
21
10.1118220000
0
LINE
5
52D
100
AcDbEntity
8
035
100
AcDbLine
62
3
6
CONTINUOUS
10
99.9097870000
20
10.1118220000
11
99.9456990000
21
10.0220570000
0
LINE
5
52E
100
AcDbEntity
8
035
100
AcDbLine
62
3
6
CONTINUOUS
10
99.9456990000
20
10.0220570000
11
99.9469830000
21
9.9246000000
0
LINE
5
52F
100
AcDbEntity
8
035
100
AcDbLine
62
3
6
CONTINUOUS
10
99.9469830000
20
9.9246000000
11
99.9367220000
21
9.7835390000
0
LINE
5
530
100
AcDbEntity
8
035
100
AcDbLine
62
3
6
CONTINUOUS
10
99.9367220000
20
9.7835390000
11
99.8854140000
21
9.6976240000
0
LINE
5
531
100
AcDbEntity
8
035
100
AcDbLine
62
3
6
CONTINUOUS
10
99.8854140000
20
9.6976240000
11
99.7943500000
21
9.5911860000
0
LINE
5
532
100
AcDbEntity
8
035
100
AcDbLine
62
3
6
CONTINUOUS
10
99.7943500000
20
9.5911860000
11
99.6571060000
21
9.5091160000
0
LINE
5
533
100
AcDbEntity
8
035
100
AcDbLine
62
3
6
CONTINUOUS
10
99.6571060000
20
9.5091160000
11
99.5262760000
21
9.4424340000
0
LINE
5
534
100
AcDbEntity
8
035
100
AcDbLine
62
3
6
CONTINUOUS
10
99.5262760000
20
9.4424340000
11
99.4266270000
21
9.4252180000
0
LINE
5
535
100
AcDbEntity
8
035
100
AcDbLine
62
3
6
CONTINUOUS
10
99.4509000000
20
9.1352400000
11
99.5337810000
21
9.1235790000
0
LINE
5
536
100
AcDbEntity
8
035
100
AcDbLine
62
3
6
CONTINUOUS
10
99.5337810000
20
9.1235790000
11
99.5869810000
21
9.0899330000
0
LINE
5
537
100
AcDbEntity
8
035
100
AcDbLine
62
3
6
CONTINUOUS
10
99.5869810000
20
9.0899330000
11
99.6195510000
21
9.0367450000
0
LINE
5
538
100
AcDbEntity
8
035
100
AcDbLine
62
3
6
CONTINUOUS
10
99.6195510000
20
9.0367450000
11
99.6347510000
21
8.9727040000
0
LINE
5
539
100
AcDbEntity
8
035
100
AcDbLine
62
3
6
CONTINUOUS
10
99.6347510000
20
8.9727040000
11
99.6272290000
21
8.8619210000
0
LINE
5
53A
100
AcDbEntity
8
035
100
AcDbLine
62
3
6
CONTINUOUS
10
116.7946020000
20
10.4147050000
11
117.1327350000
21
9.0621710000
0
LINE
5
53B
100
AcDbEntity
8
035
100
AcDbLine
62
3
6
CONTINUOUS
10
115.7802020000
20
9.0621710000
11
116.7946020000
21
10.4147050000
0
LINE
5
53C
100
AcDbEntity
8
035
100
AcDbLine
62
3
6
CONTINUOUS
10
117.2260320000
20
8.6889840000
11
117.3460400000
21
8.2089520000
0
LINE
5
53D
100
AcDbEntity
8
035
100
AcDbLine
62
3
6
CONTINUOUS
10
115.1402870000
20
8.2089520000
11
115.5003110000
21
8.6889840000
0
LINE
5
53E
100
AcDbEntity
8
035
100
AcDbLine
62
3
6
CONTINUOUS
10
122.3854540000
20
9.3013760000
11
124.5596970000
21
9.3013760000
0
LINE
5
53F
100
AcDbEntity
8
035
100
AcDbLine
62
3
6
CONTINUOUS
10
106.0282370000
20
233.9284590000
11
97.0682370000
21
233.9284590000
0
ARC
5
540
100
AcDbEntity
8
035
100
AcDbCircle
62
3
6
CONTINUOUS
10
105.7914050765
20
147.9803248950
40
0.1878141050
100
AcDbArc
50
90.0000233242
51
135.0424896143
0
ARC
5
541
100
AcDbEntity
8
035
100
AcDbCircle
62
3
6
CONTINUOUS
10
106.1713481727
20
147.6009399143
40
0.7247402823
100
AcDbArc
50
135.0422106731
51
157.5298620642
0
ARC
5
542
100
AcDbEntity
8
035
100
AcDbCircle
62
3
6
CONTINUOUS
10
106.7881501166
20
147.3458327416
40
1.3922163550
100
AcDbArc
50
157.5300146143
51
170.2786816068
0
ARC
5
543
100
AcDbEntity
8
035
100
AcDbCircle
62
3
6
CONTINUOUS
10
107.7716785084
20
147.1773251969
40
2.3900755084
100
AcDbArc
50
170.2783674902
51
179.9999807481
0
ARC
5
544
100
AcDbEntity
8
035
100
AcDbCircle
62
3
6
CONTINUOUS
10
107.7716726289
20
147.1773273031
40
2.3900696289
100
AcDbArc
50
180.0000312381
51
189.7216444960
0
ARC
5
545
100
AcDbEntity
8
035
100
AcDbCircle
62
3
6
CONTINUOUS
10
106.7881501166
20
147.0088202584
40
1.3922163550
100
AcDbArc
50
189.7213183932
51
202.4699853857
0
ARC
5
546
100
AcDbEntity
8
035
100
AcDbCircle
62
3
6
CONTINUOUS
10
106.1713506878
20
146.7537125857
40
0.7247424154
100
AcDbArc
50
202.4700254135
51
224.9576768047
0
ARC
5
547
100
AcDbEntity
8
035
100
AcDbCircle
62
3
6
CONTINUOUS
10
105.7914038494
20
146.3743278954
40
0.1878137952
100
AcDbArc
50
224.9579455149
51
257.1346122999
0
ARC
5
548
100
AcDbEntity
8
035
100
AcDbCircle
62
3
6
CONTINUOUS
10
105.5455237416
20
149.7181612269
40
0.3003277731
100
AcDbArc
50
89.9999507024
51
144.6228048939
0
ARC
5
549
100
AcDbEntity
8
035
100
AcDbCircle
62
3
6
CONTINUOUS
10
107.1955485601
20
148.5465409530
40
2.3240065935
100
AcDbArc
50
144.6228688560
51
163.6104429732
0
ARC
5
54A
100
AcDbEntity
8
035
100
AcDbCircle
62
3
6
CONTINUOUS
10
109.8819304057
20
147.7564277984
40
5.1241719845
100
AcDbArc
50
163.6104430083
51
173.0540853422
0
ARC
5
54B
100
AcDbEntity
8
035
100
AcDbCircle
62
3
6
CONTINUOUS
10
114.1878318748
20
147.2318410860
40
9.4619108748
100
AcDbArc
50
173.0540016513
51
180.0000186871
0
ARC
5
54C
100
AcDbEntity
8
035
100
AcDbCircle
62
3
6
CONTINUOUS
10
114.1878318748
20
147.2318349140
40
9.4619108748
100
AcDbArc
50
179.9999813129
51
186.9459983487
0
ARC
5
54D
100
AcDbEntity
8
035
100
AcDbCircle
62
3
6
CONTINUOUS
10
109.8819304057
20
146.7072482016
40
5.1241719845
100
AcDbArc
50
186.9459146578
51
196.3895569917
0
ARC
5
54E
100
AcDbEntity
8
035
100
AcDbCircle
62
3
6
CONTINUOUS
10
107.1955485601
20
145.9171350470
40
2.3240065935
100
AcDbArc
50
196.3895570268
51
215.3771311440
0
ARC
5
54F
100
AcDbEntity
8
035
100
AcDbCircle
62
3
6
CONTINUOUS
10
105.5455234710
20
144.7455144088
40
0.3003273415
100
AcDbArc
50
215.3771683227
51
257.7178419635
0
LINE
5
550
100
AcDbEntity
8
035
100
AcDbLine
62
3
6
CONTINUOUS
10
105.8346240000
20
148.1630990000
11
107.4306110000
21
147.8092770000
0
ARC
5
551
100
AcDbEntity
8
035
100
AcDbCircle
62
3
6
CONTINUOUS
10
105.7914065755
20
147.9803267597
40
0.1878122403
100
AcDbArc
50
76.6964677026
51
90.0004806232
0
LINE
5
552
100
AcDbEntity
8
035
100
AcDbLine
62
3
6
CONTINUOUS
10
106.4306950000
20
153.7636350000
11
106.4306950000
21
150.8950230000
0
LINE
5
553
100
AcDbEntity
8
035
100
AcDbLine
62
3
6
CONTINUOUS
10
107.4306110000
20
155.3450860000
11
107.4306110000
21
150.4274660000
0
LINE
5
554
100
AcDbEntity
8
035
100
AcDbLine
62
3
6
CONTINUOUS
10
106.8077130000
20
153.6800520000
11
106.8077130000
21
150.5655590000
0
LINE
5
555
100
AcDbEntity
8
035
100
AcDbLine
62
3
6
CONTINUOUS
10
105.4307790000
20
153.9853110000
11
105.4307790000
21
150.8708180000
0
LINE
5
556
100
AcDbEntity
8
035
100
AcDbLine
62
3
6
CONTINUOUS
10
105.8077970000
20
153.9017280000
11
105.8077970000
21
151.0331170000
0
LINE
5
557
100
AcDbEntity
8
035
100
AcDbLine
62
3
6
CONTINUOUS
10
104.8078810000
20
155.9265310000
11
104.8078810000
21
151.0089120000
0
LINE
5
558
100
AcDbEntity
8
035
100
AcDbLine
62
3
6
CONTINUOUS
10
104.8078810000
20
158.8771030000
11
104.8078810000
21
156.8280950000
0
LINE
5
559
100
AcDbEntity
8
035
100
AcDbLine
62
3
6
CONTINUOUS
10
107.4306110000
20
158.0497770000
11
107.4306110000
21
156.2466500000
0
LINE
5
55A
100
AcDbEntity
8
035
100
AcDbLine
62
3
6
CONTINUOUS
10
107.4306110000
20
159.9348650000
11
106.2831670000
21
158.3041590000
0
LINE
5
55B
100
AcDbEntity
8
035
100
AcDbLine
62
3
6
CONTINUOUS
10
106.2831670000
20
158.3041590000
11
107.4306110000
21
158.0497770000
0
LINE
5
55C
100
AcDbEntity
8
035
100
AcDbLine
62
3
6
CONTINUOUS
10
104.8078810000
20
160.8441510000
11
106.2831670000
21
160.5170880000
0
LINE
5
55D
100
AcDbEntity
8
035
100
AcDbLine
62
3
6
CONTINUOUS
10
104.8078810000
20
162.6472780000
11
107.4306110000
21
162.0658330000
0
LINE
5
55E
100
AcDbEntity
8
035
100
AcDbLine
62
3
6
CONTINUOUS
10
104.8078810000
20
162.6472780000
11
104.8078810000
21
160.8441510000
0
LINE
5
55F
100
AcDbEntity
8
035
100
AcDbLine
62
3
6
CONTINUOUS
10
106.2831670000
20
160.5170880000
11
104.8078810000
21
158.8771030000
0
LINE
5
560
100
AcDbEntity
8
035
100
AcDbLine
62
3
6
CONTINUOUS
10
107.4306110000
20
162.0658330000
11
107.4306110000
21
159.9348650000
0
LINE
5
561
100
AcDbEntity
8
035
100
AcDbLine
62
3
6
CONTINUOUS
10
104.8078810000
20
156.8280950000
11
107.4306110000
21
156.2466500000
0
LINE
5
562
100
AcDbEntity
8
035
100
AcDbLine
62
3
6
CONTINUOUS
10
106.4306950000
20
153.7636350000
11
106.8077130000
21
153.6800520000
0
LINE
5
563
100
AcDbEntity
8
035
100
AcDbLine
62
3
6
CONTINUOUS
10
105.4307790000
20
153.9853110000
11
105.8077970000
21
153.9017280000
0
LINE
5
564
100
AcDbEntity
8
035
100
AcDbLine
62
3
6
CONTINUOUS
10
104.8078810000
20
155.9265310000
11
107.4306110000
21
155.3450860000
0
LINE
5
565
100
AcDbEntity
8
035
100
AcDbLine
62
3
6
CONTINUOUS
10
104.8078810000
20
151.0089120000
11
105.4307790000
21
150.8708180000
0
LINE
5
566
100
AcDbEntity
8
035
100
AcDbLine
62
3
6
CONTINUOUS
10
105.8077970000
20
151.0331170000
11
106.4306950000
21
150.8950230000
0
ARC
5
567
100
AcDbEntity
8
035
100
AcDbCircle
62
3
6
CONTINUOUS
10
105.5455241969
20
149.7181585640
40
0.3003304360
100
AcDbArc
50
77.7952111603
51
90.0000375724
0
LINE
5
568
100
AcDbEntity
8
035
100
AcDbLine
62
3
6
CONTINUOUS
10
106.8077130000
20
150.5655590000
11
107.4306110000
21
150.4274660000
0
LINE
5
569
100
AcDbEntity
8
035
100
AcDbLine
62
3
6
CONTINUOUS
10
105.6090160000
20
150.0117010000
11
107.4306110000
21
149.6078630000
0
LINE
5
56A
100
AcDbEntity
8
035
100
AcDbLine
62
3
6
CONTINUOUS
10
107.4306110000
20
149.6078630000
11
107.4306110000
21
147.8092770000
0
LINE
5
56B
100
AcDbEntity
8
035
100
AcDbLine
62
3
6
CONTINUOUS
10
104.8078810000
20
136.5838930000
11
105.6274840000
21
136.4021920000
0
LINE
5
56C
100
AcDbEntity
8
035
100
AcDbLine
62
3
6
CONTINUOUS
10
107.4306110000
20
137.8055750000
11
107.4306110000
21
133.2040070000
0
LINE
5
56D
100
AcDbEntity
8
035
100
AcDbLine
62
3
6
CONTINUOUS
10
104.8078810000
20
138.3870210000
11
104.8078810000
21
136.5838930000
0
LINE
5
56E
100
AcDbEntity
8
035
100
AcDbLine
62
3
6
CONTINUOUS
10
104.8078810000
20
138.3870210000
11
107.4306110000
21
137.8055750000
0
LINE
5
56F
100
AcDbEntity
8
035
100
AcDbLine
62
3
6
CONTINUOUS
10
106.7749290000
20
138.5246590000
11
107.4306110000
21
138.3792980000
0
LINE
5
570
100
AcDbEntity
8
035
100
AcDbLine
62
3
6
CONTINUOUS
10
104.8078810000
20
142.4850370000
11
104.8078810000
21
140.6819100000
0
LINE
5
571
100
AcDbEntity
8
035
100
AcDbLine
62
3
6
CONTINUOUS
10
106.7749290000
20
143.6881600000
11
106.7749290000
21
142.0489530000
0
LINE
5
572
100
AcDbEntity
8
035
100
AcDbLine
62
3
6
CONTINUOUS
10
104.8078810000
20
140.6819100000
11
106.7749290000
21
140.2458260000
0
LINE
5
573
100
AcDbEntity
8
035
100
AcDbLine
62
3
6
CONTINUOUS
10
104.8078810000
20
142.4850370000
11
106.7749290000
21
142.0489530000
0
LINE
5
574
100
AcDbEntity
8
035
100
AcDbLine
62
3
6
CONTINUOUS
10
106.7749290000
20
143.6881600000
11
107.4306110000
21
143.5427980000
0
LINE
5
575
100
AcDbEntity
8
035
100
AcDbLine
62
3
6
CONTINUOUS
10
107.4306110000
20
145.8185540000
11
107.4306110000
21
144.0199830000
0
LINE
5
576
100
AcDbEntity
8
035
100
AcDbLine
62
3
6
CONTINUOUS
10
105.4816360000
20
144.4520610000
11
107.4306110000
21
144.0199830000
0
LINE
5
577
100
AcDbEntity
8
035
100
AcDbLine
62
3
6
CONTINUOUS
10
105.7495850000
20
146.1912290000
11
107.4306110000
21
145.8185540000
0
LINE
5
578
100
AcDbEntity
8
035
100
AcDbLine
62
3
6
CONTINUOUS
10
106.7749290000
20
140.2458260000
11
106.7749290000
21
138.5246590000
0
LINE
5
579
100
AcDbEntity
8
035
100
AcDbLine
62
3
6
CONTINUOUS
10
107.4306110000
20
143.5427980000
11
107.4306110000
21
138.3792980000
0
LINE
5
57A
100
AcDbEntity
8
035
100
AcDbLine
62
3
6
CONTINUOUS
10
105.7914050000
20
126.4896320000
11
104.8078810000
21
125.5192490000
0
LINE
5
57B
100
AcDbEntity
8
035
100
AcDbLine
62
3
6
CONTINUOUS
10
106.5435110000
20
127.0195560000
11
107.4306110000
21
124.9378040000
0
LINE
5
57C
100
AcDbEntity
8
035
100
AcDbLine
62
3
6
CONTINUOUS
10
104.8078810000
20
129.1255030000
11
104.8078810000
21
127.4043360000
0
LINE
5
57D
100
AcDbEntity
8
035
100
AcDbLine
62
3
6
CONTINUOUS
10
107.4306110000
20
128.5440580000
11
107.4306110000
21
126.8228910000
0
LINE
5
57E
100
AcDbEntity
8
035
100
AcDbLine
62
3
6
CONTINUOUS
10
104.8078810000
20
129.1255030000
11
107.4306110000
21
128.5440580000
0
LINE
5
57F
100
AcDbEntity
8
035
100
AcDbLine
62
3
6
CONTINUOUS
10
107.4306110000
20
131.4126700000
11
107.4306110000
21
129.6095420000
0
LINE
5
580
100
AcDbEntity
8
035
100
AcDbLine
62
3
6
CONTINUOUS
10
104.8078810000
20
131.9941150000
11
104.8078810000
21
130.1909880000
0
LINE
5
581
100
AcDbEntity
8
035
100
AcDbLine
62
3
6
CONTINUOUS
10
104.8078810000
20
130.1909880000
11
107.4306110000
21
129.6095420000
0
LINE
5
582
100
AcDbEntity
8
035
100
AcDbLine
62
3
6
CONTINUOUS
10
104.8078810000
20
131.9941150000
11
107.4306110000
21
131.4126700000
0
ARC
5
583
100
AcDbEntity
8
035
100
AcDbCircle
62
3
6
CONTINUOUS
10
107.9652550550
20
133.9268853217
40
2.1934495553
100
AcDbArc
50
205.3417398708
51
208.8637779206
0
ARC
5
584
100
AcDbEntity
8
035
100
AcDbCircle
62
3
6
CONTINUOUS
10
107.3364281848
20
133.5802743177
40
1.4754228004
100
AcDbArc
50
208.8638314017
51
225.7881958499
0
ARC
5
585
100
AcDbEntity
8
035
100
AcDbCircle
62
3
6
CONTINUOUS
10
106.9795600424
20
133.2134532267
40
0.9636488426
100
AcDbArc
50
225.7883300356
51
250.1939562542
0
ARC
5
586
100
AcDbEntity
8
035
100
AcDbCircle
62
3
6
CONTINUOUS
10
106.8161208097
20
132.7596363657
40
0.4812982169
100
AcDbArc
50
250.1940718928
51
285.0000055970
0
ARC
5
587
100
AcDbEntity
8
035
100
AcDbCircle
62
3
6
CONTINUOUS
10
106.8161218112
20
132.7596348653
40
0.4812965084
100
AcDbArc
50
284.9999366580
51
319.8058703622
0
ARC
5
588
100
AcDbEntity
8
035
100
AcDbCircle
62
3
6
CONTINUOUS
10
106.4476675014
20
133.0709334954
40
0.9636505439
100
AcDbArc
50
319.8060837412
51
344.2117099598
0
ARC
5
589
100
AcDbEntity
8
035
100
AcDbCircle
62
3
6
CONTINUOUS
10
105.9552017891
20
133.2101730123
40
1.4754220953
100
AcDbArc
50
344.2119166621
51
359.7605515674
0
ARC
5
58A
100
AcDbEntity
8
035
100
AcDbCircle
62
3
6
CONTINUOUS
10
105.7161731196
20
133.1337018899
40
0.3008096275
100
AcDbArc
50
265.6045280165
51
284.9999250286
0
ARC
5
58B
100
AcDbEntity
8
035
100
AcDbCircle
62
3
6
CONTINUOUS
10
105.7161727332
20
133.1337034634
40
0.3008112474
100
AcDbArc
50
284.9999185529
51
319.8058522571
0
ARC
5
58C
100
AcDbEntity
8
035
100
AcDbCircle
62
3
6
CONTINUOUS
10
105.4858852040
20
133.3282607613
40
0.6022824538
100
AcDbArc
50
319.8066106449
51
325.6071424013
0
ARC
5
58D
100
AcDbEntity
8
035
100
AcDbCircle
62
3
6
CONTINUOUS
10
105.0537620000
20
132.4676830000
40
0.4098020000
100
AcDbArc
50
86.0000000000
51
126.8698980000
0
LINE
5
58E
100
AcDbEntity
8
035
100
AcDbLine
62
3
6
CONTINUOUS
10
105.0823480000
20
132.8764860000
11
105.6931190000
21
132.8337770000
0
ARC
5
58F
100
AcDbEntity
8
035
100
AcDbCircle
62
3
6
CONTINUOUS
10
105.5037557969
20
134.7478727435
40
0.0969060252
100
AcDbArc
50
266.1712863728
51
285.0006599859
0
ARC
5
590
100
AcDbEntity
8
035
100
AcDbCircle
62
3
6
CONTINUOUS
10
105.5037563200
20
134.7478770789
40
0.0969100774
100
AcDbArc
50
284.9996978295
51
319.8056315337
0
ARC
5
591
100
AcDbEntity
8
035
100
AcDbCircle
62
3
6
CONTINUOUS
10
105.4295669855
20
134.8105551811
40
0.1940316602
100
AcDbArc
50
319.8065896948
51
344.2122159134
0
ARC
5
592
100
AcDbEntity
8
035
100
AcDbCircle
62
3
6
CONTINUOUS
10
105.3304102560
20
134.8385935397
40
0.2970763425
100
AcDbArc
50
344.2117213539
51
359.7603562592
0
ARC
5
593
100
AcDbEntity
8
035
100
AcDbCircle
62
3
6
CONTINUOUS
10
106.9871352491
20
134.8655335967
40
0.7367566814
100
AcDbArc
50
180.1987429555
51
195.1920194465
0
ARC
5
594
100
AcDbEntity
8
035
100
AcDbCircle
62
3
6
CONTINUOUS
10
106.9871440776
20
134.8629766063
40
0.7360992737
100
AcDbArc
50
194.9997659235
51
208.8635353225
0
ARC
5
595
100
AcDbEntity
8
035
100
AcDbCircle
62
3
6
CONTINUOUS
10
106.7761055780
20
134.7466565775
40
0.4951270816
100
AcDbArc
50
208.8639713987
51
225.7883358469
0
ARC
5
596
100
AcDbEntity
8
035
100
AcDbCircle
62
3
6
CONTINUOUS
10
106.6563479999
20
134.6235569695
40
0.3233848591
100
AcDbArc
50
225.7882940959
51
250.1939203145
0
ARC
5
597
100
AcDbEntity
8
035
100
AcDbCircle
62
3
6
CONTINUOUS
10
106.6015002057
20
134.4712623593
40
0.1615147604
100
AcDbArc
50
250.1939554711
51
284.9998891753
0
ARC
5
598
100
AcDbEntity
8
035
100
AcDbCircle
62
3
6
CONTINUOUS
10
106.6014989698
20
134.4712642665
40
0.1615169225
100
AcDbArc
50
285.0001375514
51
319.8060712556
0
ARC
5
599
100
AcDbEntity
8
035
100
AcDbCircle
62
3
6
CONTINUOUS
10
106.4778542252
20
134.5757287392
40
0.3233836854
100
AcDbArc
50
319.8062040695
51
344.2118302882
0
ARC
5
59A
100
AcDbEntity
8
035
100
AcDbCircle
62
3
6
CONTINUOUS
10
106.3125900934
20
134.6224578994
40
0.4951272374
100
AcDbArc
50
344.2117213539
51
359.7603562592
0
ARC
5
59B
100
AcDbEntity
8
035
100
AcDbCircle
62
3
6
CONTINUOUS
10
105.0221580000
20
134.2895470000
40
0.3946830000
100
AcDbArc
50
90.7720050000
51
122.8818750000
0
LINE
5
59C
100
AcDbEntity
8
035
100
AcDbLine
62
3
6
CONTINUOUS
10
106.8077130000
20
136.1405410000
11
106.8077130000
21
134.6203870000
0
LINE
5
59D
100
AcDbEntity
8
035
100
AcDbLine
62
3
6
CONTINUOUS
10
106.2503830000
20
136.2640990000
11
106.8077130000
21
136.1405410000
0
LINE
5
59E
100
AcDbEntity
8
035
100
AcDbLine
62
3
6
CONTINUOUS
10
106.2503830000
20
136.2640990000
11
106.2503830000
21
134.8629780000
0
LINE
5
59F
100
AcDbEntity
8
035
100
AcDbLine
62
3
6
CONTINUOUS
10
105.6274840000
20
136.4021920000
11
105.6274840000
21
134.8373510000
0
LINE
5
5A0
100
AcDbEntity
8
035
100
AcDbLine
62
3
6
CONTINUOUS
10
105.0168400000
20
134.6841940000
11
105.4972850000
21
134.6511830000
0
LINE
5
5A1
100
AcDbEntity
8
035
100
AcDbLine
62
3
6
CONTINUOUS
10
104.8078810000
20
134.6209980000
11
104.8078810000
21
132.7955240000
0
LINE
5
5A2
100
AcDbEntity
8
035
100
AcDbLine
62
3
6
CONTINUOUS
10
106.5435110000
20
127.0195560000
11
107.4306110000
21
126.8228910000
0
LINE
5
5A3
100
AcDbEntity
8
035
100
AcDbLine
62
3
6
CONTINUOUS
10
105.4635640000
20
127.2589750000
11
105.7914050000
21
126.4896320000
0
LINE
5
5A4
100
AcDbEntity
8
035
100
AcDbLine
62
3
6
CONTINUOUS
10
104.8078810000
20
127.4043360000
11
105.4635640000
21
127.2589750000
0
LINE
5
5A5
100
AcDbEntity
8
035
100
AcDbLine
62
3
6
CONTINUOUS
10
104.8078810000
20
125.5192490000
11
104.8078810000
21
123.0604390000
0
LINE
5
5A6
100
AcDbEntity
8
035
100
AcDbLine
62
3
6
CONTINUOUS
10
107.4306110000
20
124.9378040000
11
107.4306110000
21
122.6429140000
0
LINE
5
5A7
100
AcDbEntity
8
035
100
AcDbLine
62
3
6
CONTINUOUS
10
106.5290480000
20
124.7586090000
11
107.4306110000
21
122.6429140000
0
LINE
5
5A8
100
AcDbEntity
8
035
100
AcDbLine
62
3
6
CONTINUOUS
10
106.5290480000
20
124.7586090000
11
104.8078810000
21
123.0604390000
0
ARC
5
5A9
100
AcDbEntity
8
035
100
AcDbCircle
62
3
6
CONTINUOUS
10
107.2882373877
20
222.8084591733
40
0.4000000000
100
AcDbArc
50
270.0000000000
51
360.0000000000
0
LINE
5
5AA
100
AcDbEntity
8
035
100
AcDbLine
62
3
6
CONTINUOUS
10
107.6882373877
20
222.8084591733
11
107.6882373877
21
227.7484591733
0
ARC
5
5AB
100
AcDbEntity
8
035
100
AcDbCircle
62
3
6
CONTINUOUS
10
107.2882373877
20
227.7484591733
40
0.4000000000
100
AcDbArc
50
0.0000000000
51
90.0000000000
0
LINE
5
5AC
100
AcDbEntity
8
035
100
AcDbLine
62
3
6
CONTINUOUS
10
107.2882373877
20
228.1484591733
11
107.2582392575
21
228.1484591733
0
LINE
5
5AD
100
AcDbEntity
8
035
100
AcDbLine
62
3
6
CONTINUOUS
10
107.2582392575
20
228.1484591733
11
101.5482373877
21
228.1484591733
0
LINE
5
5AE
100
AcDbEntity
8
035
100
AcDbLine
62
3
6
CONTINUOUS
10
101.5482373877
20
228.1484591733
11
101.5482373877
21
222.4084591733
0
LINE
5
5AF
100
AcDbEntity
8
035
100
AcDbLine
62
3
6
CONTINUOUS
10
101.5482373877
20
222.4084591733
11
107.2882373877
21
222.4084591733
0
ARC
5
5B0
100
AcDbEntity
8
035
100
AcDbCircle
62
3
6
CONTINUOUS
10
95.8082373877
20
227.7484591733
40
0.4000000000
100
AcDbArc
50
90.0000000000
51
180.0000000000
0
LINE
5
5B1
100
AcDbEntity
8
035
100
AcDbLine
62
3
6
CONTINUOUS
10
95.4082373877
20
227.7484591733
11
95.4082373877
21
222.8084591733
0
ARC
5
5B2
100
AcDbEntity
8
035
100
AcDbCircle
62
3
6
CONTINUOUS
10
95.8082373877
20
222.8084591733
40
0.4000000000
100
AcDbArc
50
180.0000000000
51
270.0000000000
0
LINE
5
5B3
100
AcDbEntity
8
035
100
AcDbLine
62
3
6
CONTINUOUS
10
95.8082373877
20
222.4084591733
11
95.9166945585
21
222.4084591733
0
LINE
5
5B4
100
AcDbEntity
8
035
100
AcDbLine
62
3
6
CONTINUOUS
10
95.9166945585
20
222.4084591733
11
101.5482373877
21
222.4084591733
0
LINE
5
5B5
100
AcDbEntity
8
035
100
AcDbLine
62
3
6
CONTINUOUS
10
101.5482373877
20
222.4084591733
11
101.5482373877
21
228.1484591733
0
LINE
5
5B6
100
AcDbEntity
8
035
100
AcDbLine
62
3
6
CONTINUOUS
10
101.5482373877
20
228.1484591733
11
95.8382373877
21
228.1484591733
0
LINE
5
5B7
100
AcDbEntity
8
035
100
AcDbLine
62
3
6
CONTINUOUS
10
95.8382373877
20
228.1484591733
11
95.8082373877
21
228.1484591733
0
SOLID
5
5B8
100
AcDbEntity
8
035
100
AcDbTrace
62
3
6
CONTINUOUS
10
95.8382373877
20
228.1484592640
11
95.7664260024
21
228.1462680640
12
101.5482373877
22
228.1484592640
13
101.5482373877
23
228.1484592640
0
SOLID
5
5B9
100
AcDbEntity
8
035
100
AcDbTrace
62
3
6
CONTINUOUS
10
95.8382373877
20
228.1484592640
11
95.8082373877
21
228.1484592640
12
95.7664260024
22
228.1462680640
13
95.7664260024
23
228.1462680640
0
SOLID
5
5BA
100
AcDbEntity
8
035
100
AcDbTrace
62
3
6
CONTINUOUS
10
107.3714020641
20
222.4172001920
11
101.5482373877
21
222.4084593280
12
107.3300487730
22
222.4106505280
13
107.3300487730
23
222.4106505280
0
SOLID
5
5BB
100
AcDbEntity
8
035
100
AcDbTrace
62
3
6
CONTINUOUS
10
107.4118441855
20
222.4280365120
11
101.5482373877
21
222.4084593280
12
107.3714020641
22
222.4172001920
13
107.3714020641
23
222.4172001920
0
SOLID
5
5BC
100
AcDbEntity
8
035
100
AcDbTrace
62
3
6
CONTINUOUS
10
107.4509320450
20
222.4430408640
11
101.5482373877
21
222.4084593280
12
107.4118441855
22
222.4280365120
13
107.4118441855
23
222.4280365120
0
SOLID
5
5BD
100
AcDbEntity
8
035
100
AcDbTrace
62
3
6
CONTINUOUS
10
107.4882373877
20
222.4620488640
11
101.5482373877
21
222.4084593280
12
107.4509320450
22
222.4430408640
13
107.4509320450
23
222.4430408640
0
SOLID
5
5BE
100
AcDbEntity
8
035
100
AcDbTrace
62
3
6
CONTINUOUS
10
107.5233514886
20
222.4848524800
11
101.5482373877
21
222.4084593280
12
107.4882373877
22
222.4620488640
13
107.4882373877
23
222.4620488640
0
SOLID
5
5BF
100
AcDbEntity
8
035
100
AcDbTrace
62
3
6
CONTINUOUS
10
107.5558896303
20
222.5112010880
11
101.5482373877
21
222.4084593280
12
107.5233514886
22
222.4848524800
13
107.5233514886
23
222.4848524800
0
SOLID
5
5C0
100
AcDbEntity
8
035
100
AcDbTrace
62
3
6
CONTINUOUS
10
107.5854953179
20
222.5408071040
11
101.5482373877
21
222.4084593280
12
107.5558896303
22
222.5112010880
13
107.5558896303
23
222.5112010880
0
SOLID
5
5C1
100
AcDbEntity
8
035
100
AcDbTrace
62
3
6
CONTINUOUS
10
107.6118441855
20
222.5733449280
11
101.5482373877
21
222.4084593280
12
107.5854953179
22
222.5408071040
13
107.5854953179
23
222.5408071040
0
SOLID
5
5C2
100
AcDbEntity
8
035
100
AcDbTrace
62
3
6
CONTINUOUS
10
107.6346475492
20
222.6084590400
11
101.5482373877
21
222.4084593280
12
107.6118441855
22
222.5733449280
13
107.6118441855
23
222.5733449280
0
SOLID
5
5C3
100
AcDbEntity
8
035
100
AcDbTrace
62
3
6
CONTINUOUS
10
107.6536555708
20
222.6457643520
11
101.5482373877
21
222.4084593280
12
107.6346475492
22
222.6084590400
13
107.6346475492
23
222.6084590400
0
SOLID
5
5C4
100
AcDbEntity
8
035
100
AcDbTrace
62
3
6
CONTINUOUS
10
107.6686599942
20
222.6848525440
11
101.5482373877
21
222.4084593280
12
107.6536555708
22
222.6457643520
13
107.6536555708
23
222.6457643520
0
SOLID
5
5C5
100
AcDbEntity
8
035
100
AcDbTrace
62
3
6
CONTINUOUS
10
107.6794964280
20
222.7252945280
11
101.5482373877
21
222.4084593280
12
107.6686599942
22
222.6848525440
13
107.6686599942
23
222.6848525440
0
SOLID
5
5C6
100
AcDbEntity
8
035
100
AcDbTrace
62
3
6
CONTINUOUS
10
107.6860461459
20
222.7666478400
11
101.5482373877
21
222.4084593280
12
107.6794964280
22
222.7252945280
13
107.6794964280
23
222.7252945280
0
SOLID
5
5C7
100
AcDbEntity
8
035
100
AcDbTrace
62
3
6
CONTINUOUS
10
107.6882373877
20
222.8084591040
11
101.5482373877
21
222.4084593280
12
107.6860461459
22
222.7666478400
13
107.6860461459
23
222.7666478400
0
SOLID
5
5C8
100
AcDbEntity
8
035
100
AcDbTrace
62
3
6
CONTINUOUS
10
107.6882373877
20
227.7484591360
11
101.5482373877
21
222.4084593280
12
107.6882373877
22
222.8084591040
13
107.6882373877
23
222.8084591040
0
SOLID
5
5C9
100
AcDbEntity
8
035
100
AcDbTrace
62
3
6
CONTINUOUS
10
107.6860461459
20
227.7902704000
11
101.5482373877
21
222.4084593280
12
107.6882373877
22
227.7484591360
13
107.6882373877
23
227.7484591360
0
SOLID
5
5CA
100
AcDbEntity
8
035
100
AcDbTrace
62
3
6
CONTINUOUS
10
107.6794964280
20
227.8316237120
11
101.5482373877
21
222.4084593280
12
107.6860461459
22
227.7902704000
13
107.6860461459
23
227.7902704000
0
SOLID
5
5CB
100
AcDbEntity
8
035
100
AcDbTrace
62
3
6
CONTINUOUS
10
107.6686599942
20
227.8720660480
11
101.5482373877
21
222.4084593280
12
107.6794964280
22
227.8316237120
13
107.6794964280
23
227.8316237120
0
SOLID
5
5CC
100
AcDbEntity
8
035
100
AcDbTrace
62
3
6
CONTINUOUS
10
107.6536555708
20
227.9111538880
11
101.5482373877
21
222.4084593280
12
107.6686599942
22
227.8720660480
13
107.6686599942
23
227.8720660480
0
SOLID
5
5CD
100
AcDbEntity
8
035
100
AcDbTrace
62
3
6
CONTINUOUS
10
107.6346475492
20
227.9484592000
11
101.5482373877
21
222.4084593280
12
107.6536555708
22
227.9111538880
13
107.6536555708
23
227.9111538880
0
SOLID
5
5CE
100
AcDbEntity
8
035
100
AcDbTrace
62
3
6
CONTINUOUS
10
107.6118441855
20
227.9835733120
11
101.5482373877
21
222.4084593280
12
107.6346475492
22
227.9484592000
13
107.6346475492
23
227.9484592000
0
SOLID
5
5CF
100
AcDbEntity
8
035
100
AcDbTrace
62
3
6
CONTINUOUS
10
107.5854953179
20
228.0161114880
11
101.5482373877
21
222.4084593280
12
107.6118441855
22
227.9835733120
13
107.6118441855
23
227.9835733120
0
SOLID
5
5D0
100
AcDbEntity
8
035
100
AcDbTrace
62
3
6
CONTINUOUS
10
107.5558896303
20
228.0457171520
11
101.5482373877
21
222.4084593280
12
107.5854953179
22
228.0161114880
13
107.5854953179
23
228.0161114880
0
SOLID
5
5D1
100
AcDbEntity
8
035
100
AcDbTrace
62
3
6
CONTINUOUS
10
107.5233514886
20
228.0720661120
11
101.5482373877
21
222.4084593280
12
107.5558896303
22
228.0457171520
13
107.5558896303
23
228.0457171520
0
SOLID
5
5D2
100
AcDbEntity
8
035
100
AcDbTrace
62
3
6
CONTINUOUS
10
107.4882373877
20
228.0948693760
11
101.5482373877
21
222.4084593280
12
107.5233514886
22
228.0720661120
13
107.5233514886
23
228.0720661120
0
SOLID
5
5D3
100
AcDbEntity
8
035
100
AcDbTrace
62
3
6
CONTINUOUS
10
107.4509320450
20
228.1138773760
11
101.5482373877
21
222.4084593280
12
107.4882373877
22
228.0948693760
13
107.4882373877
23
228.0948693760
0
SOLID
5
5D4
100
AcDbEntity
8
035
100
AcDbTrace
62
3
6
CONTINUOUS
10
107.4118441855
20
228.1288817280
11
101.5482373877
21
222.4084593280
12
107.4509320450
22
228.1138773760
13
107.4509320450
23
228.1138773760
0
SOLID
5
5D5
100
AcDbEntity
8
035
100
AcDbTrace
62
3
6
CONTINUOUS
10
107.3714020641
20
228.1397180480
11
101.5482373877
21
222.4084593280
12
107.4118441855
22
228.1288817280
13
107.4118441855
23
228.1288817280
0
SOLID
5
5D6
100
AcDbEntity
8
035
100
AcDbTrace
62
3
6
CONTINUOUS
10
107.3300487730
20
228.1462680640
11
101.5482373877
21
222.4084593280
12
107.3714020641
22
228.1397180480
13
107.3714020641
23
228.1397180480
0
SOLID
5
5D7
100
AcDbEntity
8
035
100
AcDbTrace
62
3
6
CONTINUOUS
10
107.2882373877
20
228.1484592640
11
101.5482373877
21
222.4084593280
12
107.3300487730
22
228.1462680640
13
107.3300487730
23
228.1462680640
0
SOLID
5
5D8
100
AcDbEntity
8
035
100
AcDbTrace
62
3
6
CONTINUOUS
10
107.2582392575
20
228.1484592640
11
101.5482373877
21
222.4084593280
12
107.2882373877
22
228.1484592640
13
107.2882373877
23
228.1484592640
0
SOLID
5
5D9
100
AcDbEntity
8
035
100
AcDbTrace
62
3
6
CONTINUOUS
10
107.2582392575
20
228.1484592640
11
101.5482373877
21
228.1484592640
12
101.5482373877
22
222.4084593280
13
101.5482373877
23
222.4084593280
0
SOLID
5
5DA
100
AcDbEntity
8
035
100
AcDbTrace
62
3
6
CONTINUOUS
10
95.7250727114
20
228.1397180480
11
101.5482373877
21
228.1484592640
12
95.7664260024
22
228.1462680640
13
95.7664260024
23
228.1462680640
0
SOLID
5
5DB
100
AcDbEntity
8
035
100
AcDbTrace
62
3
6
CONTINUOUS
10
95.6846305900
20
228.1288817280
11
101.5482373877
21
228.1484592640
12
95.7250727114
22
228.1397180480
13
95.7250727114
23
228.1397180480
0
SOLID
5
5DC
100
AcDbEntity
8
035
100
AcDbTrace
62
3
6
CONTINUOUS
10
95.6455427305
20
228.1138773760
11
101.5482373877
21
228.1484592640
12
95.6846305900
22
228.1288817280
13
95.6846305900
23
228.1288817280
0
SOLID
5
5DD
100
AcDbEntity
8
035
100
AcDbTrace
62
3
6
CONTINUOUS
10
95.6082373877
20
228.0948693760
11
101.5482373877
21
228.1484592640
12
95.6455427305
22
228.1138773760
13
95.6455427305
23
228.1138773760
0
SOLID
5
5DE
100
AcDbEntity
8
035
100
AcDbTrace
62
3
6
CONTINUOUS
10
95.5731232868
20
228.0720661120
11
101.5482373877
21
228.1484592640
12
95.6082373877
22
228.0948693760
13
95.6082373877
23
228.0948693760
0
SOLID
5
5DF
100
AcDbEntity
8
035
100
AcDbTrace
62
3
6
CONTINUOUS
10
95.5405851452
20
228.0457171520
11
101.5482373877
21
228.1484592640
12
95.5731232868
22
228.0720661120
13
95.5731232868
23
228.0720661120
0
SOLID
5
5E0
100
AcDbEntity
8
035
100
AcDbTrace
62
3
6
CONTINUOUS
10
95.5109794575
20
228.0161114880
11
101.5482373877
21
228.1484592640
12
95.5405851452
22
228.0457171520
13
95.5405851452
23
228.0457171520
0
SOLID
5
5E1
100
AcDbEntity
8
035
100
AcDbTrace
62
3
6
CONTINUOUS
10
95.4846305900
20
227.9835733120
11
101.5482373877
21
228.1484592640
12
95.5109794575
22
228.0161114880
13
95.5109794575
23
228.0161114880
0
SOLID
5
5E2
100
AcDbEntity
8
035
100
AcDbTrace
62
3
6
CONTINUOUS
10
95.4618272262
20
227.9484592000
11
101.5482373877
21
228.1484592640
12
95.4846305900
22
227.9835733120
13
95.4846305900
23
227.9835733120
0
SOLID
5
5E3
100
AcDbEntity
8
035
100
AcDbTrace
62
3
6
CONTINUOUS
10
95.4428192047
20
227.9111538880
11
101.5482373877
21
228.1484592640
12
95.4618272262
22
227.9484592000
13
95.4618272262
23
227.9484592000
0
SOLID
5
5E4
100
AcDbEntity
8
035
100
AcDbTrace
62
3
6
CONTINUOUS
10
95.4278147812
20
227.8720660480
11
101.5482373877
21
228.1484592640
12
95.4428192047
22
227.9111538880
13
95.4428192047
23
227.9111538880
0
SOLID
5
5E5
100
AcDbEntity
8
035
100
AcDbTrace
62
3
6
CONTINUOUS
10
95.4169783474
20
227.8316237120
11
101.5482373877
21
228.1484592640
12
95.4278147812
22
227.8720660480
13
95.4278147812
23
227.8720660480
0
SOLID
5
5E6
100
AcDbEntity
8
035
100
AcDbTrace
62
3
6
CONTINUOUS
10
95.4104286296
20
227.7902704000
11
101.5482373877
21
228.1484592640
12
95.4169783474
22
227.8316237120
13
95.4169783474
23
227.8316237120
0
SOLID
5
5E7
100
AcDbEntity
8
035
100
AcDbTrace
62
3
6
CONTINUOUS
10
95.4082373877
20
227.7484591360
11
101.5482373877
21
228.1484592640
12
95.4104286296
22
227.7902704000
13
95.4104286296
23
227.7902704000
0
SOLID
5
5E8
100
AcDbEntity
8
035
100
AcDbTrace
62
3
6
CONTINUOUS
10
95.4082373877
20
222.8084591040
11
101.5482373877
21
228.1484592640
12
95.4082373877
22
227.7484591360
13
95.4082373877
23
227.7484591360
0
SOLID
5
5E9
100
AcDbEntity
8
035
100
AcDbTrace
62
3
6
CONTINUOUS
10
95.4104286296
20
222.7666478400
11
101.5482373877
21
228.1484592640
12
95.4082373877
22
222.8084591040
13
95.4082373877
23
222.8084591040
0
SOLID
5
5EA
100
AcDbEntity
8
035
100
AcDbTrace
62
3
6
CONTINUOUS
10
95.4169783474
20
222.7252945280
11
101.5482373877
21
228.1484592640
12
95.4104286296
22
222.7666478400
13
95.4104286296
23
222.7666478400
0
SOLID
5
5EB
100
AcDbEntity
8
035
100
AcDbTrace
62
3
6
CONTINUOUS
10
95.4278147812
20
222.6848525440
11
101.5482373877
21
228.1484592640
12
95.4169783474
22
222.7252945280
13
95.4169783474
23
222.7252945280
0
SOLID
5
5EC
100
AcDbEntity
8
035
100
AcDbTrace
62
3
6
CONTINUOUS
10
95.4428192047
20
222.6457643520
11
101.5482373877
21
228.1484592640
12
95.4278147812
22
222.6848525440
13
95.4278147812
23
222.6848525440
0
SOLID
5
5ED
100
AcDbEntity
8
035
100
AcDbTrace
62
3
6
CONTINUOUS
10
95.4618272262
20
222.6084590400
11
101.5482373877
21
228.1484592640
12
95.4428192047
22
222.6457643520
13
95.4428192047
23
222.6457643520
0
SOLID
5
5EE
100
AcDbEntity
8
035
100
AcDbTrace
62
3
6
CONTINUOUS
10
95.4846305900
20
222.5733449280
11
101.5482373877
21
228.1484592640
12
95.4618272262
22
222.6084590400
13
95.4618272262
23
222.6084590400
0
SOLID
5
5EF
100
AcDbEntity
8
035
100
AcDbTrace
62
3
6
CONTINUOUS
10
95.5109794575
20
222.5408071040
11
101.5482373877
21
228.1484592640
12
95.4846305900
22
222.5733449280
13
95.4846305900
23
222.5733449280
0
SOLID
5
5F0
100
AcDbEntity
8
035
100
AcDbTrace
62
3
6
CONTINUOUS
10
95.5405851452
20
222.5112010880
11
101.5482373877
21
228.1484592640
12
95.5109794575
22
222.5408071040
13
95.5109794575
23
222.5408071040
0
SOLID
5
5F1
100
AcDbEntity
8
035
100
AcDbTrace
62
3
6
CONTINUOUS
10
95.5731232868
20
222.4848524800
11
101.5482373877
21
228.1484592640
12
95.5405851452
22
222.5112010880
13
95.5405851452
23
222.5112010880
0
SOLID
5
5F2
100
AcDbEntity
8
035
100
AcDbTrace
62
3
6
CONTINUOUS
10
95.6082373877
20
222.4620488640
11
101.5482373877
21
228.1484592640
12
95.5731232868
22
222.4848524800
13
95.5731232868
23
222.4848524800
0
SOLID
5
5F3
100
AcDbEntity
8
035
100
AcDbTrace
62
3
6
CONTINUOUS
10
95.6455427305
20
222.4430408640
11
101.5482373877
21
228.1484592640
12
95.6082373877
22
222.4620488640
13
95.6082373877
23
222.4620488640
0
SOLID
5
5F4
100
AcDbEntity
8
035
100
AcDbTrace
62
3
6
CONTINUOUS
10
95.6846305900
20
222.4280365120
11
101.5482373877
21
228.1484592640
12
95.6455427305
22
222.4430408640
13
95.6455427305
23
222.4430408640
0
SOLID
5
5F5
100
AcDbEntity
8
035
100
AcDbTrace
62
3
6
CONTINUOUS
10
95.7250727114
20
222.4172001920
11
101.5482373877
21
228.1484592640
12
95.6846305900
22
222.4280365120
13
95.6846305900
23
222.4280365120
0
SOLID
5
5F6
100
AcDbEntity
8
035
100
AcDbTrace
62
3
6
CONTINUOUS
10
95.7664260024
20
222.4106505280
11
101.5482373877
21
228.1484592640
12
95.7250727114
22
222.4172001920
13
95.7250727114
23
222.4172001920
0
SOLID
5
5F7
100
AcDbEntity
8
035
100
AcDbTrace
62
3
6
CONTINUOUS
10
95.8082373877
20
222.4084593280
11
101.5482373877
21
228.1484592640
12
95.7664260024
22
222.4106505280
13
95.7664260024
23
222.4106505280
0
SOLID
5
5F8
100
AcDbEntity
8
035
100
AcDbTrace
62
3
6
CONTINUOUS
10
95.9166945585
20
222.4084593280
11
101.5482373877
21
228.1484592640
12
95.8082373877
22
222.4084593280
13
95.8082373877
23
222.4084593280
0
SOLID
5
5F9
100
AcDbEntity
8
035
100
AcDbTrace
62
3
6
CONTINUOUS
10
95.9166945585
20
222.4084593280
11
101.5482373877
21
222.4084593280
12
101.5482373877
22
228.1484592640
13
101.5482373877
23
228.1484592640
0
SOLID
5
5FA
100
AcDbEntity
8
035
100
AcDbTrace
62
3
6
CONTINUOUS
10
101.5482373877
20
222.4084593280
11
107.2882373877
21
222.4084593280
12
107.3300487730
22
222.4106505280
13
107.3300487730
23
222.4106505280
0
LINE
5
5FB
100
AcDbEntity
8
035
100
AcDbLine
62
3
6
CONTINUOUS
10
107.4306114893
20
159.9348645100
11
107.4306114893
21
162.0658330951
0
LINE
5
5FC
100
AcDbEntity
8
035
100
AcDbLine
62
3
6
CONTINUOUS
10
107.4306114893
20
162.0658330951
11
104.8078809229
21
162.6472784633
0
LINE
5
5FD
100
AcDbEntity
8
035
100
AcDbLine
62
3
6
CONTINUOUS
10
104.8078809229
20
162.6472784633
11
104.8078809229
21
160.8441511989
0
LINE
5
5FE
100
AcDbEntity
8
035
100
AcDbLine
62
3
6
CONTINUOUS
10
104.8078809229
20
160.8441511989
11
106.2831668665
21
160.5170881793
0
LINE
5
5FF
100
AcDbEntity
8
035
100
AcDbLine
62
3
6
CONTINUOUS
10
106.2831668665
20
160.5170881793
11
104.8078809229
21
158.8771032741
0
LINE
5
600
100
AcDbEntity
8
035
100
AcDbLine
62
3
6
CONTINUOUS
10
104.8078809229
20
158.8771032741
11
104.8078809229
21
156.8280950192
0
LINE
5
601
100
AcDbEntity
8
035
100
AcDbLine
62
3
6
CONTINUOUS
10
104.8078809229
20
156.8280950192
11
107.4306114893
21
156.2466496510
0
LINE
5
602
100
AcDbEntity
8
035
100
AcDbLine
62
3
6
CONTINUOUS
10
107.4306114893
20
156.2466496510
11
107.4306114893
21
158.0497769154
0
LINE
5
603
100
AcDbEntity
8
035
100
AcDbLine
62
3
6
CONTINUOUS
10
107.4306114893
20
158.0497769154
11
106.2831668665
21
158.3041592640
0
LINE
5
604
100
AcDbEntity
8
035
100
AcDbLine
62
3
6
CONTINUOUS
10
106.2831668665
20
158.3041592640
11
107.4306114893
21
159.9348645100
0
LINE
5
605
100
AcDbEntity
8
035
100
AcDbLine
62
3
6
CONTINUOUS
10
106.8077129798
20
153.6800520294
11
106.8077129798
21
150.5655594819
0
LINE
5
606
100
AcDbEntity
8
035
100
AcDbLine
62
3
6
CONTINUOUS
10
106.8077129798
20
150.5655594819
11
107.4306114893
21
150.4274662069
0
LINE
5
607
100
AcDbEntity
8
035
100
AcDbLine
62
3
6
CONTINUOUS
10
107.4306114893
20
150.4274662069
11
107.4306114893
21
155.3450860189
0
LINE
5
608
100
AcDbEntity
8
035
100
AcDbLine
62
3
6
CONTINUOUS
10
107.4306114893
20
155.3450860189
11
104.8078809229
21
155.9265313870
0
LINE
5
609
100
AcDbEntity
8
035
100
AcDbLine
62
3
6
CONTINUOUS
10
104.8078809229
20
155.9265313870
11
104.8078809229
21
151.0089115751
0
LINE
5
60A
100
AcDbEntity
8
035
100
AcDbLine
62
3
6
CONTINUOUS
10
104.8078809229
20
151.0089115751
11
105.4307794324
21
150.8708183001
0
LINE
5
60B
100
AcDbEntity
8
035
100
AcDbLine
62
3
6
CONTINUOUS
10
105.4307794324
20
150.8708183001
11
105.4307794324
21
153.9853108477
0
LINE
5
60C
100
AcDbEntity
8
035
100
AcDbLine
62
3
6
CONTINUOUS
10
105.4307794324
20
153.9853108477
11
105.8077969514
21
153.9017280760
0
LINE
5
60D
100
AcDbEntity
8
035
100
AcDbLine
62
3
6
CONTINUOUS
10
105.8077969514
20
153.9017280760
11
105.8077969514
21
151.0331165191
0
LINE
5
60E
100
AcDbEntity
8
035
100
AcDbLine
62
3
6
CONTINUOUS
10
105.8077969514
20
151.0331165191
11
106.4306954609
21
150.8950232441
0
LINE
5
60F
100
AcDbEntity
8
035
100
AcDbLine
62
3
6
CONTINUOUS
10
106.4306954609
20
150.8950232441
11
106.4306954609
21
153.7636348011
0
LINE
5
610
100
AcDbEntity
8
035
100
AcDbLine
62
3
6
CONTINUOUS
10
106.4306954609
20
153.7636348011
11
106.8077129798
21
153.6800520294
0
LINE
5
611
100
AcDbEntity
8
035
100
AcDbLine
62
3
6
CONTINUOUS
10
106.7749288477
20
143.6881598123
11
106.7749288477
21
142.0489532083
0
LINE
5
612
100
AcDbEntity
8
035
100
AcDbLine
62
3
6
CONTINUOUS
10
106.7749288477
20
142.0489532083
11
104.8078809229
21
142.4850372344
0
LINE
5
613
100
AcDbEntity
8
035
100
AcDbLine
62
3
6
CONTINUOUS
10
104.8078809229
20
142.4850372344
11
104.8078809229
21
140.6819099700
0
LINE
5
614
100
AcDbEntity
8
035
100
AcDbLine
62
3
6
CONTINUOUS
10
104.8078809229
20
140.6819099700
11
106.7749288477
21
140.2458259440
0
LINE
5
615
100
AcDbEntity
8
035
100
AcDbLine
62
3
6
CONTINUOUS
10
106.7749288477
20
140.2458259440
11
106.7749288477
21
138.5246590098
0
LINE
5
616
100
AcDbEntity
8
035
100
AcDbLine
62
3
6
CONTINUOUS
10
106.7749288477
20
138.5246590098
11
107.4306114893
21
138.3792976678
0
LINE
5
617
100
AcDbEntity
8
035
100
AcDbLine
62
3
6
CONTINUOUS
10
107.4306114893
20
138.3792976678
11
107.4306114893
21
143.5427984703
0
LINE
5
618
100
AcDbEntity
8
035
100
AcDbLine
62
3
6
CONTINUOUS
10
107.4306114893
20
143.5427984703
11
106.7749288477
21
143.6881598123
0
LINE
5
619
100
AcDbEntity
8
035
100
AcDbLine
62
3
6
CONTINUOUS
10
107.4306114893
20
131.4126696009
11
104.8078809229
21
131.9941149690
0
LINE
5
61A
100
AcDbEntity
8
035
100
AcDbLine
62
3
6
CONTINUOUS
10
104.8078809229
20
131.9941149690
11
104.8078809229
21
130.1909877046
0
LINE
5
61B
100
AcDbEntity
8
035
100
AcDbLine
62
3
6
CONTINUOUS
10
104.8078809229
20
130.1909877046
11
107.4306114893
21
129.6095423365
0
LINE
5
61C
100
AcDbEntity
8
035
100
AcDbLine
62
3
6
CONTINUOUS
10
107.4306114893
20
129.6095423365
11
107.4306114893
21
131.4126696009
0
LINE
5
61D
100
AcDbEntity
8
035
100
AcDbLine
62
3
6
CONTINUOUS
10
107.4306114893
20
126.8228911098
11
107.4306114893
21
128.5440580439
0
LINE
5
61E
100
AcDbEntity
8
035
100
AcDbLine
62
3
6
CONTINUOUS
10
107.4306114893
20
128.5440580439
11
104.8078809229
21
129.1255034120
0
LINE
5
61F
100
AcDbEntity
8
035
100
AcDbLine
62
3
6
CONTINUOUS
10
104.8078809229
20
129.1255034120
11
104.8078809229
21
127.4043364779
0
LINE
5
620
100
AcDbEntity
8
035
100
AcDbLine
62
3
6
CONTINUOUS
10
104.8078809229
20
127.4043364779
11
105.4635635645
21
127.2589751358
0
LINE
5
621
100
AcDbEntity
8
035
100
AcDbLine
62
3
6
CONTINUOUS
10
105.4635635645
20
127.2589751358
11
105.7914048853
21
126.4896316581
0
LINE
5
622
100
AcDbEntity
8
035
100
AcDbLine
62
3
6
CONTINUOUS
10
105.7914048853
20
126.4896316581
11
104.8078809229
21
125.5192488833
0
LINE
5
623
100
AcDbEntity
8
035
100
AcDbLine
62
3
6
CONTINUOUS
10
104.8078809229
20
125.5192488833
11
104.8078809229
21
123.0604389773
0
LINE
5
624
100
AcDbEntity
8
035
100
AcDbLine
62
3
6
CONTINUOUS
10
104.8078809229
20
123.0604389773
11
106.5290478571
21
124.7586088333
0
LINE
5
625
100
AcDbEntity
8
035
100
AcDbLine
62
3
6
CONTINUOUS
10
106.5290478571
20
124.7586088333
11
107.4306114893
21
122.6429142696
0
LINE
5
626
100
AcDbEntity
8
035
100
AcDbLine
62
3
6
CONTINUOUS
10
107.4306114893
20
122.6429142696
11
107.4306114893
21
124.9378035152
0
LINE
5
627
100
AcDbEntity
8
035
100
AcDbLine
62
3
6
CONTINUOUS
10
107.4306114893
20
124.9378035152
11
106.5435114448
21
127.0195564548
0
LINE
5
628
100
AcDbEntity
8
035
100
AcDbLine
62
3
6
CONTINUOUS
10
106.5435114448
20
127.0195564548
11
107.4306114893
21
126.8228911098
0
SOLID
5
629
100
AcDbEntity
8
035
100
AcDbTrace
62
3
6
CONTINUOUS
10
107.4306114893
20
162.0658330951
11
104.8078809229
21
162.6472784633
12
104.8078809229
22
160.8441511989
13
104.8078809229
23
160.8441511989
0
SOLID
5
62A
100
AcDbEntity
8
035
100
AcDbTrace
62
3
6
CONTINUOUS
10
106.2831668665
20
160.5170881793
11
107.4306114893
21
162.0658330951
12
104.8078809229
22
160.8441511989
13
104.8078809229
23
160.8441511989
0
SOLID
5
62B
100
AcDbEntity
8
035
100
AcDbTrace
62
3
6
CONTINUOUS
10
106.2831668665
20
160.5170881793
11
107.4306114893
21
159.9348645100
12
107.4306114893
22
162.0658330951
13
107.4306114893
23
162.0658330951
0
SOLID
5
62C
100
AcDbEntity
8
035
100
AcDbTrace
62
3
6
CONTINUOUS
10
107.4306114893
20
159.9348645100
11
106.2831668665
21
160.5170881793
12
104.8078809229
22
158.8771032741
13
104.8078809229
23
158.8771032741
0
SOLID
5
62D
100
AcDbEntity
8
035
100
AcDbTrace
62
3
6
CONTINUOUS
10
104.8078809229
20
158.8771032741
11
106.2831668665
21
158.3041592640
12
107.4306114893
22
159.9348645100
13
107.4306114893
23
159.9348645100
0
SOLID
5
62E
100
AcDbEntity
8
035
100
AcDbTrace
62
3
6
CONTINUOUS
10
106.2831668665
20
158.3041592640
11
104.8078809229
21
156.8280950192
12
107.4306114893
22
158.0497769154
13
107.4306114893
23
158.0497769154
0
SOLID
5
62F
100
AcDbEntity
8
035
100
AcDbTrace
62
3
6
CONTINUOUS
10
106.2831668665
20
158.3041592640
11
104.8078809229
21
158.8771032741
12
104.8078809229
22
156.8280950192
13
104.8078809229
23
156.8280950192
0
SOLID
5
630
100
AcDbEntity
8
035
100
AcDbTrace
62
3
6
CONTINUOUS
10
104.8078809229
20
156.8280950192
11
107.4306114893
21
156.2466496510
12
107.4306114893
22
158.0497769154
13
107.4306114893
23
158.0497769154
0
SOLID
5
631
100
AcDbEntity
8
035
100
AcDbTrace
62
3
6
CONTINUOUS
10
106.4306954609
20
153.7636348011
11
105.8077969514
21
153.9017280760
12
105.8077969514
22
151.0331165191
13
105.8077969514
23
151.0331165191
0
SOLID
5
632
100
AcDbEntity
8
035
100
AcDbTrace
62
3
6
CONTINUOUS
10
104.8078809229
20
155.9265313870
11
105.4307794324
21
153.9853108477
12
107.4306114893
22
155.3450860189
13
107.4306114893
23
155.3450860189
0
SOLID
5
633
100
AcDbEntity
8
035
100
AcDbTrace
62
3
6
CONTINUOUS
10
105.4307794324
20
153.9853108477
11
104.8078809229
21
155.9265313870
12
104.8078809229
22
151.0089115751
13
104.8078809229
23
151.0089115751
0
SOLID
5
634
100
AcDbEntity
8
035
100
AcDbTrace
62
3
6
CONTINUOUS
10
105.8077969514
20
151.0331165191
11
106.4306954609
21
150.8950232441
12
106.4306954609
22
153.7636348011
13
106.4306954609
23
153.7636348011
0
SOLID
5
635
100
AcDbEntity
8
035
100
AcDbTrace
62
3
6
CONTINUOUS
10
104.8078809229
20
151.0089115751
11
105.4307794324
21
150.8708183001
12
105.4307794324
22
153.9853108477
13
105.4307794324
23
153.9853108477
0
SOLID
5
636
100
AcDbEntity
8
035
100
AcDbTrace
62
3
6
CONTINUOUS
10
105.8077969514
20
153.9017280760
11
107.4306114893
21
155.3450860189
12
105.4307794324
22
153.9853108477
13
105.4307794324
23
153.9853108477
0
SOLID
5
637
100
AcDbEntity
8
035
100
AcDbTrace
62
3
6
CONTINUOUS
10
106.4306954609
20
153.7636348011
11
107.4306114893
21
155.3450860189
12
105.8077969514
22
153.9017280760
13
105.8077969514
23
153.9017280760
0
SOLID
5
638
100
AcDbEntity
8
035
100
AcDbTrace
62
3
6
CONTINUOUS
10
106.8077129798
20
153.6800520294
11
107.4306114893
21
155.3450860189
12
106.4306954609
22
153.7636348011
13
106.4306954609
23
153.7636348011
0
SOLID
5
639
100
AcDbEntity
8
035
100
AcDbTrace
62
3
6
CONTINUOUS
10
106.8077129798
20
150.5655594819
11
107.4306114893
21
155.3450860189
12
106.8077129798
22
153.6800520294
13
106.8077129798
23
153.6800520294
0
SOLID
5
63A
100
AcDbEntity
8
035
100
AcDbTrace
62
3
6
CONTINUOUS
10
106.8077129798
20
150.5655594819
11
107.4306114893
21
150.4274662069
12
107.4306114893
22
155.3450860189
13
107.4306114893
23
155.3450860189
0
SOLID
5
63B
100
AcDbEntity
8
035
100
AcDbTrace
62
3
6
CONTINUOUS
10
107.4306114893
20
143.5427984703
11
106.7749288477
21
143.6881598123
12
106.7749288477
22
142.0489532083
13
106.7749288477
23
142.0489532083
0
SOLID
5
63C
100
AcDbEntity
8
035
100
AcDbTrace
62
3
6
CONTINUOUS
10
106.7749288477
20
142.0489532083
11
104.8078809229
21
142.4850372344
12
104.8078809229
22
140.6819099700
13
104.8078809229
23
140.6819099700
0
SOLID
5
63D
100
AcDbEntity
8
035
100
AcDbTrace
62
3
6
CONTINUOUS
10
106.7749288477
20
140.2458259440
11
106.7749288477
21
142.0489532083
12
104.8078809229
22
140.6819099700
13
104.8078809229
23
140.6819099700
0
SOLID
5
63E
100
AcDbEntity
8
035
100
AcDbTrace
62
3
6
CONTINUOUS
10
106.7749288477
20
140.2458259440
11
107.4306114893
21
143.5427984703
12
106.7749288477
22
142.0489532083
13
106.7749288477
23
142.0489532083
0
SOLID
5
63F
100
AcDbEntity
8
035
100
AcDbTrace
62
3
6
CONTINUOUS
10
106.7749288477
20
138.5246590098
11
107.4306114893
21
143.5427984703
12
106.7749288477
22
140.2458259440
13
106.7749288477
23
140.2458259440
0
SOLID
5
640
100
AcDbEntity
8
035
100
AcDbTrace
62
3
6
CONTINUOUS
10
106.7749288477
20
138.5246590098
11
107.4306114893
21
138.3792976678
12
107.4306114893
22
143.5427984703
13
107.4306114893
23
143.5427984703
0
SOLID
5
641
100
AcDbEntity
8
035
100
AcDbTrace
62
3
6
CONTINUOUS
10
107.4306114893
20
131.4126696009
11
104.8078809229
21
131.9941149690
12
104.8078809229
22
130.1909877046
13
104.8078809229
23
130.1909877046
0
SOLID
5
642
100
AcDbEntity
8
035
100
AcDbTrace
62
3
6
CONTINUOUS
10
104.8078809229
20
130.1909877046
11
107.4306114893
21
129.6095423365
12
107.4306114893
22
131.4126696009
13
107.4306114893
23
131.4126696009
0
SOLID
5
643
100
AcDbEntity
8
035
100
AcDbTrace
62
3
6
CONTINUOUS
10
107.4306114893
20
128.5440580439
11
104.8078809229
21
129.1255034120
12
104.8078809229
22
127.4043364779
13
104.8078809229
23
127.4043364779
0
SOLID
5
644
100
AcDbEntity
8
035
100
AcDbTrace
62
3
6
CONTINUOUS
10
105.4635635645
20
127.2589751358
11
107.4306114893
21
128.5440580439
12
104.8078809229
22
127.4043364779
13
104.8078809229
23
127.4043364779
0
SOLID
5
645
100
AcDbEntity
8
035
100
AcDbTrace
62
3
6
CONTINUOUS
10
106.5435114448
20
127.0195564548
11
107.4306114893
21
128.5440580439
12
105.4635635645
22
127.2589751358
13
105.4635635645
23
127.2589751358
0
SOLID
5
646
100
AcDbEntity
8
035
100
AcDbTrace
62
3
6
CONTINUOUS
10
106.5435114448
20
127.0195564548
11
107.4306114893
21
126.8228911098
12
107.4306114893
22
128.5440580439
13
107.4306114893
23
128.5440580439
0
SOLID
5
647
100
AcDbEntity
8
035
100
AcDbTrace
62
3
6
CONTINUOUS
10
106.5435114448
20
127.0195564548
11
105.4635635645
21
127.2589751358
12
105.7914048853
22
126.4896316581
13
105.7914048853
23
126.4896316581
0
SOLID
5
648
100
AcDbEntity
8
035
100
AcDbTrace
62
3
6
CONTINUOUS
10
104.8078809229
20
125.5192488833
11
106.5435114448
21
127.0195564548
12
105.7914048853
22
126.4896316581
13
105.7914048853
23
126.4896316581
0
SOLID
5
649
100
AcDbEntity
8
035
100
AcDbTrace
62
3
6
CONTINUOUS
10
104.8078809229
20
125.5192488833
11
107.4306114893
21
124.9378035152
12
106.5435114448
22
127.0195564548
13
106.5435114448
23
127.0195564548
0
SOLID
5
64A
100
AcDbEntity
8
035
100
AcDbTrace
62
3
6
CONTINUOUS
10
104.8078809229
20
125.5192488833
11
106.5290478571
21
124.7586088333
12
107.4306114893
22
124.9378035152
13
107.4306114893
23
124.9378035152
0
SOLID
5
64B
100
AcDbEntity
8
035
100
AcDbTrace
62
3
6
CONTINUOUS
10
106.5290478571
20
124.7586088333
11
104.8078809229
21
125.5192488833
12
104.8078809229
22
123.0604389773
13
104.8078809229
23
123.0604389773
0
SOLID
5
64C
100
AcDbEntity
8
035
100
AcDbTrace
62
3
6
CONTINUOUS
10
106.5290478571
20
124.7586088333
11
107.4306114893
21
122.6429142696
12
107.4306114893
22
124.9378035152
13
107.4306114893
23
124.9378035152
0
LINE
5
64D
100
AcDbEntity
8
05
100
AcDbLine
62
4
6
CONTINUOUS
10
5.0000000000
20
16.0000000000
11
72.0000000000
21
16.0000000000
0
LINE
5
64E
100
AcDbEntity
8
05
100
AcDbLine
62
4
6
CONTINUOUS
10
5.0000000000
20
21.0000000000
11
72.0000000000
21
21.0000000000
0
LINE
5
64F
100
AcDbEntity
8
05
100
AcDbLine
62
4
6
CONTINUOUS
10
5.0000000000
20
26.0000000000
11
72.0000000000
21
26.0000000000
0
LINE
5
650
100
AcDbEntity
8
05
100
AcDbLine
62
4
6
CONTINUOUS
10
5.0000000000
20
31.0000000000
11
72.0000000000
21
31.0000000000
0
LINE
5
651
100
AcDbEntity
8
05
100
AcDbLine
62
4
6
CONTINUOUS
10
5.0000000000
20
36.0000000000
11
72.0000000000
21
36.0000000000
0
LINE
5
652
100
AcDbEntity
8
05
100
AcDbLine
62
4
6
CONTINUOUS
10
5.0000000000
20
41.0000000000
11
72.0000000000
21
41.0000000000
0
LINE
5
653
100
AcDbEntity
8
05
100
AcDbLine
62
4
6
CONTINUOUS
10
5.0000000000
20
46.0000000000
11
72.0000000000
21
46.0000000000
0
LINE
5
654
100
AcDbEntity
8
05
100
AcDbLine
62
4
6
CONTINUOUS
10
110.9116940000
20
10.6550740000
11
110.9496920000
21
10.6930720000
0
LINE
5
655
100
AcDbEntity
8
05
100
AcDbLine
62
4
6
CONTINUOUS
10
110.5868920000
20
8.2089520000
11
110.5962100000
21
8.2182700000
0
LINE
5
656
100
AcDbEntity
8
0
100
AcDbLine
62
4
6
CONTINUOUS
10
89.0482370000
20
77.4793220000
11
89.0482370000
21
71.2084150000
0
LINE
5
657
100
AcDbEntity
8
0
100
AcDbLine
62
4
6
CONTINUOUS
10
114.0482370000
20
77.4793220000
11
114.0482370000
21
71.0244960000
0
LINE
5
658
100
AcDbEntity
8
0
100
AcDbLine
62
4
6
CONTINUOUS
10
92.5482370000
20
64.7355670000
11
110.5482370000
21
64.7355670000
0
LINE
5
659
100
AcDbEntity
8
0
100
AcDbLine
62
4
6
CONTINUOUS
10
92.5482370000
20
64.1522330000
11
89.0482370000
21
64.7355670000
0
LINE
5
65A
100
AcDbEntity
8
0
100
AcDbLine
62
4
6
CONTINUOUS
10
89.0482370000
20
64.7355670000
11
92.5482370000
21
65.3189000000
0
LINE
5
65B
100
AcDbEntity
8
0
100
AcDbLine
62
4
6
CONTINUOUS
10
92.5482370000
20
65.3189000000
11
92.5482370000
21
64.1522330000
0
SOLID
5
65C
100
AcDbEntity
8
0
100
AcDbTrace
62
4
6
CONTINUOUS
10
89.0482370000
20
64.7355670000
11
92.5482370000
21
64.1522330000
12
92.5482370000
22
65.3189000000
13
92.5482370000
23
65.3189000000
0
LINE
5
65D
100
AcDbEntity
8
0
100
AcDbLine
62
4
6
CONTINUOUS
10
110.5482370000
20
64.1522330000
11
114.0482370000
21
64.7355670000
0
LINE
5
65E
100
AcDbEntity
8
0
100
AcDbLine
62
4
6
CONTINUOUS
10
114.0482370000
20
64.7355670000
11
110.5482370000
21
65.3189000000
0
LINE
5
65F
100
AcDbEntity
8
0
100
AcDbLine
62
4
6
CONTINUOUS
10
110.5482370000
20
65.3189000000
11
110.5482370000
21
64.1522330000
0
SOLID
5
660
100
AcDbEntity
8
0
100
AcDbTrace
62
4
6
CONTINUOUS
10
114.0482370000
20
64.7355670000
11
110.5482370000
21
65.3189000000
12
110.5482370000
22
64.1522330000
13
110.5482370000
23
64.1522330000
0
LINE
5
661
100
AcDbEntity
8
0
100
AcDbLine
62
4
6
CONTINUOUS
10
115.3329520000
20
78.4047980000
11
130.9170890000
21
78.4047980000
0
LINE
5
662
100
AcDbEntity
8
0
100
AcDbLine
62
4
6
CONTINUOUS
10
104.1024770000
20
244.4084590000
11
130.9170890000
21
244.4084590000
0
LINE
5
663
100
AcDbEntity
8
0
100
AcDbLine
62
4
6
CONTINUOUS
10
130.1170890000
20
81.9047980000
11
130.1170890000
21
240.9084590000
0
LINE
5
664
100
AcDbEntity
8
0
100
AcDbLine
62
4
6
CONTINUOUS
10
130.7004220000
20
81.9047980000
11
130.1170890000
21
78.4047980000
0
LINE
5
665
100
AcDbEntity
8
0
100
AcDbLine
62
4
6
CONTINUOUS
10
130.1170890000
20
78.4047980000
11
129.5337560000
21
81.9047980000
0
LINE
5
666
100
AcDbEntity
8
0
100
AcDbLine
62
4
6
CONTINUOUS
10
129.5337560000
20
81.9047980000
11
130.7004220000
21
81.9047980000
0
SOLID
5
667
100
AcDbEntity
8
0
100
AcDbTrace
62
4
6
CONTINUOUS
10
130.7004220000
20
81.9047979200
11
129.5337560000
21
81.9047979200
12
130.1170890000
22
78.4047980000
13
130.1170890000
23
78.4047980000
0
LINE
5
668
100
AcDbEntity
8
0
100
AcDbLine
62
4
6
CONTINUOUS
10
130.7004220000
20
240.9084590000
11
130.1170890000
21
244.4084590000
0
LINE
5
669
100
AcDbEntity
8
0
100
AcDbLine
62
4
6
CONTINUOUS
10
130.1170890000
20
244.4084590000
11
129.5337560000
21
240.9084590000
0
LINE
5
66A
100
AcDbEntity
8
0
100
AcDbLine
62
4
6
CONTINUOUS
10
129.5337560000
20
240.9084590000
11
130.7004220000
21
240.9084590000
0
SOLID
5
66B
100
AcDbEntity
8
0
100
AcDbTrace
62
4
6
CONTINUOUS
10
129.5337560000
20
240.9084589120
11
130.7004220000
21
240.9084589120
12
130.1170890000
22
244.4084590000
13
130.1170890000
23
244.4084590000
0
LINE
5
66C
100
AcDbEntity
8
0
100
AcDbLine
62
4
6
CONTINUOUS
10
95.1982370000
20
222.8084590000
11
95.1982370000
21
254.8448260000
0
LINE
5
66D
100
AcDbEntity
8
0
100
AcDbLine
62
4
6
CONTINUOUS
10
107.8982370000
20
222.8084590000
11
107.8982370000
21
243.0779210000
0
LINE
5
66E
100
AcDbEntity
8
0
100
AcDbLine
62
4
6
CONTINUOUS
10
88.4746410000
20
254.0448260000
11
113.1134340000
21
254.0448260000
0
LINE
5
66F
100
AcDbEntity
8
0
100
AcDbLine
62
4
6
CONTINUOUS
10
111.3982370000
20
253.4614930000
11
107.8982370000
21
254.0448260000
0
LINE
5
670
100
AcDbEntity
8
0
100
AcDbLine
62
4
6
CONTINUOUS
10
107.8982370000
20
254.0448260000
11
111.3982370000
21
254.6281600000
0
LINE
5
671
100
AcDbEntity
8
0
100
AcDbLine
62
4
6
CONTINUOUS
10
111.3982370000
20
254.6281600000
11
111.3982370000
21
253.4614930000
0
SOLID
5
672
100
AcDbEntity
8
0
100
AcDbTrace
62
4
6
CONTINUOUS
10
107.8982370000
20
254.0448260000
11
111.3982370000
21
253.4614930000
12
111.3982370000
22
254.6281600000
13
111.3982370000
23
254.6281600000
0
LINE
5
673
100
AcDbEntity
8
0
100
AcDbLine
62
4
6
CONTINUOUS
10
91.6982370000
20
253.4614930000
11
95.1982370000
21
254.0448260000
0
LINE
5
674
100
AcDbEntity
8
0
100
AcDbLine
62
4
6
CONTINUOUS
10
95.1982370000
20
254.0448260000
11
91.6982370000
21
254.6281600000
0
LINE
5
675
100
AcDbEntity
8
0
100
AcDbLine
62
4
6
CONTINUOUS
10
91.6982370000
20
254.6281600000
11
91.6982370000
21
253.4614930000
0
SOLID
5
676
100
AcDbEntity
8
0
100
AcDbTrace
62
4
6
CONTINUOUS
10
95.1982370000
20
254.0448260000
11
91.6982370000
21
254.6281600000
12
91.6982370000
22
253.4614930000
13
91.6982370000
23
253.4614930000
0
LINE
5
677
100
AcDbEntity
8
0
100
AcDbLine
62
4
6
CONTINUOUS
10
107.8982370000
20
245.7584830000
11
107.8982370000
21
254.8448260000
0
LINE
5
678
100
AcDbEntity
8
0
100
AcDbLine
62
4
6
CONTINUOUS
10
89.0482370000
20
65.7521650000
11
89.0482370000
21
63.9355670000
0
LINE
5
679
100
AcDbEntity
8
0
100
AcDbLine
62
4
6
CONTINUOUS
10
114.0482370000
20
65.8134710000
11
114.0482370000
21
63.9355670000
0
LINE
5
67A
100
AcDbEntity
8
025
100
AcDbLine
62
4
6
CONTINUOUS
10
104.1427410000
20
112.9047980000
11
103.6748990000
21
112.9047980000
0
LINE
5
67B
100
AcDbEntity
8
025
100
AcDbLine
62
4
6
CONTINUOUS
10
104.1427410000
20
106.4047980000
11
103.6748990000
21
106.4047980000
0
LINE
5
67C
100
AcDbEntity
8
025
100
AcDbLine
62
4
6
CONTINUOUS
10
104.1427410000
20
104.4047980000
11
103.6748990000
21
104.4047980000
0
LINE
5
67D
100
AcDbEntity
8
025
100
AcDbLine
62
4
6
CONTINUOUS
10
104.1427410000
20
97.9047980000
11
103.6748990000
21
97.9047980000
0
LINE
5
67E
100
AcDbEntity
8
025
100
AcDbLine
62
4
6
CONTINUOUS
10
89.4482370000
20
105.9047980000
11
113.6482370000
21
105.9047980000
0
LINE
5
67F
100
AcDbEntity
8
025
100
AcDbLine
62
4
6
CONTINUOUS
10
89.4482370000
20
104.9047980000
11
113.6482370000
21
104.9047980000
0
LINE
5
680
100
AcDbEntity
8
025
100
AcDbLine
62
4
6
CONTINUOUS
10
114.1482370000
20
97.9047980000
11
114.1482370000
21
104.4047980000
0
LINE
5
681
100
AcDbEntity
8
025
100
AcDbLine
62
4
6
CONTINUOUS
10
114.0764970000
20
97.9047980000
11
114.0764970000
21
104.4047980000
0
LINE
5
682
100
AcDbEntity
8
025
100
AcDbLine
62
4
6
CONTINUOUS
10
114.0168030000
20
97.9047980000
11
114.0168030000
21
104.4047980000
0
LINE
5
683
100
AcDbEntity
8
025
100
AcDbLine
62
4
6
CONTINUOUS
10
113.8094280000
20
97.9047980000
11
113.8094280000
21
104.4047980000
0
LINE
5
684
100
AcDbEntity
8
025
100
AcDbLine
62
4
6
CONTINUOUS
10
113.6909820000
20
97.9047980000
11
113.6909820000
21
104.4047980000
0
LINE
5
685
100
AcDbEntity
8
025
100
AcDbLine
62
4
6
CONTINUOUS
10
113.3489930000
20
97.9047980000
11
113.3489930000
21
104.4047980000
0
LINE
5
686
100
AcDbEntity
8
025
100
AcDbLine
62
4
6
CONTINUOUS
10
113.1736640000
20
97.9047980000
11
113.1736640000
21
104.4047980000
0
LINE
5
687
100
AcDbEntity
8
025
100
AcDbLine
62
4
6
CONTINUOUS
10
112.7024540000
20
97.9047980000
11
112.7024540000
21
104.4047980000
0
LINE
5
688
100
AcDbEntity
8
025
100
AcDbLine
62
4
6
CONTINUOUS
10
112.4730050000
20
97.9047980000
11
112.4730050000
21
104.4047980000
0
LINE
5
689
100
AcDbEntity
8
025
100
AcDbLine
62
4
6
CONTINUOUS
10
111.8800060000
20
97.9047980000
11
111.8800060000
21
104.4047980000
0
LINE
5
68A
100
AcDbEntity
8
025
100
AcDbLine
62
4
6
CONTINUOUS
10
111.6000560000
20
97.9047980000
11
111.6000560000
21
104.4047980000
0
LINE
5
68B
100
AcDbEntity
8
025
100
AcDbLine
62
4
6
CONTINUOUS
10
110.8946190000
20
97.9047980000
11
110.8946190000
21
104.4047980000
0
LINE
5
68C
100
AcDbEntity
8
025
100
AcDbLine
62
4
6
CONTINUOUS
10
114.1459870000
20
97.9047980000
11
114.1459870000
21
104.4047980000
0
LINE
5
68D
100
AcDbEntity
8
025
100
AcDbLine
62
4
6
CONTINUOUS
10
110.5685840000
20
97.9047980000
11
110.5685840000
21
104.4047980000
0
LINE
5
68E
100
AcDbEntity
8
025
100
AcDbLine
62
4
6
CONTINUOUS
10
108.6604390000
20
97.5047980000
11
108.6604390000
21
104.8047980000
0
LINE
5
68F
100
AcDbEntity
8
025
100
AcDbLine
62
4
6
CONTINUOUS
10
108.4995170000
20
97.9047980000
11
108.4995170000
21
104.4047980000
0
LINE
5
690
100
AcDbEntity
8
025
100
AcDbLine
62
4
6
CONTINUOUS
10
108.0973810000
20
97.9047980000
11
108.0973810000
21
104.4047980000
0
LINE
5
691
100
AcDbEntity
8
025
100
AcDbLine
62
4
6
CONTINUOUS
10
107.3774570000
20
97.5047980000
11
107.3774570000
21
104.8047980000
0
LINE
5
692
100
AcDbEntity
8
025
100
AcDbLine
62
4
6
CONTINUOUS
10
107.1275730000
20
97.9047980000
11
107.1275730000
21
104.4047980000
0
LINE
5
693
100
AcDbEntity
8
025
100
AcDbLine
62
4
6
CONTINUOUS
10
106.6966230000
20
97.9047980000
11
106.6966230000
21
104.4047980000
0
LINE
5
694
100
AcDbEntity
8
025
100
AcDbLine
62
4
6
CONTINUOUS
10
106.0025440000
20
97.5047980000
11
106.0025440000
21
104.8047980000
0
LINE
5
695
100
AcDbEntity
8
025
100
AcDbLine
62
4
6
CONTINUOUS
10
105.6676400000
20
97.9047980000
11
105.6676400000
21
104.4047980000
0
LINE
5
696
100
AcDbEntity
8
025
100
AcDbLine
62
4
6
CONTINUOUS
10
105.2146720000
20
97.9047980000
11
105.2146720000
21
104.4047980000
0
LINE
5
697
100
AcDbEntity
8
025
100
AcDbLine
62
4
6
CONTINUOUS
10
109.8312570000
20
97.5047980000
11
109.8312570000
21
104.8047980000
0
LINE
5
698
100
AcDbEntity
8
025
100
AcDbLine
62
4
6
CONTINUOUS
10
109.7618350000
20
97.9047980000
11
109.7618350000
21
104.4047980000
0
LINE
5
699
100
AcDbEntity
8
025
100
AcDbLine
62
4
6
CONTINUOUS
10
109.3948560000
20
97.9047980000
11
109.3948560000
21
104.4047980000
0
LINE
5
69A
100
AcDbEntity
8
025
100
AcDbLine
62
4
6
CONTINUOUS
10
104.5573850000
20
97.5047980000
11
104.5573850000
21
104.8047980000
0
LINE
5
69B
100
AcDbEntity
8
025
100
AcDbLine
62
4
6
CONTINUOUS
10
104.1427410000
20
97.9047980000
11
104.1427410000
21
104.4047980000
0
LINE
5
69C
100
AcDbEntity
8
025
100
AcDbLine
62
4
6
CONTINUOUS
10
113.6482370000
20
96.4047980000
11
113.6482370000
21
97.4047980000
0
LINE
5
69D
100
AcDbEntity
8
025
100
AcDbLine
62
4
6
CONTINUOUS
10
109.8312570000
20
97.5047980000
11
110.5685840000
21
97.9047980000
0
LINE
5
69E
100
AcDbEntity
8
025
100
AcDbLine
62
4
6
CONTINUOUS
10
110.8714480000
20
97.5047980000
11
110.8946190000
21
97.9047980000
0
LINE
5
69F
100
AcDbEntity
8
025
100
AcDbLine
62
4
6
CONTINUOUS
10
110.8714480000
20
97.5047980000
11
111.6000560000
21
97.9047980000
0
LINE
5
6A0
100
AcDbEntity
8
025
100
AcDbLine
62
4
6
CONTINUOUS
10
111.8800060000
20
97.9047980000
11
111.7646050000
21
97.5047980000
0
LINE
5
6A1
100
AcDbEntity
8
025
100
AcDbLine
62
4
6
CONTINUOUS
10
111.7646050000
20
97.5047980000
11
112.4730050000
21
97.9047980000
0
LINE
5
6A2
100
AcDbEntity
8
025
100
AcDbLine
62
4
6
CONTINUOUS
10
112.7024540000
20
97.9047980000
11
112.4966450000
21
97.5047980000
0
LINE
5
6A3
100
AcDbEntity
8
025
100
AcDbLine
62
4
6
CONTINUOUS
10
112.4966450000
20
97.5047980000
11
113.1736640000
21
97.9047980000
0
LINE
5
6A4
100
AcDbEntity
8
025
100
AcDbLine
62
4
6
CONTINUOUS
10
113.3489930000
20
97.9047980000
11
113.0560210000
21
97.5047980000
0
LINE
5
6A5
100
AcDbEntity
8
025
100
AcDbLine
62
4
6
CONTINUOUS
10
113.0560210000
20
97.5047980000
11
113.6909820000
21
97.9047980000
0
LINE
5
6A6
100
AcDbEntity
8
025
100
AcDbLine
62
4
6
CONTINUOUS
10
114.0764970000
20
97.9047980000
11
113.6243610000
21
97.5047980000
0
LINE
5
6A7
100
AcDbEntity
8
025
100
AcDbLine
62
4
6
CONTINUOUS
10
113.6243610000
20
97.5047980000
11
114.1459870000
21
97.9047980000
0
LINE
5
6A8
100
AcDbEntity
8
025
100
AcDbLine
62
4
6
CONTINUOUS
10
113.8094280000
20
97.9047980000
11
113.4339130000
21
97.5047980000
0
LINE
5
6A9
100
AcDbEntity
8
025
100
AcDbLine
62
4
6
CONTINUOUS
10
113.4339130000
20
97.5047980000
11
114.0168030000
21
97.9047980000
0
LINE
5
6AA
100
AcDbEntity
8
025
100
AcDbLine
62
4
6
CONTINUOUS
10
111.8800060000
20
97.9047980000
11
111.6000560000
21
97.9047980000
0
LINE
5
6AB
100
AcDbEntity
8
025
100
AcDbLine
62
4
6
CONTINUOUS
10
112.7024540000
20
97.9047980000
11
112.4730050000
21
97.9047980000
0
LINE
5
6AC
100
AcDbEntity
8
025
100
AcDbLine
62
4
6
CONTINUOUS
10
113.3489930000
20
97.9047980000
11
113.1736640000
21
97.9047980000
0
LINE
5
6AD
100
AcDbEntity
8
025
100
AcDbLine
62
4
6
CONTINUOUS
10
113.8094280000
20
97.9047980000
11
113.6909820000
21
97.9047980000
0
LINE
5
6AE
100
AcDbEntity
8
025
100
AcDbLine
62
4
6
CONTINUOUS
10
114.1482370000
20
97.9047980000
11
114.1459870000
21
97.9047980000
0
LINE
5
6AF
100
AcDbEntity
8
025
100
AcDbLine
62
4
6
CONTINUOUS
10
114.0764970000
20
97.9047980000
11
114.0168030000
21
97.9047980000
0
LINE
5
6B0
100
AcDbEntity
8
025
100
AcDbLine
62
4
6
CONTINUOUS
10
110.8946190000
20
97.9047980000
11
110.5685840000
21
97.9047980000
0
LINE
5
6B1
100
AcDbEntity
8
025
100
AcDbLine
62
4
6
CONTINUOUS
10
105.6676400000
20
97.9047980000
11
106.0025440000
21
97.5047980000
0
LINE
5
6B2
100
AcDbEntity
8
025
100
AcDbLine
62
4
6
CONTINUOUS
10
106.0025440000
20
97.5047980000
11
106.6966230000
21
97.9047980000
0
LINE
5
6B3
100
AcDbEntity
8
025
100
AcDbLine
62
4
6
CONTINUOUS
10
107.1275730000
20
97.9047980000
11
107.3774570000
21
97.5047980000
0
LINE
5
6B4
100
AcDbEntity
8
025
100
AcDbLine
62
4
6
CONTINUOUS
10
107.3774570000
20
97.5047980000
11
108.0973810000
21
97.9047980000
0
LINE
5
6B5
100
AcDbEntity
8
025
100
AcDbLine
62
4
6
CONTINUOUS
10
108.4995170000
20
97.9047980000
11
108.6604390000
21
97.5047980000
0
LINE
5
6B6
100
AcDbEntity
8
025
100
AcDbLine
62
4
6
CONTINUOUS
10
108.6604390000
20
97.5047980000
11
109.3948560000
21
97.9047980000
0
LINE
5
6B7
100
AcDbEntity
8
025
100
AcDbLine
62
4
6
CONTINUOUS
10
109.7618350000
20
97.9047980000
11
109.8312570000
21
97.5047980000
0
LINE
5
6B8
100
AcDbEntity
8
025
100
AcDbLine
62
4
6
CONTINUOUS
10
105.6676400000
20
97.9047980000
11
105.2146720000
21
97.9047980000
0
LINE
5
6B9
100
AcDbEntity
8
025
100
AcDbLine
62
4
6
CONTINUOUS
10
107.1275730000
20
97.9047980000
11
106.6966230000
21
97.9047980000
0
LINE
5
6BA
100
AcDbEntity
8
025
100
AcDbLine
62
4
6
CONTINUOUS
10
108.4995170000
20
97.9047980000
11
108.0973810000
21
97.9047980000
0
LINE
5
6BB
100
AcDbEntity
8
025
100
AcDbLine
62
4
6
CONTINUOUS
10
109.7618350000
20
97.9047980000
11
109.3948560000
21
97.9047980000
0
LINE
5
6BC
100
AcDbEntity
8
025
100
AcDbLine
62
4
6
CONTINUOUS
10
104.1427410000
20
97.9047980000
11
104.5573850000
21
97.5047980000
0
LINE
5
6BD
100
AcDbEntity
8
025
100
AcDbLine
62
4
6
CONTINUOUS
10
104.5573850000
20
97.5047980000
11
105.2146720000
21
97.9047980000
0
LINE
5
6BE
100
AcDbEntity
8
025
100
AcDbLine
62
4
6
CONTINUOUS
10
114.1482370000
20
106.4047980000
11
114.1482370000
21
112.9047980000
0
LINE
5
6BF
100
AcDbEntity
8
025
100
AcDbLine
62
4
6
CONTINUOUS
10
114.1459870000
20
106.4047980000
11
114.1459870000
21
112.9047980000
0
LINE
5
6C0
100
AcDbEntity
8
025
100
AcDbLine
62
4
6
CONTINUOUS
10
114.0764970000
20
106.4047980000
11
114.0764970000
21
112.9047980000
0
LINE
5
6C1
100
AcDbEntity
8
025
100
AcDbLine
62
4
6
CONTINUOUS
10
114.0168030000
20
106.4047980000
11
114.0168030000
21
112.9047980000
0
LINE
5
6C2
100
AcDbEntity
8
025
100
AcDbLine
62
4
6
CONTINUOUS
10
113.8094280000
20
106.4047980000
11
113.8094280000
21
112.9047980000
0
LINE
5
6C3
100
AcDbEntity
8
025
100
AcDbLine
62
4
6
CONTINUOUS
10
113.6909820000
20
106.4047980000
11
113.6909820000
21
112.9047980000
0
LINE
5
6C4
100
AcDbEntity
8
025
100
AcDbLine
62
4
6
CONTINUOUS
10
113.3489930000
20
106.4047980000
11
113.3489930000
21
112.9047980000
0
LINE
5
6C5
100
AcDbEntity
8
025
100
AcDbLine
62
4
6
CONTINUOUS
10
113.1736640000
20
106.4047980000
11
113.1736640000
21
112.9047980000
0
LINE
5
6C6
100
AcDbEntity
8
025
100
AcDbLine
62
4
6
CONTINUOUS
10
112.7024540000
20
106.4047980000
11
112.7024540000
21
112.9047980000
0
LINE
5
6C7
100
AcDbEntity
8
025
100
AcDbLine
62
4
6
CONTINUOUS
10
112.4730050000
20
106.4047980000
11
112.4730050000
21
112.9047980000
0
LINE
5
6C8
100
AcDbEntity
8
025
100
AcDbLine
62
4
6
CONTINUOUS
10
111.8800060000
20
106.4047980000
11
111.8800060000
21
112.9047980000
0
LINE
5
6C9
100
AcDbEntity
8
025
100
AcDbLine
62
4
6
CONTINUOUS
10
111.6000560000
20
106.4047980000
11
111.6000560000
21
112.9047980000
0
LINE
5
6CA
100
AcDbEntity
8
025
100
AcDbLine
62
4
6
CONTINUOUS
10
110.8946190000
20
106.4047980000
11
110.8946190000
21
112.9047980000
0
LINE
5
6CB
100
AcDbEntity
8
025
100
AcDbLine
62
4
6
CONTINUOUS
10
110.5685840000
20
106.4047980000
11
110.5685840000
21
112.9047980000
0
LINE
5
6CC
100
AcDbEntity
8
025
100
AcDbLine
62
4
6
CONTINUOUS
10
109.7618350000
20
106.4047980000
11
109.7618350000
21
112.9047980000
0
LINE
5
6CD
100
AcDbEntity
8
025
100
AcDbLine
62
4
6
CONTINUOUS
10
109.3948560000
20
106.4047980000
11
109.3948560000
21
112.9047980000
0
LINE
5
6CE
100
AcDbEntity
8
025
100
AcDbLine
62
4
6
CONTINUOUS
10
108.4995170000
20
106.4047980000
11
108.4995170000
21
112.9047980000
0
LINE
5
6CF
100
AcDbEntity
8
025
100
AcDbLine
62
4
6
CONTINUOUS
10
108.0973810000
20
106.4047980000
11
108.0973810000
21
112.9047980000
0
LINE
5
6D0
100
AcDbEntity
8
025
100
AcDbLine
62
4
6
CONTINUOUS
10
107.1275730000
20
106.4047980000
11
107.1275730000
21
112.9047980000
0
LINE
5
6D1
100
AcDbEntity
8
025
100
AcDbLine
62
4
6
CONTINUOUS
10
106.6966230000
20
106.4047980000
11
106.6966230000
21
112.9047980000
0
LINE
5
6D2
100
AcDbEntity
8
025
100
AcDbLine
62
4
6
CONTINUOUS
10
105.6676400000
20
106.4047980000
11
105.6676400000
21
112.9047980000
0
LINE
5
6D3
100
AcDbEntity
8
025
100
AcDbLine
62
4
6
CONTINUOUS
10
105.2146720000
20
106.4047980000
11
105.2146720000
21
112.9047980000
0
LINE
5
6D4
100
AcDbEntity
8
025
100
AcDbLine
62
4
6
CONTINUOUS
10
104.1427410000
20
106.4047980000
11
104.1427410000
21
112.9047980000
0
LINE
5
6D5
100
AcDbEntity
8
025
100
AcDbLine
62
4
6
CONTINUOUS
10
109.8312570000
20
106.0047980000
11
109.8312570000
21
113.3047980000
0
LINE
5
6D6
100
AcDbEntity
8
025
100
AcDbLine
62
4
6
CONTINUOUS
10
108.6604390000
20
106.0047980000
11
108.6604390000
21
113.3047980000
0
LINE
5
6D7
100
AcDbEntity
8
025
100
AcDbLine
62
4
6
CONTINUOUS
10
107.3774570000
20
106.0047980000
11
107.3774570000
21
113.3047980000
0
LINE
5
6D8
100
AcDbEntity
8
025
100
AcDbLine
62
4
6
CONTINUOUS
10
106.0025440000
20
106.0047980000
11
106.0025440000
21
113.3047980000
0
LINE
5
6D9
100
AcDbEntity
8
025
100
AcDbLine
62
4
6
CONTINUOUS
10
104.5573850000
20
106.0047980000
11
104.5573850000
21
113.3047980000
0
LINE
5
6DA
100
AcDbEntity
8
025
100
AcDbLine
62
4
6
CONTINUOUS
10
109.8312570000
20
104.8047980000
11
110.5685840000
21
104.4047980000
0
LINE
5
6DB
100
AcDbEntity
8
025
100
AcDbLine
62
4
6
CONTINUOUS
10
110.8714480000
20
104.8047980000
11
110.8946190000
21
104.4047980000
0
LINE
5
6DC
100
AcDbEntity
8
025
100
AcDbLine
62
4
6
CONTINUOUS
10
110.8714480000
20
104.8047980000
11
111.6000560000
21
104.4047980000
0
LINE
5
6DD
100
AcDbEntity
8
025
100
AcDbLine
62
4
6
CONTINUOUS
10
111.8800060000
20
104.4047980000
11
111.7646050000
21
104.8047980000
0
LINE
5
6DE
100
AcDbEntity
8
025
100
AcDbLine
62
4
6
CONTINUOUS
10
111.7646050000
20
104.8047980000
11
112.4730050000
21
104.4047980000
0
LINE
5
6DF
100
AcDbEntity
8
025
100
AcDbLine
62
4
6
CONTINUOUS
10
112.7024540000
20
104.4047980000
11
112.4966450000
21
104.8047980000
0
LINE
5
6E0
100
AcDbEntity
8
025
100
AcDbLine
62
4
6
CONTINUOUS
10
112.4966450000
20
104.8047980000
11
113.1736640000
21
104.4047980000
0
LINE
5
6E1
100
AcDbEntity
8
025
100
AcDbLine
62
4
6
CONTINUOUS
10
113.3489930000
20
104.4047980000
11
113.0560210000
21
104.8047980000
0
LINE
5
6E2
100
AcDbEntity
8
025
100
AcDbLine
62
4
6
CONTINUOUS
10
113.0560210000
20
104.8047980000
11
113.6909820000
21
104.4047980000
0
LINE
5
6E3
100
AcDbEntity
8
025
100
AcDbLine
62
4
6
CONTINUOUS
10
114.0764970000
20
104.4047980000
11
113.6243610000
21
104.8047980000
0
LINE
5
6E4
100
AcDbEntity
8
025
100
AcDbLine
62
4
6
CONTINUOUS
10
113.6243610000
20
104.8047980000
11
114.1459870000
21
104.4047980000
0
LINE
5
6E5
100
AcDbEntity
8
025
100
AcDbLine
62
4
6
CONTINUOUS
10
113.8094280000
20
104.4047980000
11
113.4339130000
21
104.8047980000
0
LINE
5
6E6
100
AcDbEntity
8
025
100
AcDbLine
62
4
6
CONTINUOUS
10
113.4339130000
20
104.8047980000
11
114.0168030000
21
104.4047980000
0
LINE
5
6E7
100
AcDbEntity
8
025
100
AcDbLine
62
4
6
CONTINUOUS
10
111.8800060000
20
104.4047980000
11
111.6000560000
21
104.4047980000
0
LINE
5
6E8
100
AcDbEntity
8
025
100
AcDbLine
62
4
6
CONTINUOUS
10
112.7024540000
20
104.4047980000
11
112.4730050000
21
104.4047980000
0
LINE
5
6E9
100
AcDbEntity
8
025
100
AcDbLine
62
4
6
CONTINUOUS
10
113.3489930000
20
104.4047980000
11
113.1736640000
21
104.4047980000
0
LINE
5
6EA
100
AcDbEntity
8
025
100
AcDbLine
62
4
6
CONTINUOUS
10
113.8094280000
20
104.4047980000
11
113.6909820000
21
104.4047980000
0
LINE
5
6EB
100
AcDbEntity
8
025
100
AcDbLine
62
4
6
CONTINUOUS
10
114.1482370000
20
104.4047980000
11
114.1459870000
21
104.4047980000
0
LINE
5
6EC
100
AcDbEntity
8
025
100
AcDbLine
62
4
6
CONTINUOUS
10
114.0764970000
20
104.4047980000
11
114.0168030000
21
104.4047980000
0
LINE
5
6ED
100
AcDbEntity
8
025
100
AcDbLine
62
4
6
CONTINUOUS
10
110.8946190000
20
104.4047980000
11
110.5685840000
21
104.4047980000
0
LINE
5
6EE
100
AcDbEntity
8
025
100
AcDbLine
62
4
6
CONTINUOUS
10
105.6676400000
20
104.4047980000
11
106.0025440000
21
104.8047980000
0
LINE
5
6EF
100
AcDbEntity
8
025
100
AcDbLine
62
4
6
CONTINUOUS
10
106.0025440000
20
104.8047980000
11
106.6966230000
21
104.4047980000
0
LINE
5
6F0
100
AcDbEntity
8
025
100
AcDbLine
62
4
6
CONTINUOUS
10
107.1275730000
20
104.4047980000
11
107.3774570000
21
104.8047980000
0
LINE
5
6F1
100
AcDbEntity
8
025
100
AcDbLine
62
4
6
CONTINUOUS
10
107.3774570000
20
104.8047980000
11
108.0973810000
21
104.4047980000
0
LINE
5
6F2
100
AcDbEntity
8
025
100
AcDbLine
62
4
6
CONTINUOUS
10
108.4995170000
20
104.4047980000
11
108.6604390000
21
104.8047980000
0
LINE
5
6F3
100
AcDbEntity
8
025
100
AcDbLine
62
4
6
CONTINUOUS
10
108.6604390000
20
104.8047980000
11
109.3948560000
21
104.4047980000
0
LINE
5
6F4
100
AcDbEntity
8
025
100
AcDbLine
62
4
6
CONTINUOUS
10
109.7618350000
20
104.4047980000
11
109.8312570000
21
104.8047980000
0
LINE
5
6F5
100
AcDbEntity
8
025
100
AcDbLine
62
4
6
CONTINUOUS
10
105.6676400000
20
104.4047980000
11
105.2146720000
21
104.4047980000
0
LINE
5
6F6
100
AcDbEntity
8
025
100
AcDbLine
62
4
6
CONTINUOUS
10
107.1275730000
20
104.4047980000
11
106.6966230000
21
104.4047980000
0
LINE
5
6F7
100
AcDbEntity
8
025
100
AcDbLine
62
4
6
CONTINUOUS
10
108.4995170000
20
104.4047980000
11
108.0973810000
21
104.4047980000
0
LINE
5
6F8
100
AcDbEntity
8
025
100
AcDbLine
62
4
6
CONTINUOUS
10
109.7618350000
20
104.4047980000
11
109.3948560000
21
104.4047980000
0
LINE
5
6F9
100
AcDbEntity
8
025
100
AcDbLine
62
4
6
CONTINUOUS
10
104.1427410000
20
104.4047980000
11
104.5573850000
21
104.8047980000
0
LINE
5
6FA
100
AcDbEntity
8
025
100
AcDbLine
62
4
6
CONTINUOUS
10
104.5573850000
20
104.8047980000
11
105.2146720000
21
104.4047980000
0
LINE
5
6FB
100
AcDbEntity
8
025
100
AcDbLine
62
4
6
CONTINUOUS
10
109.8312570000
20
106.0047980000
11
110.5685840000
21
106.4047980000
0
LINE
5
6FC
100
AcDbEntity
8
025
100
AcDbLine
62
4
6
CONTINUOUS
10
114.0764970000
20
106.4047980000
11
114.0168030000
21
106.4047980000
0
LINE
5
6FD
100
AcDbEntity
8
025
100
AcDbLine
62
4
6
CONTINUOUS
10
114.1482370000
20
106.4047980000
11
114.1459870000
21
106.4047980000
0
LINE
5
6FE
100
AcDbEntity
8
025
100
AcDbLine
62
4
6
CONTINUOUS
10
113.8094280000
20
106.4047980000
11
113.6909820000
21
106.4047980000
0
LINE
5
6FF
100
AcDbEntity
8
025
100
AcDbLine
62
4
6
CONTINUOUS
10
113.3489930000
20
106.4047980000
11
113.1736640000
21
106.4047980000
0
LINE
5
700
100
AcDbEntity
8
025
100
AcDbLine
62
4
6
CONTINUOUS
10
112.7024540000
20
106.4047980000
11
112.4730050000
21
106.4047980000
0
LINE
5
701
100
AcDbEntity
8
025
100
AcDbLine
62
4
6
CONTINUOUS
10
111.8800060000
20
106.4047980000
11
111.6000560000
21
106.4047980000
0
LINE
5
702
100
AcDbEntity
8
025
100
AcDbLine
62
4
6
CONTINUOUS
10
113.4339130000
20
106.0047980000
11
114.0168030000
21
106.4047980000
0
LINE
5
703
100
AcDbEntity
8
025
100
AcDbLine
62
4
6
CONTINUOUS
10
113.8094280000
20
106.4047980000
11
113.4339130000
21
106.0047980000
0
LINE
5
704
100
AcDbEntity
8
025
100
AcDbLine
62
4
6
CONTINUOUS
10
113.6243610000
20
106.0047980000
11
114.1459870000
21
106.4047980000
0
LINE
5
705
100
AcDbEntity
8
025
100
AcDbLine
62
4
6
CONTINUOUS
10
114.0764970000
20
106.4047980000
11
113.6243610000
21
106.0047980000
0
LINE
5
706
100
AcDbEntity
8
025
100
AcDbLine
62
4
6
CONTINUOUS
10
113.0560210000
20
106.0047980000
11
113.6909820000
21
106.4047980000
0
LINE
5
707
100
AcDbEntity
8
025
100
AcDbLine
62
4
6
CONTINUOUS
10
113.3489930000
20
106.4047980000
11
113.0560210000
21
106.0047980000
0
LINE
5
708
100
AcDbEntity
8
025
100
AcDbLine
62
4
6
CONTINUOUS
10
112.4966450000
20
106.0047980000
11
113.1736640000
21
106.4047980000
0
LINE
5
709
100
AcDbEntity
8
025
100
AcDbLine
62
4
6
CONTINUOUS
10
112.7024540000
20
106.4047980000
11
112.4966450000
21
106.0047980000
0
LINE
5
70A
100
AcDbEntity
8
025
100
AcDbLine
62
4
6
CONTINUOUS
10
111.7646050000
20
106.0047980000
11
112.4730050000
21
106.4047980000
0
LINE
5
70B
100
AcDbEntity
8
025
100
AcDbLine
62
4
6
CONTINUOUS
10
111.8800060000
20
106.4047980000
11
111.7646050000
21
106.0047980000
0
LINE
5
70C
100
AcDbEntity
8
025
100
AcDbLine
62
4
6
CONTINUOUS
10
110.8714480000
20
106.0047980000
11
111.6000560000
21
106.4047980000
0
LINE
5
70D
100
AcDbEntity
8
025
100
AcDbLine
62
4
6
CONTINUOUS
10
110.8714480000
20
106.0047980000
11
110.8946190000
21
106.4047980000
0
LINE
5
70E
100
AcDbEntity
8
025
100
AcDbLine
62
4
6
CONTINUOUS
10
110.8946190000
20
106.4047980000
11
110.5685840000
21
106.4047980000
0
LINE
5
70F
100
AcDbEntity
8
025
100
AcDbLine
62
4
6
CONTINUOUS
10
109.7618350000
20
106.4047980000
11
109.3948560000
21
106.4047980000
0
LINE
5
710
100
AcDbEntity
8
025
100
AcDbLine
62
4
6
CONTINUOUS
10
108.4995170000
20
106.4047980000
11
108.0973810000
21
106.4047980000
0
LINE
5
711
100
AcDbEntity
8
025
100
AcDbLine
62
4
6
CONTINUOUS
10
107.1275730000
20
106.4047980000
11
106.6966230000
21
106.4047980000
0
LINE
5
712
100
AcDbEntity
8
025
100
AcDbLine
62
4
6
CONTINUOUS
10
105.6676400000
20
106.4047980000
11
105.2146720000
21
106.4047980000
0
LINE
5
713
100
AcDbEntity
8
025
100
AcDbLine
62
4
6
CONTINUOUS
10
109.7618350000
20
106.4047980000
11
109.8312570000
21
106.0047980000
0
LINE
5
714
100
AcDbEntity
8
025
100
AcDbLine
62
4
6
CONTINUOUS
10
108.6604390000
20
106.0047980000
11
109.3948560000
21
106.4047980000
0
LINE
5
715
100
AcDbEntity
8
025
100
AcDbLine
62
4
6
CONTINUOUS
10
108.4995170000
20
106.4047980000
11
108.6604390000
21
106.0047980000
0
LINE
5
716
100
AcDbEntity
8
025
100
AcDbLine
62
4
6
CONTINUOUS
10
107.3774570000
20
106.0047980000
11
108.0973810000
21
106.4047980000
0
LINE
5
717
100
AcDbEntity
8
025
100
AcDbLine
62
4
6
CONTINUOUS
10
107.1275730000
20
106.4047980000
11
107.3774570000
21
106.0047980000
0
LINE
5
718
100
AcDbEntity
8
025
100
AcDbLine
62
4
6
CONTINUOUS
10
106.0025440000
20
106.0047980000
11
106.6966230000
21
106.4047980000
0
LINE
5
719
100
AcDbEntity
8
025
100
AcDbLine
62
4
6
CONTINUOUS
10
105.6676400000
20
106.4047980000
11
106.0025440000
21
106.0047980000
0
LINE
5
71A
100
AcDbEntity
8
025
100
AcDbLine
62
4
6
CONTINUOUS
10
104.1427410000
20
106.4047980000
11
104.5573850000
21
106.0047980000
0
LINE
5
71B
100
AcDbEntity
8
025
100
AcDbLine
62
4
6
CONTINUOUS
10
104.5573850000
20
106.0047980000
11
105.2146720000
21
106.4047980000
0
LINE
5
71C
100
AcDbEntity
8
025
100
AcDbLine
62
4
6
CONTINUOUS
10
113.4339130000
20
113.3047980000
11
114.0168030000
21
112.9047980000
0
LINE
5
71D
100
AcDbEntity
8
025
100
AcDbLine
62
4
6
CONTINUOUS
10
113.8094280000
20
112.9047980000
11
113.4339130000
21
113.3047980000
0
LINE
5
71E
100
AcDbEntity
8
025
100
AcDbLine
62
4
6
CONTINUOUS
10
113.6243610000
20
113.3047980000
11
114.1459870000
21
112.9047980000
0
LINE
5
71F
100
AcDbEntity
8
025
100
AcDbLine
62
4
6
CONTINUOUS
10
114.0764970000
20
112.9047980000
11
113.6243610000
21
113.3047980000
0
LINE
5
720
100
AcDbEntity
8
025
100
AcDbLine
62
4
6
CONTINUOUS
10
113.0560210000
20
113.3047980000
11
113.6909820000
21
112.9047980000
0
LINE
5
721
100
AcDbEntity
8
025
100
AcDbLine
62
4
6
CONTINUOUS
10
113.3489930000
20
112.9047980000
11
113.0560210000
21
113.3047980000
0
LINE
5
722
100
AcDbEntity
8
025
100
AcDbLine
62
4
6
CONTINUOUS
10
112.4966450000
20
113.3047980000
11
113.1736640000
21
112.9047980000
0
LINE
5
723
100
AcDbEntity
8
025
100
AcDbLine
62
4
6
CONTINUOUS
10
112.7024540000
20
112.9047980000
11
112.4966450000
21
113.3047980000
0
LINE
5
724
100
AcDbEntity
8
025
100
AcDbLine
62
4
6
CONTINUOUS
10
111.7646050000
20
113.3047980000
11
112.4730050000
21
112.9047980000
0
LINE
5
725
100
AcDbEntity
8
025
100
AcDbLine
62
4
6
CONTINUOUS
10
111.8800060000
20
112.9047980000
11
111.7646050000
21
113.3047980000
0
LINE
5
726
100
AcDbEntity
8
025
100
AcDbLine
62
4
6
CONTINUOUS
10
110.8714480000
20
113.3047980000
11
111.6000560000
21
112.9047980000
0
LINE
5
727
100
AcDbEntity
8
025
100
AcDbLine
62
4
6
CONTINUOUS
10
110.8714480000
20
113.3047980000
11
110.8946190000
21
112.9047980000
0
LINE
5
728
100
AcDbEntity
8
025
100
AcDbLine
62
4
6
CONTINUOUS
10
104.5573850000
20
113.3047980000
11
105.2146720000
21
112.9047980000
0
LINE
5
729
100
AcDbEntity
8
025
100
AcDbLine
62
4
6
CONTINUOUS
10
104.1427410000
20
112.9047980000
11
104.5573850000
21
113.3047980000
0
LINE
5
72A
100
AcDbEntity
8
025
100
AcDbLine
62
4
6
CONTINUOUS
10
109.8312570000
20
113.3047980000
11
110.5685840000
21
112.9047980000
0
LINE
5
72B
100
AcDbEntity
8
025
100
AcDbLine
62
4
6
CONTINUOUS
10
109.7618350000
20
112.9047980000
11
109.8312570000
21
113.3047980000
0
LINE
5
72C
100
AcDbEntity
8
025
100
AcDbLine
62
4
6
CONTINUOUS
10
108.6604390000
20
113.3047980000
11
109.3948560000
21
112.9047980000
0
LINE
5
72D
100
AcDbEntity
8
025
100
AcDbLine
62
4
6
CONTINUOUS
10
108.4995170000
20
112.9047980000
11
108.6604390000
21
113.3047980000
0
LINE
5
72E
100
AcDbEntity
8
025
100
AcDbLine
62
4
6
CONTINUOUS
10
107.3774570000
20
113.3047980000
11
108.0973810000
21
112.9047980000
0
LINE
5
72F
100
AcDbEntity
8
025
100
AcDbLine
62
4
6
CONTINUOUS
10
107.1275730000
20
112.9047980000
11
107.3774570000
21
113.3047980000
0
LINE
5
730
100
AcDbEntity
8
025
100
AcDbLine
62
4
6
CONTINUOUS
10
106.0025440000
20
113.3047980000
11
106.6966230000
21
112.9047980000
0
LINE
5
731
100
AcDbEntity
8
025
100
AcDbLine
62
4
6
CONTINUOUS
10
105.6676400000
20
112.9047980000
11
106.0025440000
21
113.3047980000
0
LINE
5
732
100
AcDbEntity
8
025
100
AcDbLine
62
4
6
CONTINUOUS
10
114.0764970000
20
112.9047980000
11
114.0168030000
21
112.9047980000
0
LINE
5
733
100
AcDbEntity
8
025
100
AcDbLine
62
4
6
CONTINUOUS
10
114.1482370000
20
112.9047980000
11
114.1459870000
21
112.9047980000
0
LINE
5
734
100
AcDbEntity
8
025
100
AcDbLine
62
4
6
CONTINUOUS
10
113.8094280000
20
112.9047980000
11
113.6909820000
21
112.9047980000
0
LINE
5
735
100
AcDbEntity
8
025
100
AcDbLine
62
4
6
CONTINUOUS
10
113.3489930000
20
112.9047980000
11
113.1736640000
21
112.9047980000
0
LINE
5
736
100
AcDbEntity
8
025
100
AcDbLine
62
4
6
CONTINUOUS
10
112.7024540000
20
112.9047980000
11
112.4730050000
21
112.9047980000
0
LINE
5
737
100
AcDbEntity
8
025
100
AcDbLine
62
4
6
CONTINUOUS
10
111.8800060000
20
112.9047980000
11
111.6000560000
21
112.9047980000
0
LINE
5
738
100
AcDbEntity
8
025
100
AcDbLine
62
4
6
CONTINUOUS
10
110.8946190000
20
112.9047980000
11
110.5685840000
21
112.9047980000
0
LINE
5
739
100
AcDbEntity
8
025
100
AcDbLine
62
4
6
CONTINUOUS
10
109.7618350000
20
112.9047980000
11
109.3948560000
21
112.9047980000
0
LINE
5
73A
100
AcDbEntity
8
025
100
AcDbLine
62
4
6
CONTINUOUS
10
108.4995170000
20
112.9047980000
11
108.0973810000
21
112.9047980000
0
LINE
5
73B
100
AcDbEntity
8
025
100
AcDbLine
62
4
6
CONTINUOUS
10
107.1275730000
20
112.9047980000
11
106.6966230000
21
112.9047980000
0
LINE
5
73C
100
AcDbEntity
8
025
100
AcDbLine
62
4
6
CONTINUOUS
10
105.6676400000
20
112.9047980000
11
105.2146720000
21
112.9047980000
0
LINE
5
73D
100
AcDbEntity
8
025
100
AcDbLine
62
4
6
CONTINUOUS
10
103.6748990000
20
97.9047980000
11
103.6748990000
21
104.4047980000
0
LINE
5
73E
100
AcDbEntity
8
025
100
AcDbLine
62
4
6
CONTINUOUS
10
103.0647700000
20
97.5047980000
11
103.0647700000
21
104.8047980000
0
LINE
5
73F
100
AcDbEntity
8
025
100
AcDbLine
62
4
6
CONTINUOUS
10
102.5769260000
20
97.9047980000
11
102.5769260000
21
104.4047980000
0
LINE
5
740
100
AcDbEntity
8
025
100
AcDbLine
62
4
6
CONTINUOUS
10
102.1015870000
20
97.9047980000
11
102.1015870000
21
104.4047980000
0
LINE
5
741
100
AcDbEntity
8
025
100
AcDbLine
62
4
6
CONTINUOUS
10
101.5482370000
20
97.5047980000
11
101.5482370000
21
104.8047980000
0
LINE
5
742
100
AcDbEntity
8
025
100
AcDbLine
62
4
6
CONTINUOUS
10
93.2652170000
20
97.5047980000
11
93.2652170000
21
104.8047980000
0
LINE
5
743
100
AcDbEntity
8
025
100
AcDbLine
62
4
6
CONTINUOUS
10
94.4360360000
20
97.5047980000
11
94.4360360000
21
104.8047980000
0
LINE
5
744
100
AcDbEntity
8
025
100
AcDbLine
62
4
6
CONTINUOUS
10
95.7190180000
20
97.5047980000
11
95.7190180000
21
104.8047980000
0
LINE
5
745
100
AcDbEntity
8
025
100
AcDbLine
62
4
6
CONTINUOUS
10
97.0939300000
20
97.5047980000
11
97.0939300000
21
104.8047980000
0
LINE
5
746
100
AcDbEntity
8
025
100
AcDbLine
62
4
6
CONTINUOUS
10
98.5390900000
20
97.5047980000
11
98.5390900000
21
104.8047980000
0
LINE
5
747
100
AcDbEntity
8
025
100
AcDbLine
62
4
6
CONTINUOUS
10
100.0317050000
20
97.5047980000
11
100.0317050000
21
104.8047980000
0
LINE
5
748
100
AcDbEntity
8
025
100
AcDbLine
62
4
6
CONTINUOUS
10
101.5482370000
20
97.5047980000
11
101.5482370000
21
104.8047980000
0
LINE
5
749
100
AcDbEntity
8
025
100
AcDbLine
62
4
6
CONTINUOUS
10
93.3346400000
20
97.9047980000
11
93.3346400000
21
104.4047980000
0
LINE
5
74A
100
AcDbEntity
8
025
100
AcDbLine
62
4
6
CONTINUOUS
10
93.7016190000
20
97.9047980000
11
93.7016190000
21
104.4047980000
0
LINE
5
74B
100
AcDbEntity
8
025
100
AcDbLine
62
4
6
CONTINUOUS
10
94.5969580000
20
97.9047980000
11
94.5969580000
21
104.4047980000
0
LINE
5
74C
100
AcDbEntity
8
025
100
AcDbLine
62
4
6
CONTINUOUS
10
94.9990930000
20
97.9047980000
11
94.9990930000
21
104.4047980000
0
LINE
5
74D
100
AcDbEntity
8
025
100
AcDbLine
62
4
6
CONTINUOUS
10
95.9689020000
20
97.9047980000
11
95.9689020000
21
104.4047980000
0
LINE
5
74E
100
AcDbEntity
8
025
100
AcDbLine
62
4
6
CONTINUOUS
10
96.3998510000
20
97.9047980000
11
96.3998510000
21
104.4047980000
0
LINE
5
74F
100
AcDbEntity
8
025
100
AcDbLine
62
4
6
CONTINUOUS
10
97.4288350000
20
97.9047980000
11
97.4288350000
21
104.4047980000
0
LINE
5
750
100
AcDbEntity
8
025
100
AcDbLine
62
4
6
CONTINUOUS
10
97.8818030000
20
97.9047980000
11
97.8818030000
21
104.4047980000
0
LINE
5
751
100
AcDbEntity
8
025
100
AcDbLine
62
4
6
CONTINUOUS
10
98.9537330000
20
97.9047980000
11
98.9537330000
21
104.4047980000
0
LINE
5
752
100
AcDbEntity
8
025
100
AcDbLine
62
4
6
CONTINUOUS
10
99.4215760000
20
97.9047980000
11
99.4215760000
21
104.4047980000
0
LINE
5
753
100
AcDbEntity
8
025
100
AcDbLine
62
4
6
CONTINUOUS
10
100.5195490000
20
97.9047980000
11
100.5195490000
21
104.4047980000
0
LINE
5
754
100
AcDbEntity
8
025
100
AcDbLine
62
4
6
CONTINUOUS
10
100.9948880000
20
97.9047980000
11
100.9948880000
21
104.4047980000
0
LINE
5
755
100
AcDbEntity
8
025
100
AcDbLine
62
4
6
CONTINUOUS
10
88.9504880000
20
97.9047980000
11
88.9504880000
21
104.4047980000
0
LINE
5
756
100
AcDbEntity
8
025
100
AcDbLine
62
4
6
CONTINUOUS
10
92.5278910000
20
97.9047980000
11
92.5278910000
21
104.4047980000
0
LINE
5
757
100
AcDbEntity
8
025
100
AcDbLine
62
4
6
CONTINUOUS
10
92.2018560000
20
97.9047980000
11
92.2018560000
21
104.4047980000
0
LINE
5
758
100
AcDbEntity
8
025
100
AcDbLine
62
4
6
CONTINUOUS
10
91.4964190000
20
97.9047980000
11
91.4964190000
21
104.4047980000
0
LINE
5
759
100
AcDbEntity
8
025
100
AcDbLine
62
4
6
CONTINUOUS
10
91.2164690000
20
97.9047980000
11
91.2164690000
21
104.4047980000
0
LINE
5
75A
100
AcDbEntity
8
025
100
AcDbLine
62
4
6
CONTINUOUS
10
90.6234700000
20
97.9047980000
11
90.6234700000
21
104.4047980000
0
LINE
5
75B
100
AcDbEntity
8
025
100
AcDbLine
62
4
6
CONTINUOUS
10
90.3940210000
20
97.9047980000
11
90.3940210000
21
104.4047980000
0
LINE
5
75C
100
AcDbEntity
8
025
100
AcDbLine
62
4
6
CONTINUOUS
10
89.9228110000
20
97.9047980000
11
89.9228110000
21
104.4047980000
0
LINE
5
75D
100
AcDbEntity
8
025
100
AcDbLine
62
4
6
CONTINUOUS
10
89.7474810000
20
97.9047980000
11
89.7474810000
21
104.4047980000
0
LINE
5
75E
100
AcDbEntity
8
025
100
AcDbLine
62
4
6
CONTINUOUS
10
89.4054920000
20
97.9047980000
11
89.4054920000
21
104.4047980000
0
LINE
5
75F
100
AcDbEntity
8
025
100
AcDbLine
62
4
6
CONTINUOUS
10
89.2870470000
20
97.9047980000
11
89.2870470000
21
104.4047980000
0
LINE
5
760
100
AcDbEntity
8
025
100
AcDbLine
62
4
6
CONTINUOUS
10
89.0796720000
20
97.9047980000
11
89.0796720000
21
104.4047980000
0
LINE
5
761
100
AcDbEntity
8
025
100
AcDbLine
62
4
6
CONTINUOUS
10
89.0199780000
20
97.9047980000
11
89.0199780000
21
104.4047980000
0
LINE
5
762
100
AcDbEntity
8
025
100
AcDbLine
62
4
6
CONTINUOUS
10
88.9482370000
20
97.9047980000
11
88.9482370000
21
104.4047980000
0
LINE
5
763
100
AcDbEntity
8
025
100
AcDbLine
62
4
6
CONTINUOUS
10
92.2018560000
20
97.9047980000
11
92.5278910000
21
97.9047980000
0
LINE
5
764
100
AcDbEntity
8
025
100
AcDbLine
62
4
6
CONTINUOUS
10
98.5390900000
20
97.5047980000
11
97.8818030000
21
97.9047980000
0
LINE
5
765
100
AcDbEntity
8
025
100
AcDbLine
62
4
6
CONTINUOUS
10
101.5482370000
20
97.5047980000
11
102.1015870000
21
97.9047980000
0
LINE
5
766
100
AcDbEntity
8
025
100
AcDbLine
62
4
6
CONTINUOUS
10
103.0647700000
20
97.5047980000
11
102.5769260000
21
97.9047980000
0
LINE
5
767
100
AcDbEntity
8
025
100
AcDbLine
62
4
6
CONTINUOUS
10
103.0647700000
20
97.5047980000
11
103.6748990000
21
97.9047980000
0
LINE
5
768
100
AcDbEntity
8
025
100
AcDbLine
62
4
6
CONTINUOUS
10
102.5769260000
20
97.9047980000
11
102.1015870000
21
97.9047980000
0
LINE
5
769
100
AcDbEntity
8
025
100
AcDbLine
62
4
6
CONTINUOUS
10
98.9537330000
20
97.9047980000
11
99.4215760000
21
97.9047980000
0
LINE
5
76A
100
AcDbEntity
8
025
100
AcDbLine
62
4
6
CONTINUOUS
10
100.5195490000
20
97.9047980000
11
100.9948880000
21
97.9047980000
0
LINE
5
76B
100
AcDbEntity
8
025
100
AcDbLine
62
4
6
CONTINUOUS
10
98.9537330000
20
97.9047980000
11
98.5390900000
21
97.5047980000
0
LINE
5
76C
100
AcDbEntity
8
025
100
AcDbLine
62
4
6
CONTINUOUS
10
100.0317050000
20
97.5047980000
11
99.4215760000
21
97.9047980000
0
LINE
5
76D
100
AcDbEntity
8
025
100
AcDbLine
62
4
6
CONTINUOUS
10
100.0317050000
20
97.5047980000
11
100.5195490000
21
97.9047980000
0
LINE
5
76E
100
AcDbEntity
8
025
100
AcDbLine
62
4
6
CONTINUOUS
10
101.5482370000
20
97.5047980000
11
100.9948880000
21
97.9047980000
0
LINE
5
76F
100
AcDbEntity
8
025
100
AcDbLine
62
4
6
CONTINUOUS
10
93.3346400000
20
97.9047980000
11
93.7016190000
21
97.9047980000
0
LINE
5
770
100
AcDbEntity
8
025
100
AcDbLine
62
4
6
CONTINUOUS
10
94.5969580000
20
97.9047980000
11
94.9990930000
21
97.9047980000
0
LINE
5
771
100
AcDbEntity
8
025
100
AcDbLine
62
4
6
CONTINUOUS
10
95.9689020000
20
97.9047980000
11
96.3998510000
21
97.9047980000
0
LINE
5
772
100
AcDbEntity
8
025
100
AcDbLine
62
4
6
CONTINUOUS
10
97.4288350000
20
97.9047980000
11
97.8818030000
21
97.9047980000
0
LINE
5
773
100
AcDbEntity
8
025
100
AcDbLine
62
4
6
CONTINUOUS
10
93.2652170000
20
97.5047980000
11
92.5278910000
21
97.9047980000
0
LINE
5
774
100
AcDbEntity
8
025
100
AcDbLine
62
4
6
CONTINUOUS
10
93.3346400000
20
97.9047980000
11
93.2652170000
21
97.5047980000
0
LINE
5
775
100
AcDbEntity
8
025
100
AcDbLine
62
4
6
CONTINUOUS
10
94.4360360000
20
97.5047980000
11
93.7016190000
21
97.9047980000
0
LINE
5
776
100
AcDbEntity
8
025
100
AcDbLine
62
4
6
CONTINUOUS
10
94.5969580000
20
97.9047980000
11
94.4360360000
21
97.5047980000
0
LINE
5
777
100
AcDbEntity
8
025
100
AcDbLine
62
4
6
CONTINUOUS
10
95.7190180000
20
97.5047980000
11
94.9990930000
21
97.9047980000
0
LINE
5
778
100
AcDbEntity
8
025
100
AcDbLine
62
4
6
CONTINUOUS
10
95.9689020000
20
97.9047980000
11
95.7190180000
21
97.5047980000
0
LINE
5
779
100
AcDbEntity
8
025
100
AcDbLine
62
4
6
CONTINUOUS
10
97.0939300000
20
97.5047980000
11
96.3998510000
21
97.9047980000
0
LINE
5
77A
100
AcDbEntity
8
025
100
AcDbLine
62
4
6
CONTINUOUS
10
97.4288350000
20
97.9047980000
11
97.0939300000
21
97.5047980000
0
LINE
5
77B
100
AcDbEntity
8
025
100
AcDbLine
62
4
6
CONTINUOUS
10
89.0199780000
20
97.9047980000
11
89.0796720000
21
97.9047980000
0
LINE
5
77C
100
AcDbEntity
8
025
100
AcDbLine
62
4
6
CONTINUOUS
10
89.2870470000
20
97.9047980000
11
89.4054920000
21
97.9047980000
0
LINE
5
77D
100
AcDbEntity
8
025
100
AcDbLine
62
4
6
CONTINUOUS
10
89.7474810000
20
97.9047980000
11
89.9228110000
21
97.9047980000
0
LINE
5
77E
100
AcDbEntity
8
025
100
AcDbLine
62
4
6
CONTINUOUS
10
90.3940210000
20
97.9047980000
11
90.6234700000
21
97.9047980000
0
LINE
5
77F
100
AcDbEntity
8
025
100
AcDbLine
62
4
6
CONTINUOUS
10
91.2164690000
20
97.9047980000
11
91.4964190000
21
97.9047980000
0
LINE
5
780
100
AcDbEntity
8
025
100
AcDbLine
62
4
6
CONTINUOUS
10
89.6625620000
20
97.5047980000
11
89.0796720000
21
97.9047980000
0
LINE
5
781
100
AcDbEntity
8
025
100
AcDbLine
62
4
6
CONTINUOUS
10
89.2870470000
20
97.9047980000
11
89.6625620000
21
97.5047980000
0
LINE
5
782
100
AcDbEntity
8
025
100
AcDbLine
62
4
6
CONTINUOUS
10
89.4721140000
20
97.5047980000
11
88.9504880000
21
97.9047980000
0
LINE
5
783
100
AcDbEntity
8
025
100
AcDbLine
62
4
6
CONTINUOUS
10
89.0199780000
20
97.9047980000
11
89.4721140000
21
97.5047980000
0
LINE
5
784
100
AcDbEntity
8
025
100
AcDbLine
62
4
6
CONTINUOUS
10
90.0404540000
20
97.5047980000
11
89.4054920000
21
97.9047980000
0
LINE
5
785
100
AcDbEntity
8
025
100
AcDbLine
62
4
6
CONTINUOUS
10
89.7474810000
20
97.9047980000
11
90.0404540000
21
97.5047980000
0
LINE
5
786
100
AcDbEntity
8
025
100
AcDbLine
62
4
6
CONTINUOUS
10
90.5998300000
20
97.5047980000
11
89.9228110000
21
97.9047980000
0
LINE
5
787
100
AcDbEntity
8
025
100
AcDbLine
62
4
6
CONTINUOUS
10
90.3940210000
20
97.9047980000
11
90.5998300000
21
97.5047980000
0
LINE
5
788
100
AcDbEntity
8
025
100
AcDbLine
62
4
6
CONTINUOUS
10
91.3318690000
20
97.5047980000
11
90.6234700000
21
97.9047980000
0
LINE
5
789
100
AcDbEntity
8
025
100
AcDbLine
62
4
6
CONTINUOUS
10
91.2164690000
20
97.9047980000
11
91.3318690000
21
97.5047980000
0
LINE
5
78A
100
AcDbEntity
8
025
100
AcDbLine
62
4
6
CONTINUOUS
10
92.2250270000
20
97.5047980000
11
91.4964190000
21
97.9047980000
0
LINE
5
78B
100
AcDbEntity
8
025
100
AcDbLine
62
4
6
CONTINUOUS
10
88.9482370000
20
97.9047980000
11
88.9504880000
21
97.9047980000
0
LINE
5
78C
100
AcDbEntity
8
025
100
AcDbLine
62
4
6
CONTINUOUS
10
92.2250270000
20
97.5047980000
11
92.2018560000
21
97.9047980000
0
LINE
5
78D
100
AcDbEntity
8
025
100
AcDbLine
62
4
6
CONTINUOUS
10
103.6748990000
20
106.4047980000
11
103.6748990000
21
112.9047980000
0
LINE
5
78E
100
AcDbEntity
8
025
100
AcDbLine
62
4
6
CONTINUOUS
10
102.5769260000
20
106.4047980000
11
102.5769260000
21
112.9047980000
0
LINE
5
78F
100
AcDbEntity
8
025
100
AcDbLine
62
4
6
CONTINUOUS
10
102.1015870000
20
106.4047980000
11
102.1015870000
21
112.9047980000
0
LINE
5
790
100
AcDbEntity
8
025
100
AcDbLine
62
4
6
CONTINUOUS
10
103.0647700000
20
106.0047980000
11
103.0647700000
21
113.3047980000
0
LINE
5
791
100
AcDbEntity
8
025
100
AcDbLine
62
4
6
CONTINUOUS
10
101.5482370000
20
106.0047980000
11
101.5482370000
21
113.3047980000
0
LINE
5
792
100
AcDbEntity
8
025
100
AcDbLine
62
4
6
CONTINUOUS
10
101.5482370000
20
106.0047980000
11
101.5482370000
21
113.3047980000
0
LINE
5
793
100
AcDbEntity
8
025
100
AcDbLine
62
4
6
CONTINUOUS
10
100.9948880000
20
106.4047980000
11
100.9948880000
21
112.9047980000
0
LINE
5
794
100
AcDbEntity
8
025
100
AcDbLine
62
4
6
CONTINUOUS
10
100.5195490000
20
106.4047980000
11
100.5195490000
21
112.9047980000
0
LINE
5
795
100
AcDbEntity
8
025
100
AcDbLine
62
4
6
CONTINUOUS
10
100.0317050000
20
106.0047980000
11
100.0317050000
21
113.3047980000
0
LINE
5
796
100
AcDbEntity
8
025
100
AcDbLine
62
4
6
CONTINUOUS
10
99.4215760000
20
106.4047980000
11
99.4215760000
21
112.9047980000
0
LINE
5
797
100
AcDbEntity
8
025
100
AcDbLine
62
4
6
CONTINUOUS
10
98.9537330000
20
106.4047980000
11
98.9537330000
21
112.9047980000
0
LINE
5
798
100
AcDbEntity
8
025
100
AcDbLine
62
4
6
CONTINUOUS
10
98.5390900000
20
106.0047980000
11
98.5390900000
21
113.3047980000
0
LINE
5
799
100
AcDbEntity
8
025
100
AcDbLine
62
4
6
CONTINUOUS
10
97.8818030000
20
106.4047980000
11
97.8818030000
21
112.9047980000
0
LINE
5
79A
100
AcDbEntity
8
025
100
AcDbLine
62
4
6
CONTINUOUS
10
97.4288350000
20
106.4047980000
11
97.4288350000
21
112.9047980000
0
LINE
5
79B
100
AcDbEntity
8
025
100
AcDbLine
62
4
6
CONTINUOUS
10
97.0939300000
20
106.0047980000
11
97.0939300000
21
113.3047980000
0
LINE
5
79C
100
AcDbEntity
8
025
100
AcDbLine
62
4
6
CONTINUOUS
10
96.3998510000
20
106.4047980000
11
96.3998510000
21
112.9047980000
0
LINE
5
79D
100
AcDbEntity
8
025
100
AcDbLine
62
4
6
CONTINUOUS
10
95.9689020000
20
106.4047980000
11
95.9689020000
21
112.9047980000
0
LINE
5
79E
100
AcDbEntity
8
025
100
AcDbLine
62
4
6
CONTINUOUS
10
95.7190180000
20
106.0047980000
11
95.7190180000
21
113.3047980000
0
LINE
5
79F
100
AcDbEntity
8
025
100
AcDbLine
62
4
6
CONTINUOUS
10
94.9990930000
20
106.4047980000
11
94.9990930000
21
112.9047980000
0
LINE
5
7A0
100
AcDbEntity
8
025
100
AcDbLine
62
4
6
CONTINUOUS
10
94.5969580000
20
106.4047980000
11
94.5969580000
21
112.9047980000
0
LINE
5
7A1
100
AcDbEntity
8
025
100
AcDbLine
62
4
6
CONTINUOUS
10
94.4360360000
20
106.0047980000
11
94.4360360000
21
113.3047980000
0
LINE
5
7A2
100
AcDbEntity
8
025
100
AcDbLine
62
4
6
CONTINUOUS
10
93.7016190000
20
106.4047980000
11
93.7016190000
21
112.9047980000
0
LINE
5
7A3
100
AcDbEntity
8
025
100
AcDbLine
62
4
6
CONTINUOUS
10
93.3346400000
20
106.4047980000
11
93.3346400000
21
112.9047980000
0
LINE
5
7A4
100
AcDbEntity
8
025
100
AcDbLine
62
4
6
CONTINUOUS
10
93.2652170000
20
106.0047980000
11
93.2652170000
21
113.3047980000
0
LINE
5
7A5
100
AcDbEntity
8
025
100
AcDbLine
62
4
6
CONTINUOUS
10
92.5278910000
20
106.4047980000
11
92.5278910000
21
112.9047980000
0
LINE
5
7A6
100
AcDbEntity
8
025
100
AcDbLine
62
4
6
CONTINUOUS
10
92.2018560000
20
106.4047980000
11
92.2018560000
21
112.9047980000
0
LINE
5
7A7
100
AcDbEntity
8
025
100
AcDbLine
62
4
6
CONTINUOUS
10
91.4964190000
20
106.4047980000
11
91.4964190000
21
112.9047980000
0
LINE
5
7A8
100
AcDbEntity
8
025
100
AcDbLine
62
4
6
CONTINUOUS
10
91.2164690000
20
106.4047980000
11
91.2164690000
21
112.9047980000
0
LINE
5
7A9
100
AcDbEntity
8
025
100
AcDbLine
62
4
6
CONTINUOUS
10
90.6234700000
20
106.4047980000
11
90.6234700000
21
112.9047980000
0
LINE
5
7AA
100
AcDbEntity
8
025
100
AcDbLine
62
4
6
CONTINUOUS
10
90.3940210000
20
106.4047980000
11
90.3940210000
21
112.9047980000
0
LINE
5
7AB
100
AcDbEntity
8
025
100
AcDbLine
62
4
6
CONTINUOUS
10
89.9228110000
20
106.4047980000
11
89.9228110000
21
112.9047980000
0
LINE
5
7AC
100
AcDbEntity
8
025
100
AcDbLine
62
4
6
CONTINUOUS
10
89.7474810000
20
106.4047980000
11
89.7474810000
21
112.9047980000
0
LINE
5
7AD
100
AcDbEntity
8
025
100
AcDbLine
62
4
6
CONTINUOUS
10
89.4054920000
20
106.4047980000
11
89.4054920000
21
112.9047980000
0
LINE
5
7AE
100
AcDbEntity
8
025
100
AcDbLine
62
4
6
CONTINUOUS
10
89.2870470000
20
106.4047980000
11
89.2870470000
21
112.9047980000
0
LINE
5
7AF
100
AcDbEntity
8
025
100
AcDbLine
62
4
6
CONTINUOUS
10
89.0796720000
20
106.4047980000
11
89.0796720000
21
112.9047980000
0
LINE
5
7B0
100
AcDbEntity
8
025
100
AcDbLine
62
4
6
CONTINUOUS
10
89.0199780000
20
106.4047980000
11
89.0199780000
21
112.9047980000
0
LINE
5
7B1
100
AcDbEntity
8
025
100
AcDbLine
62
4
6
CONTINUOUS
10
88.9482370000
20
106.4047980000
11
88.9482370000
21
112.9047980000
0
LINE
5
7B2
100
AcDbEntity
8
025
100
AcDbLine
62
4
6
CONTINUOUS
10
88.9504880000
20
106.4047980000
11
88.9504880000
21
112.9047980000
0
LINE
5
7B3
100
AcDbEntity
8
025
100
AcDbLine
62
4
6
CONTINUOUS
10
92.2018560000
20
106.4047980000
11
92.5278910000
21
106.4047980000
0
LINE
5
7B4
100
AcDbEntity
8
025
100
AcDbLine
62
4
6
CONTINUOUS
10
92.2018560000
20
104.4047980000
11
92.5278910000
21
104.4047980000
0
LINE
5
7B5
100
AcDbEntity
8
025
100
AcDbLine
62
4
6
CONTINUOUS
10
98.5390900000
20
104.8047980000
11
97.8818030000
21
104.4047980000
0
LINE
5
7B6
100
AcDbEntity
8
025
100
AcDbLine
62
4
6
CONTINUOUS
10
101.5482370000
20
104.8047980000
11
102.1015870000
21
104.4047980000
0
LINE
5
7B7
100
AcDbEntity
8
025
100
AcDbLine
62
4
6
CONTINUOUS
10
103.0647700000
20
104.8047980000
11
102.5769260000
21
104.4047980000
0
LINE
5
7B8
100
AcDbEntity
8
025
100
AcDbLine
62
4
6
CONTINUOUS
10
103.0647700000
20
104.8047980000
11
103.6748990000
21
104.4047980000
0
LINE
5
7B9
100
AcDbEntity
8
025
100
AcDbLine
62
4
6
CONTINUOUS
10
102.5769260000
20
104.4047980000
11
102.1015870000
21
104.4047980000
0
LINE
5
7BA
100
AcDbEntity
8
025
100
AcDbLine
62
4
6
CONTINUOUS
10
98.9537330000
20
104.4047980000
11
99.4215760000
21
104.4047980000
0
LINE
5
7BB
100
AcDbEntity
8
025
100
AcDbLine
62
4
6
CONTINUOUS
10
100.5195490000
20
104.4047980000
11
100.9948880000
21
104.4047980000
0
LINE
5
7BC
100
AcDbEntity
8
025
100
AcDbLine
62
4
6
CONTINUOUS
10
98.9537330000
20
104.4047980000
11
98.5390900000
21
104.8047980000
0
LINE
5
7BD
100
AcDbEntity
8
025
100
AcDbLine
62
4
6
CONTINUOUS
10
100.0317050000
20
104.8047980000
11
99.4215760000
21
104.4047980000
0
LINE
5
7BE
100
AcDbEntity
8
025
100
AcDbLine
62
4
6
CONTINUOUS
10
100.0317050000
20
104.8047980000
11
100.5195490000
21
104.4047980000
0
LINE
5
7BF
100
AcDbEntity
8
025
100
AcDbLine
62
4
6
CONTINUOUS
10
101.5482370000
20
104.8047980000
11
100.9948880000
21
104.4047980000
0
LINE
5
7C0
100
AcDbEntity
8
025
100
AcDbLine
62
4
6
CONTINUOUS
10
93.3346400000
20
104.4047980000
11
93.7016190000
21
104.4047980000
0
LINE
5
7C1
100
AcDbEntity
8
025
100
AcDbLine
62
4
6
CONTINUOUS
10
94.5969580000
20
104.4047980000
11
94.9990930000
21
104.4047980000
0
LINE
5
7C2
100
AcDbEntity
8
025
100
AcDbLine
62
4
6
CONTINUOUS
10
95.9689020000
20
104.4047980000
11
96.3998510000
21
104.4047980000
0
LINE
5
7C3
100
AcDbEntity
8
025
100
AcDbLine
62
4
6
CONTINUOUS
10
97.4288350000
20
104.4047980000
11
97.8818030000
21
104.4047980000
0
LINE
5
7C4
100
AcDbEntity
8
025
100
AcDbLine
62
4
6
CONTINUOUS
10
93.2652170000
20
104.8047980000
11
92.5278910000
21
104.4047980000
0
LINE
5
7C5
100
AcDbEntity
8
025
100
AcDbLine
62
4
6
CONTINUOUS
10
93.3346400000
20
104.4047980000
11
93.2652170000
21
104.8047980000
0
LINE
5
7C6
100
AcDbEntity
8
025
100
AcDbLine
62
4
6
CONTINUOUS
10
94.4360360000
20
104.8047980000
11
93.7016190000
21
104.4047980000
0
LINE
5
7C7
100
AcDbEntity
8
025
100
AcDbLine
62
4
6
CONTINUOUS
10
94.5969580000
20
104.4047980000
11
94.4360360000
21
104.8047980000
0
LINE
5
7C8
100
AcDbEntity
8
025
100
AcDbLine
62
4
6
CONTINUOUS
10
95.7190180000
20
104.8047980000
11
94.9990930000
21
104.4047980000
0
LINE
5
7C9
100
AcDbEntity
8
025
100
AcDbLine
62
4
6
CONTINUOUS
10
95.9689020000
20
104.4047980000
11
95.7190180000
21
104.8047980000
0
LINE
5
7CA
100
AcDbEntity
8
025
100
AcDbLine
62
4
6
CONTINUOUS
10
97.0939300000
20
104.8047980000
11
96.3998510000
21
104.4047980000
0
LINE
5
7CB
100
AcDbEntity
8
025
100
AcDbLine
62
4
6
CONTINUOUS
10
97.4288350000
20
104.4047980000
11
97.0939300000
21
104.8047980000
0
LINE
5
7CC
100
AcDbEntity
8
025
100
AcDbLine
62
4
6
CONTINUOUS
10
98.5390900000
20
106.0047980000
11
97.8818030000
21
106.4047980000
0
LINE
5
7CD
100
AcDbEntity
8
025
100
AcDbLine
62
4
6
CONTINUOUS
10
102.5769260000
20
106.4047980000
11
102.1015870000
21
106.4047980000
0
LINE
5
7CE
100
AcDbEntity
8
025
100
AcDbLine
62
4
6
CONTINUOUS
10
103.0647700000
20
106.0047980000
11
103.6748990000
21
106.4047980000
0
LINE
5
7CF
100
AcDbEntity
8
025
100
AcDbLine
62
4
6
CONTINUOUS
10
103.0647700000
20
106.0047980000
11
102.5769260000
21
106.4047980000
0
LINE
5
7D0
100
AcDbEntity
8
025
100
AcDbLine
62
4
6
CONTINUOUS
10
101.5482370000
20
106.0047980000
11
102.1015870000
21
106.4047980000
0
LINE
5
7D1
100
AcDbEntity
8
025
100
AcDbLine
62
4
6
CONTINUOUS
10
101.5482370000
20
106.0047980000
11
100.9948880000
21
106.4047980000
0
LINE
5
7D2
100
AcDbEntity
8
025
100
AcDbLine
62
4
6
CONTINUOUS
10
100.0317050000
20
106.0047980000
11
100.5195490000
21
106.4047980000
0
LINE
5
7D3
100
AcDbEntity
8
025
100
AcDbLine
62
4
6
CONTINUOUS
10
100.0317050000
20
106.0047980000
11
99.4215760000
21
106.4047980000
0
LINE
5
7D4
100
AcDbEntity
8
025
100
AcDbLine
62
4
6
CONTINUOUS
10
98.9537330000
20
106.4047980000
11
98.5390900000
21
106.0047980000
0
LINE
5
7D5
100
AcDbEntity
8
025
100
AcDbLine
62
4
6
CONTINUOUS
10
100.5195490000
20
106.4047980000
11
100.9948880000
21
106.4047980000
0
LINE
5
7D6
100
AcDbEntity
8
025
100
AcDbLine
62
4
6
CONTINUOUS
10
98.9537330000
20
106.4047980000
11
99.4215760000
21
106.4047980000
0
LINE
5
7D7
100
AcDbEntity
8
025
100
AcDbLine
62
4
6
CONTINUOUS
10
97.4288350000
20
106.4047980000
11
97.0939300000
21
106.0047980000
0
LINE
5
7D8
100
AcDbEntity
8
025
100
AcDbLine
62
4
6
CONTINUOUS
10
97.0939300000
20
106.0047980000
11
96.3998510000
21
106.4047980000
0
LINE
5
7D9
100
AcDbEntity
8
025
100
AcDbLine
62
4
6
CONTINUOUS
10
95.9689020000
20
106.4047980000
11
95.7190180000
21
106.0047980000
0
LINE
5
7DA
100
AcDbEntity
8
025
100
AcDbLine
62
4
6
CONTINUOUS
10
95.7190180000
20
106.0047980000
11
94.9990930000
21
106.4047980000
0
LINE
5
7DB
100
AcDbEntity
8
025
100
AcDbLine
62
4
6
CONTINUOUS
10
94.5969580000
20
106.4047980000
11
94.4360360000
21
106.0047980000
0
LINE
5
7DC
100
AcDbEntity
8
025
100
AcDbLine
62
4
6
CONTINUOUS
10
94.4360360000
20
106.0047980000
11
93.7016190000
21
106.4047980000
0
LINE
5
7DD
100
AcDbEntity
8
025
100
AcDbLine
62
4
6
CONTINUOUS
10
93.3346400000
20
106.4047980000
11
93.2652170000
21
106.0047980000
0
LINE
5
7DE
100
AcDbEntity
8
025
100
AcDbLine
62
4
6
CONTINUOUS
10
93.2652170000
20
106.0047980000
11
92.5278910000
21
106.4047980000
0
LINE
5
7DF
100
AcDbEntity
8
025
100
AcDbLine
62
4
6
CONTINUOUS
10
97.4288350000
20
106.4047980000
11
97.8818030000
21
106.4047980000
0
LINE
5
7E0
100
AcDbEntity
8
025
100
AcDbLine
62
4
6
CONTINUOUS
10
95.9689020000
20
106.4047980000
11
96.3998510000
21
106.4047980000
0
LINE
5
7E1
100
AcDbEntity
8
025
100
AcDbLine
62
4
6
CONTINUOUS
10
94.5969580000
20
106.4047980000
11
94.9990930000
21
106.4047980000
0
LINE
5
7E2
100
AcDbEntity
8
025
100
AcDbLine
62
4
6
CONTINUOUS
10
93.3346400000
20
106.4047980000
11
93.7016190000
21
106.4047980000
0
LINE
5
7E3
100
AcDbEntity
8
025
100
AcDbLine
62
4
6
CONTINUOUS
10
89.0199780000
20
104.4047980000
11
89.0796720000
21
104.4047980000
0
LINE
5
7E4
100
AcDbEntity
8
025
100
AcDbLine
62
4
6
CONTINUOUS
10
88.9482370000
20
104.4047980000
11
88.9504880000
21
104.4047980000
0
LINE
5
7E5
100
AcDbEntity
8
025
100
AcDbLine
62
4
6
CONTINUOUS
10
89.2870470000
20
104.4047980000
11
89.4054920000
21
104.4047980000
0
LINE
5
7E6
100
AcDbEntity
8
025
100
AcDbLine
62
4
6
CONTINUOUS
10
89.7474810000
20
104.4047980000
11
89.9228110000
21
104.4047980000
0
LINE
5
7E7
100
AcDbEntity
8
025
100
AcDbLine
62
4
6
CONTINUOUS
10
90.3940210000
20
104.4047980000
11
90.6234700000
21
104.4047980000
0
LINE
5
7E8
100
AcDbEntity
8
025
100
AcDbLine
62
4
6
CONTINUOUS
10
91.2164690000
20
104.4047980000
11
91.4964190000
21
104.4047980000
0
LINE
5
7E9
100
AcDbEntity
8
025
100
AcDbLine
62
4
6
CONTINUOUS
10
89.6625620000
20
104.8047980000
11
89.0796720000
21
104.4047980000
0
LINE
5
7EA
100
AcDbEntity
8
025
100
AcDbLine
62
4
6
CONTINUOUS
10
89.2870470000
20
104.4047980000
11
89.6625620000
21
104.8047980000
0
LINE
5
7EB
100
AcDbEntity
8
025
100
AcDbLine
62
4
6
CONTINUOUS
10
89.4721140000
20
104.8047980000
11
88.9504880000
21
104.4047980000
0
LINE
5
7EC
100
AcDbEntity
8
025
100
AcDbLine
62
4
6
CONTINUOUS
10
89.0199780000
20
104.4047980000
11
89.4721140000
21
104.8047980000
0
LINE
5
7ED
100
AcDbEntity
8
025
100
AcDbLine
62
4
6
CONTINUOUS
10
90.0404540000
20
104.8047980000
11
89.4054920000
21
104.4047980000
0
LINE
5
7EE
100
AcDbEntity
8
025
100
AcDbLine
62
4
6
CONTINUOUS
10
89.7474810000
20
104.4047980000
11
90.0404540000
21
104.8047980000
0
LINE
5
7EF
100
AcDbEntity
8
025
100
AcDbLine
62
4
6
CONTINUOUS
10
90.5998300000
20
104.8047980000
11
89.9228110000
21
104.4047980000
0
LINE
5
7F0
100
AcDbEntity
8
025
100
AcDbLine
62
4
6
CONTINUOUS
10
90.3940210000
20
104.4047980000
11
90.5998300000
21
104.8047980000
0
LINE
5
7F1
100
AcDbEntity
8
025
100
AcDbLine
62
4
6
CONTINUOUS
10
91.3318690000
20
104.8047980000
11
90.6234700000
21
104.4047980000
0
LINE
5
7F2
100
AcDbEntity
8
025
100
AcDbLine
62
4
6
CONTINUOUS
10
91.2164690000
20
104.4047980000
11
91.3318690000
21
104.8047980000
0
LINE
5
7F3
100
AcDbEntity
8
025
100
AcDbLine
62
4
6
CONTINUOUS
10
92.2250270000
20
104.8047980000
11
91.4964190000
21
104.4047980000
0
LINE
5
7F4
100
AcDbEntity
8
025
100
AcDbLine
62
4
6
CONTINUOUS
10
92.2250270000
20
104.8047980000
11
92.2018560000
21
104.4047980000
0
LINE
5
7F5
100
AcDbEntity
8
025
100
AcDbLine
62
4
6
CONTINUOUS
10
92.2250270000
20
106.0047980000
11
92.2018560000
21
106.4047980000
0
LINE
5
7F6
100
AcDbEntity
8
025
100
AcDbLine
62
4
6
CONTINUOUS
10
92.2250270000
20
106.0047980000
11
91.4964190000
21
106.4047980000
0
LINE
5
7F7
100
AcDbEntity
8
025
100
AcDbLine
62
4
6
CONTINUOUS
10
91.2164690000
20
106.4047980000
11
91.3318690000
21
106.0047980000
0
LINE
5
7F8
100
AcDbEntity
8
025
100
AcDbLine
62
4
6
CONTINUOUS
10
91.3318690000
20
106.0047980000
11
90.6234700000
21
106.4047980000
0
LINE
5
7F9
100
AcDbEntity
8
025
100
AcDbLine
62
4
6
CONTINUOUS
10
90.3940210000
20
106.4047980000
11
90.5998300000
21
106.0047980000
0
LINE
5
7FA
100
AcDbEntity
8
025
100
AcDbLine
62
4
6
CONTINUOUS
10
90.5998300000
20
106.0047980000
11
89.9228110000
21
106.4047980000
0
LINE
5
7FB
100
AcDbEntity
8
025
100
AcDbLine
62
4
6
CONTINUOUS
10
89.7474810000
20
106.4047980000
11
90.0404540000
21
106.0047980000
0
LINE
5
7FC
100
AcDbEntity
8
025
100
AcDbLine
62
4
6
CONTINUOUS
10
90.0404540000
20
106.0047980000
11
89.4054920000
21
106.4047980000
0
LINE
5
7FD
100
AcDbEntity
8
025
100
AcDbLine
62
4
6
CONTINUOUS
10
89.0199780000
20
106.4047980000
11
89.4721140000
21
106.0047980000
0
LINE
5
7FE
100
AcDbEntity
8
025
100
AcDbLine
62
4
6
CONTINUOUS
10
89.4721140000
20
106.0047980000
11
88.9504880000
21
106.4047980000
0
LINE
5
7FF
100
AcDbEntity
8
025
100
AcDbLine
62
4
6
CONTINUOUS
10
89.2870470000
20
106.4047980000
11
89.6625620000
21
106.0047980000
0
LINE
5
800
100
AcDbEntity
8
025
100
AcDbLine
62
4
6
CONTINUOUS
10
89.6625620000
20
106.0047980000
11
89.0796720000
21
106.4047980000
0
LINE
5
801
100
AcDbEntity
8
025
100
AcDbLine
62
4
6
CONTINUOUS
10
91.2164690000
20
106.4047980000
11
91.4964190000
21
106.4047980000
0
LINE
5
802
100
AcDbEntity
8
025
100
AcDbLine
62
4
6
CONTINUOUS
10
90.3940210000
20
106.4047980000
11
90.6234700000
21
106.4047980000
0
LINE
5
803
100
AcDbEntity
8
025
100
AcDbLine
62
4
6
CONTINUOUS
10
89.7474810000
20
106.4047980000
11
89.9228110000
21
106.4047980000
0
LINE
5
804
100
AcDbEntity
8
025
100
AcDbLine
62
4
6
CONTINUOUS
10
89.2870470000
20
106.4047980000
11
89.4054920000
21
106.4047980000
0
LINE
5
805
100
AcDbEntity
8
025
100
AcDbLine
62
4
6
CONTINUOUS
10
88.9482370000
20
106.4047980000
11
88.9504880000
21
106.4047980000
0
LINE
5
806
100
AcDbEntity
8
025
100
AcDbLine
62
4
6
CONTINUOUS
10
89.0199780000
20
106.4047980000
11
89.0796720000
21
106.4047980000
0
LINE
5
807
100
AcDbEntity
8
025
100
AcDbLine
62
4
6
CONTINUOUS
10
92.2018560000
20
112.9047980000
11
92.5278910000
21
112.9047980000
0
LINE
5
808
100
AcDbEntity
8
025
100
AcDbLine
62
4
6
CONTINUOUS
10
103.0647700000
20
113.3047980000
11
103.6748990000
21
112.9047980000
0
LINE
5
809
100
AcDbEntity
8
025
100
AcDbLine
62
4
6
CONTINUOUS
10
103.0647700000
20
113.3047980000
11
102.5769260000
21
112.9047980000
0
LINE
5
80A
100
AcDbEntity
8
025
100
AcDbLine
62
4
6
CONTINUOUS
10
101.5482370000
20
113.3047980000
11
102.1015870000
21
112.9047980000
0
LINE
5
80B
100
AcDbEntity
8
025
100
AcDbLine
62
4
6
CONTINUOUS
10
97.4288350000
20
112.9047980000
11
97.0939300000
21
113.3047980000
0
LINE
5
80C
100
AcDbEntity
8
025
100
AcDbLine
62
4
6
CONTINUOUS
10
97.0939300000
20
113.3047980000
11
96.3998510000
21
112.9047980000
0
LINE
5
80D
100
AcDbEntity
8
025
100
AcDbLine
62
4
6
CONTINUOUS
10
95.9689020000
20
112.9047980000
11
95.7190180000
21
113.3047980000
0
LINE
5
80E
100
AcDbEntity
8
025
100
AcDbLine
62
4
6
CONTINUOUS
10
95.7190180000
20
113.3047980000
11
94.9990930000
21
112.9047980000
0
LINE
5
80F
100
AcDbEntity
8
025
100
AcDbLine
62
4
6
CONTINUOUS
10
94.5969580000
20
112.9047980000
11
94.4360360000
21
113.3047980000
0
LINE
5
810
100
AcDbEntity
8
025
100
AcDbLine
62
4
6
CONTINUOUS
10
94.4360360000
20
113.3047980000
11
93.7016190000
21
112.9047980000
0
LINE
5
811
100
AcDbEntity
8
025
100
AcDbLine
62
4
6
CONTINUOUS
10
93.3346400000
20
112.9047980000
11
93.2652170000
21
113.3047980000
0
LINE
5
812
100
AcDbEntity
8
025
100
AcDbLine
62
4
6
CONTINUOUS
10
93.2652170000
20
113.3047980000
11
92.5278910000
21
112.9047980000
0
LINE
5
813
100
AcDbEntity
8
025
100
AcDbLine
62
4
6
CONTINUOUS
10
101.5482370000
20
113.3047980000
11
100.9948880000
21
112.9047980000
0
LINE
5
814
100
AcDbEntity
8
025
100
AcDbLine
62
4
6
CONTINUOUS
10
100.0317050000
20
113.3047980000
11
100.5195490000
21
112.9047980000
0
LINE
5
815
100
AcDbEntity
8
025
100
AcDbLine
62
4
6
CONTINUOUS
10
100.0317050000
20
113.3047980000
11
99.4215760000
21
112.9047980000
0
LINE
5
816
100
AcDbEntity
8
025
100
AcDbLine
62
4
6
CONTINUOUS
10
98.9537330000
20
112.9047980000
11
98.5390900000
21
113.3047980000
0
LINE
5
817
100
AcDbEntity
8
025
100
AcDbLine
62
4
6
CONTINUOUS
10
98.5390900000
20
113.3047980000
11
97.8818030000
21
112.9047980000
0
LINE
5
818
100
AcDbEntity
8
025
100
AcDbLine
62
4
6
CONTINUOUS
10
102.5769260000
20
112.9047980000
11
102.1015870000
21
112.9047980000
0
LINE
5
819
100
AcDbEntity
8
025
100
AcDbLine
62
4
6
CONTINUOUS
10
100.5195490000
20
112.9047980000
11
100.9948880000
21
112.9047980000
0
LINE
5
81A
100
AcDbEntity
8
025
100
AcDbLine
62
4
6
CONTINUOUS
10
98.9537330000
20
112.9047980000
11
99.4215760000
21
112.9047980000
0
LINE
5
81B
100
AcDbEntity
8
025
100
AcDbLine
62
4
6
CONTINUOUS
10
97.4288350000
20
112.9047980000
11
97.8818030000
21
112.9047980000
0
LINE
5
81C
100
AcDbEntity
8
025
100
AcDbLine
62
4
6
CONTINUOUS
10
95.9689020000
20
112.9047980000
11
96.3998510000
21
112.9047980000
0
LINE
5
81D
100
AcDbEntity
8
025
100
AcDbLine
62
4
6
CONTINUOUS
10
94.5969580000
20
112.9047980000
11
94.9990930000
21
112.9047980000
0
LINE
5
81E
100
AcDbEntity
8
025
100
AcDbLine
62
4
6
CONTINUOUS
10
93.3346400000
20
112.9047980000
11
93.7016190000
21
112.9047980000
0
LINE
5
81F
100
AcDbEntity
8
025
100
AcDbLine
62
4
6
CONTINUOUS
10
92.2250270000
20
113.3047980000
11
92.2018560000
21
112.9047980000
0
LINE
5
820
100
AcDbEntity
8
025
100
AcDbLine
62
4
6
CONTINUOUS
10
92.2250270000
20
113.3047980000
11
91.4964190000
21
112.9047980000
0
LINE
5
821
100
AcDbEntity
8
025
100
AcDbLine
62
4
6
CONTINUOUS
10
91.2164690000
20
112.9047980000
11
91.3318690000
21
113.3047980000
0
LINE
5
822
100
AcDbEntity
8
025
100
AcDbLine
62
4
6
CONTINUOUS
10
91.3318690000
20
113.3047980000
11
90.6234700000
21
112.9047980000
0
LINE
5
823
100
AcDbEntity
8
025
100
AcDbLine
62
4
6
CONTINUOUS
10
90.3940210000
20
112.9047980000
11
90.5998300000
21
113.3047980000
0
LINE
5
824
100
AcDbEntity
8
025
100
AcDbLine
62
4
6
CONTINUOUS
10
90.5998300000
20
113.3047980000
11
89.9228110000
21
112.9047980000
0
LINE
5
825
100
AcDbEntity
8
025
100
AcDbLine
62
4
6
CONTINUOUS
10
89.7474810000
20
112.9047980000
11
90.0404540000
21
113.3047980000
0
LINE
5
826
100
AcDbEntity
8
025
100
AcDbLine
62
4
6
CONTINUOUS
10
90.0404540000
20
113.3047980000
11
89.4054920000
21
112.9047980000
0
LINE
5
827
100
AcDbEntity
8
025
100
AcDbLine
62
4
6
CONTINUOUS
10
89.0199780000
20
112.9047980000
11
89.4721140000
21
113.3047980000
0
LINE
5
828
100
AcDbEntity
8
025
100
AcDbLine
62
4
6
CONTINUOUS
10
89.4721140000
20
113.3047980000
11
88.9504880000
21
112.9047980000
0
LINE
5
829
100
AcDbEntity
8
025
100
AcDbLine
62
4
6
CONTINUOUS
10
89.2870470000
20
112.9047980000
11
89.6625620000
21
113.3047980000
0
LINE
5
82A
100
AcDbEntity
8
025
100
AcDbLine
62
4
6
CONTINUOUS
10
89.6625620000
20
113.3047980000
11
89.0796720000
21
112.9047980000
0
LINE
5
82B
100
AcDbEntity
8
025
100
AcDbLine
62
4
6
CONTINUOUS
10
91.2164690000
20
112.9047980000
11
91.4964190000
21
112.9047980000
0
LINE
5
82C
100
AcDbEntity
8
025
100
AcDbLine
62
4
6
CONTINUOUS
10
90.3940210000
20
112.9047980000
11
90.6234700000
21
112.9047980000
0
LINE
5
82D
100
AcDbEntity
8
025
100
AcDbLine
62
4
6
CONTINUOUS
10
89.7474810000
20
112.9047980000
11
89.9228110000
21
112.9047980000
0
LINE
5
82E
100
AcDbEntity
8
025
100
AcDbLine
62
4
6
CONTINUOUS
10
89.2870470000
20
112.9047980000
11
89.4054920000
21
112.9047980000
0
LINE
5
82F
100
AcDbEntity
8
025
100
AcDbLine
62
4
6
CONTINUOUS
10
88.9482370000
20
112.9047980000
11
88.9504880000
21
112.9047980000
0
LINE
5
830
100
AcDbEntity
8
025
100
AcDbLine
62
4
6
CONTINUOUS
10
89.0199780000
20
112.9047980000
11
89.0796720000
21
112.9047980000
0
TEXT
5
831
100
AcDbEntity
8
05
100
AcDbText
62
4
6
CONTINUOUS
10
155.0000000000
20
11.0000000000
40
1.5000000000
1
Zeichn. Nr.
51
15.0000000000
72
5
11
166.1785714286
21
11.0000000000
100
AcDbText
0
TEXT
5
832
100
AcDbEntity
8
05
100
AcDbText
62
4
6
CONTINUOUS
10
155.0000000000
20
28.0000000000
40
1.5000000000
1
Ersetzt durch:         Blatt
51
15.0000000000
72
5
11
184.1428571429
21
28.0000000000
100
AcDbText
0
TEXT
5
833
100
AcDbEntity
8
05
100
AcDbText
62
4
6
CONTINUOUS
10
155.0000000000
20
43.0000000000
40
1.5000000000
1
Gezeichnet
51
15.0000000000
72
5
11
165.2142857143
21
43.0000000000
100
AcDbText
0
TEXT
5
834
100
AcDbEntity
8
05
100
AcDbText
62
4
6
CONTINUOUS
10
155.0000000000
20
32.0000000000
40
1.5000000000
1
Gesehen
51
15.0000000000
72
5
11
162.6071428571
21
32.0000000000
100
AcDbText
0
TEXT
5
835
100
AcDbEntity
8
05
100
AcDbText
62
4
6
CONTINUOUS
10
174.0000000000
20
47.0000000000
40
1.5000000000
1
Datum     Name
51
15.0000000000
72
5
11
190.3571428571
21
47.0000000000
100
AcDbText
0
TEXT
5
836
100
AcDbEntity
8
05
100
AcDbText
62
4
6
CONTINUOUS
10
114.0000000000
20
47.0000000000
40
1.5000000000
1
Werkstoff:      Massstab:
51
15.0000000000
72
5
11
140.5714285714
21
47.0000000000
100
AcDbText
0
TEXT
5
837
100
AcDbEntity
8
05
100
AcDbText
62
4
6
CONTINUOUS
10
73.0000000000
20
28.0000000000
40
1.5000000000
1
Benennung:
51
15.0000000000
72
5
11
83.2857142857
21
28.0000000000
100
AcDbText
0
TEXT
5
838
100
AcDbEntity
8
05
100
AcDbText
62
4
6
CONTINUOUS
10
73.0000000000
20
44.0000000000
40
1.5000000000
1
*)Lieferant darf ohne 
51
15.0000000000
72
5
11
95.1428571429
21
44.0000000000
100
AcDbText
0
TEXT
5
839
100
AcDbEntity
8
05
100
AcDbText
62
4
6
CONTINUOUS
10
73.0000000000
20
41.5000000000
40
1.5000000000
1
 Ruecksprache nicht 
51
15.0000000000
72
5
11
93.9285714286
21
41.5000000000
100
AcDbText
0
TEXT
5
83A
100
AcDbEntity
8
05
100
AcDbText
62
4
6
CONTINUOUS
10
73.0000000000
20
39.0000000000
40
1.5000000000
1
 geaendert werden
51
15.0000000000
72
5
11
91.4285714286
21
39.0000000000
100
AcDbText
0
TEXT
5
83B
100
AcDbEntity
8
05
100
AcDbText
62
4
6
CONTINUOUS
10
73.0000000000
20
35.0000000000
40
1.5000000000
1
Zeichnung urheberrechtlich
51
15.0000000000
72
5
11
99.3214285714
21
35.0000000000
100
AcDbText
0
TEXT
5
83C
100
AcDbEntity
8
05
100
AcDbText
62
4
6
CONTINUOUS
10
73.0000000000
20
32.5000000000
40
1.5000000000
1
geschuetzt (DIN 34) (C)
51
15.0000000000
72
5
11
96.2857142857
21
32.5000000000
100
AcDbText
0
TEXT
5
83D
100
AcDbEntity
8
05
100
AcDbText
62
4
6
CONTINUOUS
10
155.0000000000
20
37.0000000000
40
1.5000000000
1
Geprueft
51
15.0000000000
72
5
11
163.1428571429
21
37.0000000000
100
AcDbText
0
TEXT
5
83E
100
AcDbEntity
8
05
100
AcDbText
62
4
6
CONTINUOUS
10
155.0000000000
20
20.0000000000
40
1.5000000000
1
Ersatz fuer:           von  Blatt
51
15.0000000000
72
5
11
190.0357142857
21
20.0000000000
100
AcDbText
0
TEXT
5
83F
100
AcDbEntity
8
05
100
AcDbText
62
4
6
CONTINUOUS
10
8.0000000000
20
6.0000000000
40
1.5000000000
1
Ind.  Aenderung             Datum   
51
15.0000000000
72
5
11
48.6785714286
21
6.0000000000
100
AcDbText
0
TEXT
5
840
100
AcDbEntity
8
05
100
AcDbText
62
4
6
CONTINUOUS
10
48.6785714286
20
6.0000000000
40
1.5000000000
1
 Name
51
15.0000000000
72
5
11
54.5714285714
21
6.0000000000
100
AcDbText
0
TEXT
5
841
100
AcDbEntity
8
035
100
AcDbText
62
4
6
CONTINUOUS
10
127.4230740000
20
8.2646360000
40
2.4848480000
1
FL-9494 SCHAAN
51
15.0000000000
72
5
11
154.5197498095
21
8.2646360000
100
AcDbText
0
TEXT
5
842
100
AcDbEntity
8
05
100
AcDbText
62
4
6
CONTINUOUS
10
190.8452380952
20
42.0000000000
40
2.5000000000
1
Alinjak
72
5
11
202.1547619048
21
42.0000000000
100
AcDbText
0
TEXT
5
843
100
AcDbEntity
8
05
100
AcDbText
62
4
6
CONTINUOUS
10
173.7142857143
20
42.0000000000
40
2.5000000000
1
11.08.98
51
15.0000000000
72
5
11
187.2857142857
21
42.0000000000
100
AcDbText
0
TEXT
5
844
100
AcDbEntity
8
05
100
AcDbText
62
2
6
CONTINUOUS
10
102.8809523810
20
17.5000000000
40
5.0000000000
1
NP2CM
51
15.0000000000
72
5
11
123.1190476190
21
17.5000000000
100
AcDbText
0
TEXT
5
845
100
AcDbEntity
8
05
100
AcDbText
62
3
6
CONTINUOUS
10
97.2512096667
20
26.0821910000
40
3.5000000000
1
1/4" Phone Plug
51
15.0000000000
72
5
11
134.6678763333
21
26.0821910000
100
AcDbText
0
TEXT
5
846
100
AcDbEntity
8
05
100
AcDbText
62
3
6
CONTINUOUS
10
167.5747810000
20
6.9765410000
40
3.5000000000
1
3102 St 06 03
51
15.0000000000
72
5
11
201.3247810000
21
6.9765410000
100
AcDbText
0
TEXT
5
847
100
AcDbEntity
8
05
100
AcDbText
62
2
6
CONTINUOUS
10
140.1482807143
20
39.6560560000
40
5.0000000000
1
2:1
51
15.0000000000
72
5
11
148.7197092857
21
39.6560560000
100
AcDbText
0
TEXT
5
848
100
AcDbEntity
8
035
100
AcDbText
62
3
6
CONTINUOUS
10
90.0212650000
20
270.0864940000
40
5.5000000000
1
NP2CM
51
12.0000000000
72
5
11
112.2831697619
21
270.0864940000
100
AcDbText
0
TEXT
5
849
100
AcDbEntity
8
035
100
AcDbText
62
3
6
CONTINUOUS
10
99.6359250000
20
149.0946347619
40
2.6000000000
1
NP2CM
50
270.0000000000
72
5
11
99.6359250000
21
138.5708252381
100
AcDbText
0
TEXT
5
84A
100
AcDbEntity
8
035
100
AcDbText
62
3
6
CONTINUOUS
10
95.4816640000
20
156.5232061905
40
2.6000000000
1
LIECHTENSTEIN
50
270.0000000000
72
5
11
95.4816640000
21
131.1422538095
100
AcDbText
0
TEXT
5
84B
100
AcDbEntity
8
0
100
AcDbText
62
3
6
CONTINUOUS
10
83.6743916667
20
66.7559340000
40
3.5000000000
1
%%c12.50 [0.492"]
72
5
11
121.3410583333
21
66.7559340000
100
AcDbText
0
TEXT
5
84C
100
AcDbEntity
8
0
100
AcDbText
62
3
6
CONTINUOUS
10
129.1170890000
20
125.2816280000
40
3.5000000000
1
82.00-85.00 [3.228"-3.346"]
50
90.0000000000
72
5
11
129.1170890000
21
191.5316280000
100
AcDbText
0
TEXT
5
84D
100
AcDbEntity
8
0
100
AcDbText
62
3
6
CONTINUOUS
10
84.9456326667
20
255.8448260000
40
3.5000000000
1
%%c6.35 [0.250"]
72
5
11
120.1122993333
21
255.8448260000
100
AcDbText
0
ENDSEC
0
SECTION
2
OBJECTS
0
DICTIONARY
5
84E
100
AcDbDictionary
3
ACAD_GROUP
350
84F
3
ACAD_MLINESTYLE
350
850
0
DICTIONARY
5
84F
102
{ACAD_REACTORS
330
84E
102
}
100
AcDbDictionary
0
DICTIONARY
5
850
102
{ACAD_REACTORS
330
84E
102
}
100
AcDbDictionary
3
STANDARD
350
851
0
MLINESTYLE
5
851
102
{ACAD_REACTORS
330
850
102
}
100
AcDbMlineStyle
2
STANDARD
70
0
3

62
256
51
90.0
52
90.0
71
2
49
0.5
62
256
6
BYLAYER
49
-0.5
62
256
6
BYLAYER
0
ENDSEC
0
EOF
