999
DXF file: nc7md-l-1.dxf
999
Pro/ENGINEER 2001040 by Parametric Technology Corporation
0
SECTION
2
HEADER
9
$ACADVER
1
AC1012
9
$EXTMAX
10
420.0000000000
20
297.0000000000
9
$EXTMIN
10
0.0000000000
20
0.0000000000
9
$LIMMIN
10
0.0000000000
20
0.0000000000
9
$LIMMAX
10
420.0000000000
20
297.0000000000
9
$VIEWCTR
10
210.0000000000
20
148.5000000000
9
$VIEWSIZE
40
297.0000000000
9
$CLAYER
8
0
9
$LTSCALE
40
23.1000000000
9
$CELTYPE
6
BYLAYER
9
$DIMSCALE
40
1
9
$DIMASZ
40
3.5000000000
9
$DIMEXO
40
2.6250000000
9
$DIMDLI
40
15.9600000000
9
$DIMEXE
40
7.5600000000
9
$DIMCEN
40
3.7800000000
9
$DIMTXT
40
4.7460937500
9
$DIMLFAC
40
1.0000000000
0
ENDSEC
0
SECTION
2
CLASSES
0
ENDSEC
0
SECTION
2
TABLES
0
TABLE
2
VPORT
5
1F4
100
AcDbSymbolTable
70
2
0
VPORT
5
1F5
100
AcDbSymbolTableRecord
100
AcDbViewportTableRecord
2
*ACTIVE
70
0
10
0.0
20
0.0
11
1.0
21
1.0
12
210.0000000000
22
148.5000000000
13
0.0
23
0.0
14
1.0
24
1.0
15
0.0
25
0.0
16
0.0
26
0.0
36
1.0
17
0.0
27
0.0
37
0.0
40
297.0000000000
41
1.4141414141
42
50.0
43
0.0
44
0.0
50
0.0
51
0.0
71
0
72
100
73
1
74
1
75
0
76
0
77
0
78
0
0
ENDTAB
0
TABLE
2
LTYPE
5
1F6
100
AcDbSymbolTable
70
6
0
LTYPE
5
1F7
100
AcDbSymbolTableRecord
100
AcDbLinetypeTableRecord
2
BYBLOCK
70
0
3

72
65
73
0
40
0.0
0
LTYPE
5
1F8
100
AcDbSymbolTableRecord
100
AcDbLinetypeTableRecord
2
BYLAYER
70
0
3

72
65
73
0
40
0.0
0
LTYPE
5
1F9
100
AcDbSymbolTableRecord
100
AcDbLinetypeTableRecord
2
CONTINUOUS
70
64
3
Solid line
72
65
73
0
40
0
0
LTYPE
5
1FA
100
AcDbSymbolTableRecord
100
AcDbLinetypeTableRecord
2
CENTER
70
64
3
____ _ ____ _ ____ _ ____ _ ____ _ ____ _ ____
72
65
73
4
40
0.6
49
0.375
74
0
49
-0.075
74
0
49
0.075
74
0
49
-0.075
74
0
0
LTYPE
5
1FB
100
AcDbSymbolTableRecord
100
AcDbLinetypeTableRecord
2
HIDDEN
70
64
3
- - - - - - - - - - - - - - - - - - - -
72
65
73
2
40
0.2
49
0.1
74
0
49
-0.1
74
0
0
LTYPE
5
1FC
100
AcDbSymbolTableRecord
100
AcDbLinetypeTableRecord
2
PHANTOM
70
64
3
_____ _ _ _____ _ _ _____ _ _ _____
72
65
73
6
40
0.8
49
0.45
74
0
49
-0.05
74
0
49
0.1
74
0
49
-0.05
74
0
49
0.1
74
0
49
-0.05
74
0
0
LTYPE
5
1FD
100
AcDbSymbolTableRecord
100
AcDbLinetypeTableRecord
2
DOT
70
64
3
. . . . . . . . . . . . . . . . . . . .
72
65
73
2
40
0.2
49
0.1
74
0
49
-0.1
74
0
0
LTYPE
5
1FE
100
AcDbSymbolTableRecord
100
AcDbLinetypeTableRecord
2
DASHED
70
64
3
- - - - - - - - - - - - - - - - - - - -
72
65
73
2
40
0.2
49
0.1
74
0
49
-0.1
74
0
0
ENDTAB
0
TABLE
2
LAYER
5
1FF
100
AcDbSymbolTable
70
36
0
LAYER
5
200
100
AcDbSymbolTableRecord
100
AcDbLayerTableRecord
2
0
70
0
62
7
6
CONTINUOUS
0
LAYER
5
201
100
AcDbSymbolTableRecord
100
AcDbLayerTableRecord
2
DEFAULT_1
70
0
62
7
6
CENTER
0
LAYER
5
202
100
AcDbSymbolTableRecord
100
AcDbLayerTableRecord
2
DEFAULT_2
70
0
62
8
6
HIDDEN
0
LAYER
5
203
100
AcDbSymbolTableRecord
100
AcDbLayerTableRecord
2
DEFAULT_3
70
0
62
7
6
PHANTOM
0
LAYER
5
204
100
AcDbSymbolTableRecord
100
AcDbLayerTableRecord
2
0
70
0
62
7
6
CONTINUOUS
0
LAYER
5
205
100
AcDbSymbolTableRecord
100
AcDbLayerTableRecord
2
025
70
0
62
7
6
CONTINUOUS
0
LAYER
5
206
100
AcDbSymbolTableRecord
100
AcDbLayerTableRecord
2
035
70
0
62
7
6
CONTINUOUS
0
LAYER
5
207
100
AcDbSymbolTableRecord
100
AcDbLayerTableRecord
2
05
70
0
62
7
6
CONTINUOUS
0
LAYER
5
208
100
AcDbSymbolTableRecord
100
AcDbLayerTableRecord
2
BEM1
70
0
62
7
6
CONTINUOUS
0
LAYER
5
209
100
AcDbSymbolTableRecord
100
AcDbLayerTableRecord
2
DEFPOINTS
70
0
62
7
6
CONTINUOUS
0
LAYER
5
20A
100
AcDbSymbolTableRecord
100
AcDbLayerTableRecord
2
HILI
70
0
62
7
6
CONTINUOUS
0
LAYER
5
20B
100
AcDbSymbolTableRecord
100
AcDbLayerTableRecord
2
MITTE
70
0
62
7
6
CONTINUOUS
0
LAYER
5
20C
100
AcDbSymbolTableRecord
100
AcDbLayerTableRecord
2
RAHMEN
70
0
62
7
6
CONTINUOUS
0
LAYER
5
20D
100
AcDbSymbolTableRecord
100
AcDbLayerTableRecord
2
SCHRAFFIERT
70
0
62
7
6
CONTINUOUS
0
ENDTAB
0
TABLE
2
STYLE
5
20E
100
AcDbSymbolTable
70
1
0
STYLE
5
20F
100
AcDbSymbolTableRecord
100
AcDbTextStyleTableRecord
2
STANDARD
70
0
40
0.0
41
0.80
50
0.0
71
0
42
0.2
3
txt
4

0
ENDTAB
0
TABLE
2
VIEW
5
210
100
AcDbSymbolTable
70
0
0
ENDTAB
0
TABLE
2
UCS
5
211
100
AcDbSymbolTable
70
0
0
ENDTAB
0
TABLE
2
APPID
5
212
100
AcDbSymbolTable
70
1
0
APPID
5
213
100
AcDbSymbolTableRecord
100
AcDbRegAppTableRecord
2
ACAD
70
0
0
ENDTAB
0
TABLE
2
DIMSTYLE
5
214
100
AcDbSymbolTable
0
DIMSTYLE
105
215
100
AcDbSymbolTableRecord
100
AcDbDimStyleTableRecord
2
STANDARD
70
0
3

4

5

6

7

40
1.0
41
0.18
42
0.0625
43
0.38
44
0.18
45
0.0
46
0.0
47
0.0
48
0.0
140
0.18
141
0.09
142
0.0
143
25.4
144
1.0
145
0.0
146
1.0
147
0.09
71
0
72
0
73
1
74
1
75
0
76
0
77
0
78
0
170
0
171
2
172
0
173
0
174
0
175
0
176
0
177
0
178
0
270
2
271
4
272
4
273
2
274
2
340
20F
275
0
280
0
281
0
282
0
283
1
284
0
285
0
286
0
287
3
288
0
0
ENDTAB
0
TABLE
2
BLOCK_RECORD
5
216
100
AcDbSymbolTable
70
0
0
BLOCK_RECORD
5
217
100
AcDbSymbolTableRecord
100
AcDbBlockTableRecord
2
*MODEL_SPACE
0
BLOCK_RECORD
5
218
100
AcDbSymbolTableRecord
100
AcDbBlockTableRecord
2
*PAPER_SPACE
0
ENDTAB
0
ENDSEC
0
SECTION
2
BLOCKS
0
BLOCK
5
219
100
AcDbEntity
8
0
100
AcDbBlockBegin
2
*MODEL_SPACE
70
0
10
0.0000000000
20
0.0000000000
3
*MODEL_SPACE
1

3
*MODEL_SPACE
1

0
ENDBLK
5
21A
100
AcDbEntity
8
0
100
AcDbBlockEnd
0
BLOCK
5
21B
100
AcDbEntity
8
0
100
AcDbBlockBegin
2
*PAPER_SPACE
70
0
10
0.0000000000
20
0.0000000000
3
*PAPER_SPACE
1

3
*PAPER_SPACE
1

0
ENDBLK
5
21C
100
AcDbEntity
8
0
100
AcDbBlockEnd
0
ENDSEC
0
SECTION
2
ENTITIES
0
LINE
5
21D
100
AcDbEntity
8
0
100
AcDbLine
62
7
6
CONTINUOUS
10
0.0000000000
20
0.0000000000
11
420.0000000000
21
0.0000000000
0
LINE
5
21E
100
AcDbEntity
8
0
100
AcDbLine
62
7
6
CONTINUOUS
10
420.0000000000
20
0.0000000000
11
420.0000000000
21
297.0000000000
0
LINE
5
21F
100
AcDbEntity
8
0
100
AcDbLine
62
7
6
CONTINUOUS
10
0.0000000000
20
297.0000000000
11
420.0000000000
21
297.0000000000
0
LINE
5
220
100
AcDbEntity
8
0
100
AcDbLine
62
7
6
CONTINUOUS
10
0.0000000000
20
0.0000000000
11
0.0000000000
21
297.0000000000
0
LINE
5
221
100
AcDbEntity
8
MITTE
100
AcDbLine
62
4
6
CENTER
10
229.7315600000
20
156.3686810000
11
229.7315600000
21
150.3686810000
0
LINE
5
222
100
AcDbEntity
8
MITTE
100
AcDbLine
62
4
6
CENTER
10
206.2715600000
20
154.0586810000
11
206.2715600000
21
148.0586810000
0
LINE
5
223
100
AcDbEntity
8
MITTE
100
AcDbLine
62
4
6
CENTER
10
217.5515600000
20
205.7803020000
11
217.5515600000
21
108.3970600000
0
LINE
5
224
100
AcDbEntity
8
MITTE
100
AcDbLine
62
4
6
CENTER
10
226.5815600000
20
145.8086810000
11
220.5815600000
21
145.8086810000
0
LINE
5
225
100
AcDbEntity
8
MITTE
100
AcDbLine
62
4
6
CENTER
10
216.8315600000
20
144.9086810000
11
210.8315600000
21
144.9086810000
0
LINE
5
226
100
AcDbEntity
8
MITTE
100
AcDbLine
62
4
6
CENTER
10
209.2715600000
20
151.0586810000
11
203.2715600000
21
151.0586810000
0
LINE
5
227
100
AcDbEntity
8
MITTE
100
AcDbLine
62
4
6
CENTER
10
213.8315600000
20
147.9086810000
11
213.8315600000
21
141.9086810000
0
LINE
5
228
100
AcDbEntity
8
MITTE
100
AcDbLine
62
4
6
CENTER
10
223.5815600000
20
148.8086810000
11
223.5815600000
21
142.8086810000
0
LINE
5
229
100
AcDbEntity
8
MITTE
100
AcDbLine
62
4
6
CENTER
10
246.0515600000
20
110.5886810000
11
246.0515600000
21
131.5886810000
0
LINE
5
22A
100
AcDbEntity
8
MITTE
100
AcDbLine
62
4
6
CENTER
10
235.5515600000
20
121.0886810000
11
256.5515600000
21
121.0886810000
0
LINE
5
22B
100
AcDbEntity
8
MITTE
100
AcDbLine
62
4
6
CENTER
10
189.0515600000
20
182.5886810000
11
189.0515600000
21
203.5886810000
0
LINE
5
22C
100
AcDbEntity
8
MITTE
100
AcDbLine
62
4
6
CENTER
10
217.5515600000
20
157.0886810000
11
200.1567330000
21
174.4835080000
0
LINE
5
22D
100
AcDbEntity
8
MITTE
100
AcDbLine
62
4
6
CENTER
10
205.3715600000
20
163.6586810000
11
205.3715600000
21
157.6586810000
0
LINE
5
22E
100
AcDbEntity
8
MITTE
100
AcDbLine
62
4
6
CENTER
10
176.6753840000
20
157.0886810000
11
258.2511570000
21
157.0886810000
0
LINE
5
22F
100
AcDbEntity
8
MITTE
100
AcDbLine
62
4
6
CENTER
10
208.3715600000
20
160.6586810000
11
202.3715600000
21
160.6586810000
0
LINE
5
230
100
AcDbEntity
8
MITTE
100
AcDbLine
62
4
6
CENTER
10
178.5515600000
20
193.0886810000
11
199.5515600000
21
193.0886810000
0
LINE
5
231
100
AcDbEntity
8
MITTE
100
AcDbLine
62
4
6
CENTER
10
296.5847810000
20
157.0886810000
11
386.3130630000
21
157.0886810000
0
LINE
5
232
100
AcDbEntity
8
MITTE
100
AcDbLine
62
4
6
CENTER
10
228.8315600000
20
166.1186810000
11
228.8315600000
21
160.1186810000
0
LINE
5
233
100
AcDbEntity
8
MITTE
100
AcDbLine
62
4
6
CENTER
10
232.7315600000
20
153.3686810000
11
226.7315600000
21
153.3686810000
0
LINE
5
234
100
AcDbEntity
8
MITTE
100
AcDbLine
62
4
6
CENTER
10
231.8315600000
20
163.1186810000
11
225.8315600000
21
163.1186810000
0
LINE
5
235
100
AcDbEntity
8
MITTE
100
AcDbLine
62
4
6
CENTER
10
103.2342020000
20
76.9632490000
11
103.2342020000
21
70.9632490000
0
LINE
5
236
100
AcDbEntity
8
MITTE
100
AcDbLine
62
4
6
CENTER
10
79.7742020000
20
79.2732490000
11
79.7742020000
21
73.2732490000
0
LINE
5
237
100
AcDbEntity
8
MITTE
100
AcDbLine
62
4
6
CENTER
10
85.9242020000
20
71.7132490000
11
85.9242020000
21
65.7132490000
0
LINE
5
238
100
AcDbEntity
8
MITTE
100
AcDbLine
62
4
6
CENTER
10
82.9242020000
20
68.7132490000
11
88.9242020000
21
68.7132490000
0
LINE
5
239
100
AcDbEntity
8
MITTE
100
AcDbLine
62
4
6
CENTER
10
100.2342020000
20
73.9632490000
11
106.2342020000
21
73.9632490000
0
LINE
5
23A
100
AcDbEntity
8
MITTE
100
AcDbLine
62
4
6
CENTER
10
95.6742020000
20
70.8132490000
11
95.6742020000
21
64.8132490000
0
LINE
5
23B
100
AcDbEntity
8
MITTE
100
AcDbLine
62
4
6
CENTER
10
91.9542020000
20
31.9106180000
11
91.9542020000
21
128.1955280000
0
LINE
5
23C
100
AcDbEntity
8
MITTE
100
AcDbLine
62
4
6
CENTER
10
92.6742020000
20
67.8132490000
11
98.6742020000
21
67.8132490000
0
LINE
5
23D
100
AcDbEntity
8
MITTE
100
AcDbLine
62
4
6
CENTER
10
76.7742020000
20
76.2732490000
11
82.7742020000
21
76.2732490000
0
LINE
5
23E
100
AcDbEntity
8
MITTE
100
AcDbLine
62
4
6
CENTER
10
50.8904560000
20
79.9932490000
11
132.7010020000
21
79.9932490000
0
LINE
5
23F
100
AcDbEntity
8
MITTE
100
AcDbLine
62
4
6
CENTER
10
80.6742020000
20
89.0232490000
11
80.6742020000
21
83.0232490000
0
LINE
5
240
100
AcDbEntity
8
MITTE
100
AcDbLine
62
4
6
CENTER
10
77.6742020000
20
86.0232490000
11
83.6742020000
21
86.0232490000
0
LINE
5
241
100
AcDbEntity
8
MITTE
100
AcDbLine
62
4
6
CENTER
10
91.9542020000
20
79.9932490000
11
109.3490290000
21
97.3880760000
0
LINE
5
242
100
AcDbEntity
8
MITTE
100
AcDbLine
62
4
6
CENTER
10
101.1342020000
20
83.5632490000
11
107.1342020000
21
83.5632490000
0
LINE
5
243
100
AcDbEntity
8
MITTE
100
AcDbLine
62
4
6
CENTER
10
104.1342020000
20
86.5632490000
11
104.1342020000
21
80.5632490000
0
LINE
5
244
100
AcDbEntity
8
MITTE
100
AcDbLine
62
4
6
CENTER
10
91.9542020000
20
230.4952430000
11
91.9542020000
21
200.8654160000
0
LINE
5
245
100
AcDbEntity
8
MITTE
100
AcDbLine
62
4
6
CENTER
10
54.8490670000
20
193.5573300000
11
83.0942250000
21
193.5573300000
0
LINE
5
246
100
AcDbEntity
8
MITTE
100
AcDbLine
62
4
6
CENTER
10
58.1742020000
20
157.5273300000
11
68.6742020000
21
157.5273300000
0
LINE
5
247
100
AcDbEntity
8
MITTE
100
AcDbLine
62
4
6
CENTER
10
63.4242020000
20
152.2773300000
11
63.4242020000
21
162.7773300000
0
LINE
5
248
100
AcDbEntity
8
MITTE
100
AcDbLine
62
4
6
CENTER
10
115.2342020000
20
229.5873300000
11
125.7342020000
21
229.5873300000
0
LINE
5
249
100
AcDbEntity
8
MITTE
100
AcDbLine
62
4
6
CENTER
10
120.4842020000
20
224.3373300000
11
120.4842020000
21
234.8373300000
0
LINE
5
24A
100
AcDbEntity
8
MITTE
100
AcDbLine
62
4
6
CENTER
10
88.9383680000
20
193.5573300000
11
129.2503570000
21
193.7265940000
0
LINE
5
24B
100
AcDbEntity
8
MITTE
100
AcDbLine
62
4
6
CENTER
10
91.9542020000
20
194.7624220000
11
91.9542020000
21
156.2808870000
0
LINE
5
24C
100
AcDbEntity
8
MITTE
100
AcDbLine
62
4
6
CENTER
10
63.4542020000
20
38.7432490000
11
63.4542020000
21
49.2432490000
0
LINE
5
24D
100
AcDbEntity
8
MITTE
100
AcDbLine
62
4
6
CENTER
10
58.2042020000
20
43.9932490000
11
68.7042020000
21
43.9932490000
0
LINE
5
24E
100
AcDbEntity
8
MITTE
100
AcDbLine
62
4
6
CENTER
10
115.2042020000
20
115.9932490000
11
125.7042020000
21
115.9932490000
0
LINE
5
24F
100
AcDbEntity
8
MITTE
100
AcDbLine
62
4
6
CENTER
10
120.4542020000
20
110.7432490000
11
120.4542020000
21
121.2432490000
0
LINE
5
250
100
AcDbEntity
8
RAHMEN
100
AcDbLine
62
2
6
CONTINUOUS
10
9.9938210000
20
10.0000000000
11
409.9938210000
21
10.0000000000
0
LINE
5
251
100
AcDbEntity
8
RAHMEN
100
AcDbLine
62
2
6
CONTINUOUS
10
409.9938210000
20
10.0000000000
11
409.9938210000
21
287.0000000000
0
LINE
5
252
100
AcDbEntity
8
RAHMEN
100
AcDbLine
62
2
6
CONTINUOUS
10
409.9938210000
20
287.0000000000
11
9.9938210000
21
287.0000000000
0
LINE
5
253
100
AcDbEntity
8
RAHMEN
100
AcDbLine
62
2
6
CONTINUOUS
10
9.9938210000
20
287.0000000000
11
9.9938210000
21
10.0000000000
0
LINE
5
254
100
AcDbEntity
8
05
100
AcDbLine
62
2
6
CONTINUOUS
10
358.9938210000
20
10.0000000000
11
358.9938210000
21
56.0000000000
0
LINE
5
255
100
AcDbEntity
8
05
100
AcDbLine
62
2
6
CONTINUOUS
10
392.9938210000
20
19.0000000000
11
392.9938210000
21
56.0000000000
0
LINE
5
256
100
AcDbEntity
8
05
100
AcDbLine
62
2
6
CONTINUOUS
10
377.9938210000
20
36.0000000000
11
377.9938210000
21
56.0000000000
0
LINE
5
257
100
AcDbEntity
8
05
100
AcDbLine
62
2
6
CONTINUOUS
10
276.9938210000
20
51.0000000000
11
317.9938210000
21
51.0000000000
0
LINE
5
258
100
AcDbEntity
8
05
100
AcDbLine
62
2
6
CONTINUOUS
10
264.9938210000
20
10.0000000000
11
264.9938210000
21
56.0000000000
0
LINE
5
259
100
AcDbEntity
8
05
100
AcDbLine
62
2
6
CONTINUOUS
10
251.9938210000
20
10.0000000000
11
251.9938210000
21
56.0000000000
0
LINE
5
25A
100
AcDbEntity
8
05
100
AcDbLine
62
2
6
CONTINUOUS
10
209.9938210000
20
16.0000000000
11
276.9938210000
21
16.0000000000
0
LINE
5
25B
100
AcDbEntity
8
05
100
AcDbLine
62
2
6
CONTINUOUS
10
276.9938210000
20
43.0000000000
11
317.9938210000
21
43.0000000000
0
LINE
5
25C
100
AcDbEntity
8
05
100
AcDbLine
62
2
6
CONTINUOUS
10
218.9938210000
20
10.0000000000
11
218.9938210000
21
56.0000000000
0
LINE
5
25D
100
AcDbEntity
8
05
100
AcDbLine
62
2
6
CONTINUOUS
10
276.9938210000
20
10.0000000000
11
276.9938210000
21
56.0000000000
0
LINE
5
25E
100
AcDbEntity
8
05
100
AcDbLine
62
2
6
CONTINUOUS
10
317.9938210000
20
36.0000000000
11
317.9938210000
21
56.0000000000
0
LINE
5
25F
100
AcDbEntity
8
05
100
AcDbLine
62
2
6
CONTINUOUS
10
340.9938210000
20
36.0000000000
11
340.9938210000
21
56.0000000000
0
LINE
5
260
100
AcDbEntity
8
05
100
AcDbLine
62
2
6
CONTINUOUS
10
409.9938210000
20
10.0000000000
11
409.9938210000
21
56.0000000000
0
LINE
5
261
100
AcDbEntity
8
05
100
AcDbLine
62
2
6
CONTINUOUS
10
209.9938210000
20
56.0000000000
11
209.9938210000
21
10.0000000000
0
LINE
5
262
100
AcDbEntity
8
05
100
AcDbLine
62
2
6
CONTINUOUS
10
409.9938210000
20
19.0000000000
11
276.9938210000
21
19.0000000000
0
LINE
5
263
100
AcDbEntity
8
05
100
AcDbLine
62
2
6
CONTINUOUS
10
409.9938210000
20
28.0000000000
11
358.9938210000
21
28.0000000000
0
LINE
5
264
100
AcDbEntity
8
05
100
AcDbLine
62
2
6
CONTINUOUS
10
409.9938210000
20
36.0000000000
11
276.9938210000
21
36.0000000000
0
LINE
5
265
100
AcDbEntity
8
05
100
AcDbLine
62
2
6
CONTINUOUS
10
409.9938210000
20
41.0000000000
11
358.9938210000
21
41.0000000000
0
LINE
5
266
100
AcDbEntity
8
05
100
AcDbLine
62
2
6
CONTINUOUS
10
409.9938210000
20
46.0000000000
11
358.9938210000
21
46.0000000000
0
LINE
5
267
100
AcDbEntity
8
05
100
AcDbLine
62
2
6
CONTINUOUS
10
409.9938210000
20
51.0000000000
11
358.9938210000
21
51.0000000000
0
LINE
5
268
100
AcDbEntity
8
05
100
AcDbLine
62
2
6
CONTINUOUS
10
409.9938210000
20
56.0000000000
11
209.9938210000
21
56.0000000000
0
LINE
5
269
100
AcDbEntity
8
05
100
AcDbLine
62
2
6
CONTINUOUS
10
314.0056190000
20
152.1990370000
11
314.0056190000
21
151.8083240000
0
LINE
5
26A
100
AcDbEntity
8
05
100
AcDbLine
62
2
6
CONTINUOUS
10
313.4113910000
20
152.3010100000
11
313.4113910000
21
151.7063510000
0
LINE
5
26B
100
AcDbEntity
8
05
100
AcDbLine
62
2
6
CONTINUOUS
10
367.3391160000
20
203.5886810000
11
367.3391160000
21
110.5886810000
0
LINE
5
26C
100
AcDbEntity
8
05
100
AcDbLine
62
2
6
CONTINUOUS
10
381.4391160000
20
191.2886810000
11
381.4391160000
21
121.6886810000
0
LINE
5
26D
100
AcDbEntity
8
05
100
AcDbLine
62
2
6
CONTINUOUS
10
318.4391160000
20
187.2386810000
11
318.4391160000
21
123.9386810000
0
LINE
5
26E
100
AcDbEntity
8
05
100
AcDbLine
62
2
6
CONTINUOUS
10
373.3391160000
20
202.3886810000
11
373.3391160000
21
111.7886810000
0
CIRCLE
5
26F
100
AcDbEntity
8
05
100
AcDbCircle
62
2
6
CONTINUOUS
10
217.5515600000
20
157.0886810000
40
24.7500000000
0
CIRCLE
5
270
100
AcDbEntity
8
05
100
AcDbCircle
62
2
6
CONTINUOUS
10
206.2715600000
20
151.0586810000
40
1.5300000000
0
CIRCLE
5
271
100
AcDbEntity
8
05
100
AcDbCircle
62
2
6
CONTINUOUS
10
229.7315600000
20
153.3686810000
40
1.5300000000
0
ARC
5
272
100
AcDbEntity
8
05
100
AcDbCircle
62
2
6
CONTINUOUS
10
217.5515600000
20
157.0886810000
40
19.3500000000
100
AcDbArc
50
100.7221520000
51
79.2778480000
0
CIRCLE
5
273
100
AcDbEntity
8
05
100
AcDbCircle
62
2
6
CONTINUOUS
10
217.5515600000
20
157.0886810000
40
29.2500000000
0
ARC
5
274
100
AcDbEntity
8
05
100
AcDbCircle
62
2
6
CONTINUOUS
10
217.5515600000
20
157.0886810000
40
27.0750000000
100
AcDbArc
50
337.1815990000
51
22.8184010000
0
LINE
5
275
100
AcDbEntity
8
05
100
AcDbLine
62
2
6
CONTINUOUS
10
178.5515600000
20
121.0886810000
11
178.5515600000
21
193.0886810000
0
LINE
5
276
100
AcDbEntity
8
05
100
AcDbLine
62
2
6
CONTINUOUS
10
256.5515600000
20
193.0886810000
11
256.5515600000
21
121.0886810000
0
ARC
5
277
100
AcDbEntity
8
05
100
AcDbCircle
62
2
6
CONTINUOUS
10
217.5515600000
20
157.0886810000
40
35.4000000000
100
AcDbArc
50
108.9039750000
51
71.0960250000
0
ARC
5
278
100
AcDbEntity
8
05
100
AcDbCircle
62
2
6
CONTINUOUS
10
217.5515600000
20
157.0886810000
40
27.0750000000
100
AcDbArc
50
157.1815990000
51
202.8184010000
0
CIRCLE
5
279
100
AcDbEntity
8
05
100
AcDbCircle
62
2
6
CONTINUOUS
10
223.5815600000
20
145.8086810000
40
1.5300000000
0
ARC
5
27A
100
AcDbEntity
8
05
100
AcDbCircle
62
2
6
CONTINUOUS
10
217.5515600000
20
157.0886810000
40
27.0750000000
100
AcDbArc
50
247.1815990000
51
292.8184010000
0
LINE
5
27B
100
AcDbEntity
8
05
100
AcDbLine
62
2
6
CONTINUOUS
10
246.0515600000
20
110.5886810000
11
189.0515600000
21
110.5886810000
0
ARC
5
27C
100
AcDbEntity
8
05
100
AcDbCircle
62
2
6
CONTINUOUS
10
189.0515600000
20
121.0886810000
40
10.5000000000
100
AcDbArc
50
180.0000000000
51
270.0000000000
0
LINE
5
27D
100
AcDbEntity
8
05
100
AcDbLine
62
2
6
CONTINUOUS
10
192.5954860000
20
146.5886810000
11
190.2511480000
21
146.5886810000
0
LINE
5
27E
100
AcDbEntity
8
05
100
AcDbLine
62
2
6
CONTINUOUS
10
207.0515600000
20
132.1326070000
11
207.0515600000
21
129.7882690000
0
CIRCLE
5
27F
100
AcDbEntity
8
05
100
AcDbCircle
62
2
6
CONTINUOUS
10
213.8315600000
20
144.9086810000
40
1.5300000000
0
LINE
5
280
100
AcDbEntity
8
05
100
AcDbLine
62
2
6
CONTINUOUS
10
318.4391160000
20
123.9386810000
11
330.4391160000
21
123.9386810000
0
ARC
5
281
100
AcDbEntity
8
05
100
AcDbCircle
62
2
6
CONTINUOUS
10
246.0515600000
20
121.0886810000
40
10.5000000000
100
AcDbArc
50
270.0000000000
51
360.0000000000
0
CIRCLE
5
282
100
AcDbEntity
8
05
100
AcDbCircle
62
2
6
CONTINUOUS
10
246.0515600000
20
121.0886810000
40
5.2500000000
0
CIRCLE
5
283
100
AcDbEntity
8
05
100
AcDbCircle
62
2
6
CONTINUOUS
10
246.0515600000
20
121.0886810000
40
9.0000000000
0
LINE
5
284
100
AcDbEntity
8
05
100
AcDbLine
62
2
6
CONTINUOUS
10
228.0515600000
20
132.1326070000
11
228.0515600000
21
129.7882690000
0
LINE
5
285
100
AcDbEntity
8
05
100
AcDbLine
62
2
6
CONTINUOUS
10
242.5076340000
20
146.5886810000
11
244.8519720000
21
146.5886810000
0
ARC
5
286
100
AcDbEntity
8
05
100
AcDbCircle
62
2
6
CONTINUOUS
10
308.7174606678
20
139.4834394858
40
4.7517775043
100
AcDbArc
50
16.8230095850
51
22.2185874004
0
LINE
5
287
100
AcDbEntity
8
05
100
AcDbLine
62
2
6
CONTINUOUS
10
312.4391160000
20
148.4186810000
11
312.4391160000
21
147.7586810000
0
LINE
5
288
100
AcDbEntity
8
05
100
AcDbLine
62
2
6
CONTINUOUS
10
372.1391160000
20
110.5886810000
11
367.3391160000
21
110.5886810000
0
LINE
5
289
100
AcDbEntity
8
05
100
AcDbLine
62
2
6
CONTINUOUS
10
340.3391160000
20
123.9386810000
11
346.6420020000
21
123.9386810000
0
LINE
5
28A
100
AcDbEntity
8
05
100
AcDbLine
62
2
6
CONTINUOUS
10
330.4391160000
20
124.2376090000
11
340.3391160000
21
123.9386810000
0
LINE
5
28B
100
AcDbEntity
8
05
100
AcDbLine
62
2
6
CONTINUOUS
10
330.4391160000
20
124.2376090000
11
330.4391160000
21
123.9386810000
0
LINE
5
28C
100
AcDbEntity
8
05
100
AcDbLine
62
2
6
CONTINUOUS
10
367.3391160000
20
124.1956610000
11
349.0391160000
21
124.1956610000
0
LINE
5
28D
100
AcDbEntity
8
05
100
AcDbLine
62
2
6
CONTINUOUS
10
367.3391160000
20
121.6886810000
11
350.5391160000
21
121.6886810000
0
ARC
5
28E
100
AcDbEntity
8
05
100
AcDbCircle
62
2
6
CONTINUOUS
10
350.5391160000
20
126.1886810000
40
4.5000000000
100
AcDbArc
50
210.0000000000
51
270.0000000000
0
ARC
5
28F
100
AcDbEntity
8
05
100
AcDbCircle
62
2
6
CONTINUOUS
10
349.0391512461
20
101.8388402980
40
22.3568207020
100
AcDbArc
50
90.0000903283
51
92.5425435377
0
ARC
5
290
100
AcDbEntity
8
05
100
AcDbCircle
62
2
6
CONTINUOUS
10
348.5487121787
20
112.8836667503
40
11.3011107818
100
AcDbArc
50
92.5425710340
51
96.1189124572
0
ARC
5
291
100
AcDbEntity
8
05
100
AcDbCircle
62
2
6
CONTINUOUS
10
347.8279718500
20
119.6068898882
40
4.5393657421
100
AcDbArc
50
96.1190330561
51
104.5104878932
0
LINE
5
292
100
AcDbEntity
8
05
100
AcDbLine
62
2
6
CONTINUOUS
10
346.6906010000
20
124.0014580000
11
346.6420020000
21
123.9386810000
0
ARC
5
293
100
AcDbEntity
8
05
100
AcDbCircle
62
2
6
CONTINUOUS
10
372.1391160000
20
111.7886810000
40
1.2000000000
100
AcDbArc
50
270.0000000000
51
360.0000000000
0
LINE
5
294
100
AcDbEntity
8
05
100
AcDbLine
62
2
6
CONTINUOUS
10
381.4391160000
20
121.6886810000
11
373.3391160000
21
121.6886810000
0
LINE
5
295
100
AcDbEntity
8
05
100
AcDbLine
62
2
6
CONTINUOUS
10
221.1515600000
20
173.5886810000
11
223.8515600000
21
173.5886810000
0
LINE
5
296
100
AcDbEntity
8
05
100
AcDbLine
62
2
6
CONTINUOUS
10
221.1515600000
20
172.3886810000
11
223.8515600000
21
172.3886810000
0
LINE
5
297
100
AcDbEntity
8
05
100
AcDbLine
62
2
6
CONTINUOUS
10
211.2515600000
20
169.0886810000
11
223.8515600000
21
169.0886810000
0
LINE
5
298
100
AcDbEntity
8
05
100
AcDbLine
62
2
6
CONTINUOUS
10
246.0515600000
20
203.5886810000
11
217.5515600000
21
203.5886810000
0
LINE
5
299
100
AcDbEntity
8
05
100
AcDbLine
62
2
6
CONTINUOUS
10
225.0515600000
20
187.0886810000
11
217.5515600000
21
187.0886810000
0
LINE
5
29A
100
AcDbEntity
8
05
100
AcDbLine
62
2
6
CONTINUOUS
10
226.6904880000
20
191.2886810000
11
217.5515600000
21
191.2886810000
0
CIRCLE
5
29B
100
AcDbEntity
8
05
100
AcDbCircle
62
2
6
CONTINUOUS
10
189.0515600000
20
193.0886810000
40
9.0000000000
0
LINE
5
29C
100
AcDbEntity
8
05
100
AcDbLine
62
2
6
CONTINUOUS
10
210.0515600000
20
185.3607960000
11
210.0515600000
21
191.2886810000
0
LINE
5
29D
100
AcDbEntity
8
05
100
AcDbLine
62
2
6
CONTINUOUS
10
192.5954860000
20
167.5886810000
11
190.2511480000
21
167.5886810000
0
CIRCLE
5
29E
100
AcDbEntity
8
05
100
AcDbCircle
62
2
6
CONTINUOUS
10
205.3715600000
20
160.6586810000
40
1.5300000000
0
CIRCLE
5
29F
100
AcDbEntity
8
05
100
AcDbCircle
62
2
6
CONTINUOUS
10
217.5515600000
20
157.0886810000
40
1.5300000000
0
LINE
5
2A0
100
AcDbEntity
8
05
100
AcDbLine
62
2
6
CONTINUOUS
10
216.6515600000
20
157.0886810000
11
218.4515600000
21
157.0886810000
0
LINE
5
2A1
100
AcDbEntity
8
05
100
AcDbLine
62
2
6
CONTINUOUS
10
211.2515600000
20
172.3886810000
11
213.9515600000
21
172.3886810000
0
LINE
5
2A2
100
AcDbEntity
8
05
100
AcDbLine
62
2
6
CONTINUOUS
10
211.2515600000
20
173.5886810000
11
213.9515600000
21
173.5886810000
0
LINE
5
2A3
100
AcDbEntity
8
05
100
AcDbLine
62
2
6
CONTINUOUS
10
211.2515600000
20
169.0886810000
11
211.2515600000
21
173.5886810000
0
LINE
5
2A4
100
AcDbEntity
8
05
100
AcDbLine
62
2
6
CONTINUOUS
10
213.9515600000
20
173.5886810000
11
213.9515600000
21
176.1008480000
0
LINE
5
2A5
100
AcDbEntity
8
05
100
AcDbLine
62
2
6
CONTINUOUS
10
213.9515600000
20
169.0886810000
11
213.9515600000
21
172.3886810000
0
LINE
5
2A6
100
AcDbEntity
8
05
100
AcDbLine
62
2
6
CONTINUOUS
10
221.1515600000
20
173.5886810000
11
221.1515600000
21
176.1008480000
0
LINE
5
2A7
100
AcDbEntity
8
05
100
AcDbLine
62
2
6
CONTINUOUS
10
221.1515600000
20
169.0886810000
11
221.1515600000
21
172.3886810000
0
LINE
5
2A8
100
AcDbEntity
8
05
100
AcDbLine
62
2
6
CONTINUOUS
10
217.5515600000
20
203.5886810000
11
189.0515600000
21
203.5886810000
0
ARC
5
2A9
100
AcDbEntity
8
05
100
AcDbCircle
62
2
6
CONTINUOUS
10
189.0515600000
20
193.0886810000
40
10.5000000000
100
AcDbArc
50
90.0000000000
51
180.0000000000
0
CIRCLE
5
2AA
100
AcDbEntity
8
05
100
AcDbCircle
62
2
6
CONTINUOUS
10
189.0515600000
20
193.0886810000
40
5.2500000000
0
LINE
5
2AB
100
AcDbEntity
8
05
100
AcDbLine
62
2
6
CONTINUOUS
10
217.5515600000
20
187.0886810000
11
210.0515600000
21
187.0886810000
0
LINE
5
2AC
100
AcDbEntity
8
05
100
AcDbLine
62
2
6
CONTINUOUS
10
217.5515600000
20
191.2886810000
11
208.4126330000
21
191.2886810000
0
LINE
5
2AD
100
AcDbEntity
8
05
100
AcDbLine
62
2
6
CONTINUOUS
10
210.0515600000
20
188.2886810000
11
206.0825600000
21
188.2886810000
0
LINE
5
2AE
100
AcDbEntity
8
05
100
AcDbLine
62
2
6
CONTINUOUS
10
206.0825600000
20
188.2886810000
11
206.0825600000
21
190.5793070000
0
LINE
5
2AF
100
AcDbEntity
8
05
100
AcDbLine
62
2
6
CONTINUOUS
10
208.2515600000
20
188.2886810000
11
208.2515600000
21
191.2452320000
0
ARC
5
2B0
100
AcDbEntity
8
05
100
AcDbCircle
62
2
6
CONTINUOUS
10
217.5515600000
20
157.0886810000
40
35.4000000000
100
AcDbArc
50
104.9610180000
51
108.9039750000
0
LINE
5
2B1
100
AcDbEntity
8
05
100
AcDbLine
62
2
6
CONTINUOUS
10
318.4391160000
20
183.4786520000
11
327.5323830000
21
189.1691400000
0
LINE
5
2B2
100
AcDbEntity
8
05
100
AcDbLine
62
2
6
CONTINUOUS
10
367.3391160000
20
183.4786520000
11
318.4391160000
21
183.4786520000
0
LINE
5
2B3
100
AcDbEntity
8
05
100
AcDbLine
62
2
6
CONTINUOUS
10
318.4391160000
20
187.2386810000
11
327.5323830000
21
192.4886810000
0
LINE
5
2B4
100
AcDbEntity
8
05
100
AcDbLine
62
2
6
CONTINUOUS
10
225.0515600000
20
185.3607960000
11
225.0515600000
21
191.2886810000
0
CIRCLE
5
2B5
100
AcDbEntity
8
05
100
AcDbCircle
62
2
6
CONTINUOUS
10
228.8315600000
20
163.1186810000
40
1.5300000000
0
LINE
5
2B6
100
AcDbEntity
8
05
100
AcDbLine
62
2
6
CONTINUOUS
10
242.5076340000
20
167.5886810000
11
244.8519720000
21
167.5886810000
0
LINE
5
2B7
100
AcDbEntity
8
05
100
AcDbLine
62
2
6
CONTINUOUS
10
223.8515600000
20
169.0886810000
11
223.8515600000
21
173.5886810000
0
ARC
5
2B8
100
AcDbEntity
8
05
100
AcDbCircle
62
2
6
CONTINUOUS
10
246.0515600000
20
193.0886810000
40
10.5000000000
100
AcDbArc
50
0.0000000000
51
90.0000000000
0
ARC
5
2B9
100
AcDbEntity
8
05
100
AcDbCircle
62
2
6
CONTINUOUS
10
217.5515600000
20
157.0886810000
40
35.4000000000
100
AcDbArc
50
71.0960250000
51
75.0389820000
0
LINE
5
2BA
100
AcDbEntity
8
05
100
AcDbLine
62
2
6
CONTINUOUS
10
229.0205600000
20
188.2886810000
11
229.0205600000
21
190.5793070000
0
LINE
5
2BB
100
AcDbEntity
8
05
100
AcDbLine
62
2
6
CONTINUOUS
10
226.8515600000
20
188.2886810000
11
226.8515600000
21
191.2452320000
0
LINE
5
2BC
100
AcDbEntity
8
05
100
AcDbLine
62
2
6
CONTINUOUS
10
229.0205600000
20
188.2886810000
11
225.0515600000
21
188.2886810000
0
LINE
5
2BD
100
AcDbEntity
8
05
100
AcDbLine
62
2
6
CONTINUOUS
10
312.4391160000
20
158.1686810000
11
312.4391160000
21
155.5886810000
0
LINE
5
2BE
100
AcDbEntity
8
05
100
AcDbLine
62
2
6
CONTINUOUS
10
372.1391160000
20
203.5886810000
11
367.3391160000
21
203.5886810000
0
LINE
5
2BF
100
AcDbEntity
8
05
100
AcDbLine
62
2
6
CONTINUOUS
10
367.3391160000
20
161.5645820000
11
351.1906010000
21
161.5645820000
0
LINE
5
2C0
100
AcDbEntity
8
05
100
AcDbLine
62
2
6
CONTINUOUS
10
367.3391160000
20
152.6127800000
11
351.1906010000
21
152.6127800000
0
ARC
5
2C1
100
AcDbEntity
8
05
100
AcDbCircle
62
2
6
CONTINUOUS
10
351.1906010000
20
157.0886810000
40
4.4759010000
100
AcDbArc
50
90.0000000000
51
270.0000000000
0
LINE
5
2C2
100
AcDbEntity
8
05
100
AcDbLine
62
2
6
CONTINUOUS
10
349.0391160000
20
191.5883560000
11
331.3391160000
21
191.5883560000
0
LINE
5
2C3
100
AcDbEntity
8
05
100
AcDbLine
62
2
6
CONTINUOUS
10
367.3391160000
20
189.1691400000
11
327.5323830000
21
189.1691400000
0
LINE
5
2C4
100
AcDbEntity
8
05
100
AcDbLine
62
2
6
CONTINUOUS
10
331.3391160000
20
192.4886810000
11
327.5323830000
21
192.4886810000
0
LINE
5
2C5
100
AcDbEntity
8
05
100
AcDbLine
62
2
6
CONTINUOUS
10
331.3391160000
20
192.4886810000
11
331.3391160000
21
191.5883560000
0
LINE
5
2C6
100
AcDbEntity
8
05
100
AcDbLine
62
2
6
CONTINUOUS
10
327.5323830000
20
192.4886810000
11
327.5323830000
21
189.1691400000
0
LINE
5
2C7
100
AcDbEntity
8
05
100
AcDbLine
62
2
6
CONTINUOUS
10
367.3391160000
20
191.2506690000
11
349.0391160000
21
191.2506690000
0
LINE
5
2C8
100
AcDbEntity
8
05
100
AcDbLine
62
2
6
CONTINUOUS
10
349.0391160000
20
191.5883560000
11
349.0391160000
21
191.2506690000
0
LINE
5
2C9
100
AcDbEntity
8
05
100
AcDbLine
62
2
6
CONTINUOUS
10
367.3391160000
20
192.4886810000
11
367.3391160000
21
191.2506690000
0
ARC
5
2CA
100
AcDbEntity
8
05
100
AcDbCircle
62
2
6
CONTINUOUS
10
372.1391160000
20
202.3886810000
40
1.2000000000
100
AcDbArc
50
0.0000000000
51
90.0000000000
0
LINE
5
2CB
100
AcDbEntity
8
05
100
AcDbLine
62
2
6
CONTINUOUS
10
381.4391160000
20
191.2886810000
11
373.3391160000
21
191.2886810000
0
ARC
5
2CC
100
AcDbEntity
8
05
100
AcDbCircle
62
2
6
CONTINUOUS
10
91.9542020000
20
79.9932490000
40
20.5500000000
100
AcDbArc
50
96.2858620000
51
259.9107220000
0
ARC
5
2CD
100
AcDbEntity
8
05
100
AcDbCircle
62
2
6
CONTINUOUS
10
91.9542020000
20
79.9932490000
40
20.5500000000
100
AcDbArc
50
280.0892780000
51
34.9107220000
0
ARC
5
2CE
100
AcDbEntity
8
05
100
AcDbCircle
62
2
6
CONTINUOUS
10
79.7742020000
20
76.2732490000
40
4.5000000000
100
AcDbArc
50
309.1280810000
51
84.7261040000
0
ARC
5
2CF
100
AcDbEntity
8
05
100
AcDbCircle
62
2
6
CONTINUOUS
10
103.2342020000
20
73.9632490000
40
4.5000000000
100
AcDbArc
50
84.6441750000
51
219.1280810000
0
LINE
5
2D0
100
AcDbEntity
8
05
100
AcDbLine
62
2
6
CONTINUOUS
10
52.9542020000
20
115.9932490000
11
52.9542020000
21
43.9932490000
0
LINE
5
2D1
100
AcDbEntity
8
05
100
AcDbLine
62
2
6
CONTINUOUS
10
130.9542020000
20
43.9932490000
11
130.9542020000
21
115.9932490000
0
ARC
5
2D2
100
AcDbEntity
8
05
100
AcDbCircle
62
2
6
CONTINUOUS
10
91.9542020000
20
79.9932490000
40
27.0750000000
100
AcDbArc
50
142.3288690000
51
37.6711310000
0
CIRCLE
5
2D3
100
AcDbEntity
8
05
100
AcDbCircle
62
2
6
CONTINUOUS
10
91.9542020000
20
79.9932490000
40
31.8000000000
0
ARC
5
2D4
100
AcDbEntity
8
05
100
AcDbCircle
62
2
6
CONTINUOUS
10
91.9542020000
20
79.9932490000
40
22.2000000000
100
AcDbArc
50
260.6675820000
51
279.3324180000
0
ARC
5
2D5
100
AcDbEntity
8
05
100
AcDbCircle
62
2
6
CONTINUOUS
10
85.9242020000
20
68.7132490000
40
4.5000000000
100
AcDbArc
50
354.7261040000
51
129.1280810000
0
LINE
5
2D6
100
AcDbEntity
8
05
100
AcDbLine
62
2
6
CONTINUOUS
10
63.4542020000
20
33.4932490000
11
120.4542020000
21
33.4932490000
0
ARC
5
2D7
100
AcDbEntity
8
05
100
AcDbCircle
62
2
6
CONTINUOUS
10
91.9542020000
20
49.0932490000
40
4.5000000000
100
AcDbArc
50
187.4752030000
51
352.5247970000
0
ARC
5
2D8
100
AcDbEntity
8
05
100
AcDbCircle
62
2
6
CONTINUOUS
10
63.4542020000
20
43.9932490000
40
10.5000000000
100
AcDbArc
50
180.0000000000
51
270.0000000000
0
CIRCLE
5
2D9
100
AcDbEntity
8
05
100
AcDbCircle
62
2
6
CONTINUOUS
10
63.4542020000
20
43.9932490000
40
5.2500000000
0
LINE
5
2DA
100
AcDbEntity
8
05
100
AcDbLine
62
2
6
CONTINUOUS
10
88.3542020000
20
59.7610350000
11
88.3542020000
21
58.0870860000
0
LINE
5
2DB
100
AcDbEntity
8
05
100
AcDbLine
62
2
6
CONTINUOUS
10
82.6139540000
20
72.7824320000
11
83.0844500000
21
72.2040670000
0
ARC
5
2DC
100
AcDbEntity
8
05
100
AcDbCircle
62
2
6
CONTINUOUS
10
120.4542020000
20
43.9932490000
40
10.5000000000
100
AcDbArc
50
270.0000000000
51
360.0000000000
0
LINE
5
2DD
100
AcDbEntity
8
05
100
AcDbLine
62
2
6
CONTINUOUS
10
95.5542020000
20
59.7610350000
11
95.5542020000
21
58.0870860000
0
ARC
5
2DE
100
AcDbEntity
8
05
100
AcDbCircle
62
2
6
CONTINUOUS
10
95.6742020000
20
67.8132490000
40
4.5000000000
100
AcDbArc
50
39.1280810000
51
174.7261040000
0
LINE
5
2DF
100
AcDbEntity
8
05
100
AcDbLine
62
2
6
CONTINUOUS
10
90.4051520000
20
68.2996230000
11
91.1932520000
21
68.2268750000
0
LINE
5
2E0
100
AcDbEntity
8
05
100
AcDbLine
62
2
6
CONTINUOUS
10
99.1650190000
20
70.6530020000
11
99.7433850000
21
71.1234970000
0
LINE
5
2E1
100
AcDbEntity
8
05
100
AcDbLine
62
2
6
CONTINUOUS
10
88.3542020000
20
91.9932490000
11
95.5542020000
21
91.9932490000
0
CIRCLE
5
2E2
100
AcDbEntity
8
05
100
AcDbCircle
62
2
6
CONTINUOUS
10
91.9542020000
20
79.9932490000
40
3.4500000000
0
CIRCLE
5
2E3
100
AcDbEntity
8
05
100
AcDbCircle
62
2
6
CONTINUOUS
10
91.9542020000
20
79.9932490000
40
4.5000000000
0
LINE
5
2E4
100
AcDbEntity
8
05
100
AcDbLine
62
2
6
CONTINUOUS
10
101.4746720000
20
87.1932490000
11
85.0194410000
21
87.1932490000
0
LINE
5
2E5
100
AcDbEntity
8
05
100
AcDbLine
62
2
6
CONTINUOUS
10
63.4542020000
20
126.4932490000
11
91.9542020000
21
126.4932490000
0
ARC
5
2E6
100
AcDbEntity
8
05
100
AcDbCircle
62
2
6
CONTINUOUS
10
91.9542020000
20
79.9932490000
40
35.4000000000
100
AcDbArc
50
64.9297720000
51
115.0702280000
0
ARC
5
2E7
100
AcDbEntity
8
05
100
AcDbCircle
62
2
6
CONTINUOUS
10
91.9542020000
20
79.9932490000
40
27.0750000000
100
AcDbArc
50
90.0000000000
51
127.6711310000
0
LINE
5
2E8
100
AcDbEntity
8
05
100
AcDbLine
62
2
6
CONTINUOUS
10
84.0042020000
20
109.9932490000
11
99.9042020000
21
109.9932490000
0
LINE
5
2E9
100
AcDbEntity
8
05
100
AcDbLine
62
2
6
CONTINUOUS
10
84.0042020000
20
105.8747700000
11
84.0042020000
21
109.9932490000
0
LINE
5
2EA
100
AcDbEntity
8
05
100
AcDbLine
62
2
6
CONTINUOUS
10
76.9542020000
20
108.0332210000
11
76.9542020000
21
112.0581830000
0
ARC
5
2EB
100
AcDbEntity
8
05
100
AcDbCircle
62
2
6
CONTINUOUS
10
61.0523650000
20
79.8646680000
40
4.5000000000
100
AcDbArc
50
97.6860650000
51
262.7907410000
0
ARC
5
2EC
100
AcDbEntity
8
05
100
AcDbCircle
62
2
6
CONTINUOUS
10
80.6742020000
20
86.0232490000
40
4.5000000000
100
AcDbArc
50
264.7261040000
51
15.0700620000
0
LINE
5
2ED
100
AcDbEntity
8
05
100
AcDbLine
62
2
6
CONTINUOUS
10
80.2605760000
20
81.5422990000
11
80.1878280000
21
80.7541990000
0
LINE
5
2EE
100
AcDbEntity
8
05
100
AcDbLine
62
2
6
CONTINUOUS
10
76.5746300000
20
98.5548020000
11
76.5746300000
21
102.2760760000
0
LINE
5
2EF
100
AcDbEntity
8
05
100
AcDbLine
62
2
6
CONTINUOUS
10
75.4079030000
20
98.6608680000
11
75.4079030000
21
101.4239660000
0
LINE
5
2F0
100
AcDbEntity
8
05
100
AcDbLine
62
2
6
CONTINUOUS
10
73.3926490000
20
95.3728220000
11
69.6713750000
21
95.3728220000
0
LINE
5
2F1
100
AcDbEntity
8
05
100
AcDbLine
62
2
6
CONTINUOUS
10
73.2865830000
20
96.5395480000
11
70.5234850000
21
96.5395480000
0
LINE
5
2F2
100
AcDbEntity
8
05
100
AcDbLine
62
2
6
CONTINUOUS
10
76.5746300000
20
98.5548020000
11
73.3926490000
21
95.3728220000
0
LINE
5
2F3
100
AcDbEntity
8
05
100
AcDbLine
62
2
6
CONTINUOUS
10
75.4079030000
20
98.6608680000
11
73.2865830000
21
96.5395480000
0
LINE
5
2F4
100
AcDbEntity
8
05
100
AcDbLine
62
2
6
CONTINUOUS
10
88.3542020000
20
91.9932490000
11
88.3542020000
21
95.2932490000
0
LINE
5
2F5
100
AcDbEntity
8
05
100
AcDbLine
62
2
6
CONTINUOUS
10
85.6542020000
20
95.2932490000
11
88.3542020000
21
95.2932490000
0
LINE
5
2F6
100
AcDbEntity
8
05
100
AcDbLine
62
2
6
CONTINUOUS
10
85.6542020000
20
96.4932490000
11
88.3542020000
21
96.4932490000
0
LINE
5
2F7
100
AcDbEntity
8
05
100
AcDbLine
62
2
6
CONTINUOUS
10
85.6542020000
20
95.2932490000
11
85.6542020000
21
96.4932490000
0
LINE
5
2F8
100
AcDbEntity
8
05
100
AcDbLine
62
2
6
CONTINUOUS
10
88.3542020000
20
96.4932490000
11
88.3542020000
21
100.2254640000
0
ARC
5
2F9
100
AcDbEntity
8
05
100
AcDbCircle
62
2
6
CONTINUOUS
10
63.4542020000
20
115.9932490000
40
10.5000000000
100
AcDbArc
50
90.0000000000
51
180.0000000000
0
LINE
5
2FA
100
AcDbEntity
8
05
100
AcDbLine
62
2
6
CONTINUOUS
10
99.9042020000
20
105.8747700000
11
99.9042020000
21
109.9932490000
0
LINE
5
2FB
100
AcDbEntity
8
05
100
AcDbLine
62
2
6
CONTINUOUS
10
106.9542020000
20
108.0332210000
11
106.9542020000
21
112.0581830000
0
LINE
5
2FC
100
AcDbEntity
8
05
100
AcDbLine
62
2
6
CONTINUOUS
10
113.5916700000
20
93.1454350000
11
112.5310090000
21
92.0847750000
0
LINE
5
2FD
100
AcDbEntity
8
05
100
AcDbLine
62
2
6
CONTINUOUS
10
105.1063880000
20
101.6307170000
11
113.5916700000
21
93.1454350000
0
LINE
5
2FE
100
AcDbEntity
8
05
100
AcDbLine
62
2
6
CONTINUOUS
10
108.8061220000
20
91.7540010000
11
109.9897830000
21
92.9376620000
0
ARC
5
2FF
100
AcDbEntity
8
05
100
AcDbCircle
62
2
6
CONTINUOUS
10
104.1342020000
20
83.5632490000
40
4.5000000000
100
AcDbArc
50
126.2284770000
51
264.6441750000
0
LINE
5
300
100
AcDbEntity
8
05
100
AcDbLine
62
2
6
CONTINUOUS
10
91.0542020000
20
79.9932490000
11
92.8542020000
21
79.9932490000
0
LINE
5
301
100
AcDbEntity
8
05
100
AcDbLine
62
2
6
CONTINUOUS
10
91.9542020000
20
79.0932490000
11
91.9542020000
21
80.8932490000
0
CIRCLE
5
302
100
AcDbEntity
8
05
100
AcDbCircle
62
2
6
CONTINUOUS
10
91.9542020000
20
79.9932490000
40
1.5300000000
0
LINE
5
303
100
AcDbEntity
8
05
100
AcDbLine
62
2
6
CONTINUOUS
10
103.6542350000
20
78.4436030000
11
103.7141690000
21
79.0828950000
0
ARC
5
304
100
AcDbEntity
8
05
100
AcDbCircle
62
2
6
CONTINUOUS
10
91.9542020000
20
79.9932490000
40
20.5500000000
100
AcDbArc
50
55.0892780000
51
83.7141380000
0
ARC
5
305
100
AcDbEntity
8
05
100
AcDbCircle
62
2
6
CONTINUOUS
10
91.9542020000
20
79.9932490000
40
27.0750000000
100
AcDbArc
50
52.3288690000
51
90.0000000000
0
LINE
5
306
100
AcDbEntity
8
05
100
AcDbLine
62
2
6
CONTINUOUS
10
95.5542020000
20
91.9932490000
11
95.5542020000
21
95.2932490000
0
LINE
5
307
100
AcDbEntity
8
05
100
AcDbLine
62
2
6
CONTINUOUS
10
98.2542020000
20
95.2932490000
11
98.2542020000
21
96.4932490000
0
LINE
5
308
100
AcDbEntity
8
05
100
AcDbLine
62
2
6
CONTINUOUS
10
98.2542020000
20
96.4932490000
11
95.5542020000
21
96.4932490000
0
LINE
5
309
100
AcDbEntity
8
05
100
AcDbLine
62
2
6
CONTINUOUS
10
98.2542020000
20
95.2932490000
11
95.5542020000
21
95.2932490000
0
LINE
5
30A
100
AcDbEntity
8
05
100
AcDbLine
62
2
6
CONTINUOUS
10
95.5542020000
20
96.4932490000
11
95.5542020000
21
100.2254640000
0
LINE
5
30B
100
AcDbEntity
8
05
100
AcDbLine
62
2
6
CONTINUOUS
10
104.0457280000
20
100.5700570000
11
112.5310090000
21
92.0847750000
0
LINE
5
30C
100
AcDbEntity
8
05
100
AcDbLine
62
2
6
CONTINUOUS
10
108.5005010000
20
98.6608680000
11
108.5005010000
21
101.4239660000
0
ARC
5
30D
100
AcDbEntity
8
05
100
AcDbCircle
62
2
6
CONTINUOUS
10
91.9542020000
20
79.9932490000
40
22.2000000000
100
AcDbArc
50
35.6675820000
51
54.3324180000
0
LINE
5
30E
100
AcDbEntity
8
05
100
AcDbLine
62
2
6
CONTINUOUS
10
103.7149540000
20
96.8451700000
11
104.8986140000
21
98.0288300000
0
LINE
5
30F
100
AcDbEntity
8
05
100
AcDbLine
62
2
6
CONTINUOUS
10
113.4747120000
20
96.4225910000
11
111.8946130000
21
94.8424920000
0
LINE
5
310
100
AcDbEntity
8
05
100
AcDbLine
62
2
6
CONTINUOUS
10
108.5005010000
20
98.6608680000
11
110.6218210000
21
96.5395480000
0
LINE
5
311
100
AcDbEntity
8
05
100
AcDbLine
62
2
6
CONTINUOUS
10
110.6218210000
20
96.5395480000
11
113.3849190000
21
96.5395480000
0
LINE
5
312
100
AcDbEntity
8
05
100
AcDbLine
62
2
6
CONTINUOUS
10
105.1063880000
20
101.6307170000
11
104.0457280000
21
100.5700570000
0
LINE
5
313
100
AcDbEntity
8
05
100
AcDbLine
62
2
6
CONTINUOUS
10
105.7427840000
20
100.9943210000
11
105.7427840000
21
103.2941210000
0
ARC
5
314
100
AcDbEntity
8
05
100
AcDbCircle
62
2
6
CONTINUOUS
10
122.8560390000
20
79.8646680000
40
4.5000000000
100
AcDbArc
50
277.2092590000
51
82.3139350000
0
LINE
5
315
100
AcDbEntity
8
05
100
AcDbLine
62
2
6
CONTINUOUS
10
91.9542020000
20
126.4932490000
11
120.4542020000
21
126.4932490000
0
ARC
5
316
100
AcDbEntity
8
05
100
AcDbCircle
62
2
6
CONTINUOUS
10
120.4542020000
20
115.9932490000
40
10.5000000000
100
AcDbArc
50
0.0000000000
51
90.0000000000
0
CIRCLE
5
317
100
AcDbEntity
8
05
100
AcDbCircle
62
2
6
CONTINUOUS
10
120.4542020000
20
115.9932490000
40
5.2500000000
0
CIRCLE
5
318
100
AcDbEntity
8
05
100
AcDbCircle
62
2
6
CONTINUOUS
10
63.4242020000
20
157.5273300000
40
4.6500000000
0
CIRCLE
5
319
100
AcDbEntity
8
05
100
AcDbCircle
62
2
6
CONTINUOUS
10
120.4842020000
20
229.5873300000
40
4.6500000000
0
ARC
5
31A
100
AcDbEntity
8
05
100
AcDbCircle
62
2
6
CONTINUOUS
10
210.4737410000
20
116.5886810000
40
3.7500000000
100
AcDbArc
50
270.0000110000
51
89.9999890000
0
LINE
5
31B
100
AcDbEntity
8
05
100
AcDbLine
62
2
6
CONTINUOUS
10
188.6015600000
20
120.3386810000
11
210.4737450000
21
120.3386810000
0
ARC
5
31C
100
AcDbEntity
8
05
100
AcDbCircle
62
2
6
CONTINUOUS
10
188.6015600000
20
116.5886810000
40
3.7500000000
100
AcDbArc
50
90.0000000000
51
270.0000000000
0
LINE
5
31D
100
AcDbEntity
8
05
100
AcDbLine
62
2
6
CONTINUOUS
10
188.6015600000
20
112.8386810000
11
210.4737450000
21
112.8386810000
0
ARC
5
31E
100
AcDbEntity
8
05
100
AcDbCircle
62
2
6
CONTINUOUS
10
246.0515600000
20
193.0886810000
40
10.5000000000
100
AcDbArc
50
0.0000000000
51
90.0000000000
0
LINE
5
31F
100
AcDbEntity
8
05
100
AcDbLine
62
2
6
CONTINUOUS
10
330.4391160000
20
170.5886800000
11
330.4391160000
21
143.5886800000
0
CIRCLE
5
320
100
AcDbEntity
8
05
100
AcDbCircle
62
2
6
CONTINUOUS
10
91.9542020000
20
193.5573300000
40
35.7300000000
0
LINE
5
321
100
AcDbEntity
8
0
100
AcDbLine
62
7
6
CONTINUOUS
10
229.9938210000
20
0.0000000000
11
229.9938210000
21
2.0000000000
0
LINE
5
322
100
AcDbEntity
8
0
100
AcDbLine
62
7
6
CONTINUOUS
10
19.9938210000
20
0.0000000000
11
19.9938210000
21
2.0000000000
0
LINE
5
323
100
AcDbEntity
8
0
100
AcDbLine
62
7
6
CONTINUOUS
10
229.9938210000
20
295.0000000000
11
229.9938210000
21
297.0000000000
0
LINE
5
324
100
AcDbEntity
8
0
100
AcDbLine
62
7
6
CONTINUOUS
10
19.9938210000
20
295.0000000000
11
19.9938210000
21
297.0000000000
0
LINE
5
325
100
AcDbEntity
8
05
100
AcDbLine
62
7
6
CONTINUOUS
10
302.5699480000
20
13.2089520000
11
302.8533010000
21
13.4923040000
0
LINE
5
326
100
AcDbEntity
8
05
100
AcDbLine
62
7
6
CONTINUOUS
10
304.6140900000
20
15.2530940000
11
305.0540680000
21
15.6930720000
0
LINE
5
327
100
AcDbEntity
8
05
100
AcDbLine
62
7
6
CONTINUOUS
10
303.4962360000
20
14.1352400000
11
303.7862140000
21
14.4252180000
0
LINE
5
328
100
AcDbEntity
8
05
100
AcDbLine
62
7
6
CONTINUOUS
10
302.2517500000
20
13.2089520000
11
302.9439370000
21
13.9011390000
0
LINE
5
329
100
AcDbEntity
8
05
100
AcDbLine
62
7
6
CONTINUOUS
10
304.2958920000
20
15.2530940000
11
304.7358700000
21
15.6930720000
0
LINE
5
32A
100
AcDbEntity
8
05
100
AcDbLine
62
7
6
CONTINUOUS
10
303.1780380000
20
14.1352400000
11
303.4680160000
21
14.4252180000
0
LINE
5
32B
100
AcDbEntity
8
05
100
AcDbLine
62
7
6
CONTINUOUS
10
301.9335520000
20
13.2089520000
11
303.1498180000
21
14.4252180000
0
LINE
5
32C
100
AcDbEntity
8
05
100
AcDbLine
62
7
6
CONTINUOUS
10
303.9776940000
20
15.2530940000
11
304.4176720000
21
15.6930720000
0
LINE
5
32D
100
AcDbEntity
8
05
100
AcDbLine
62
7
6
CONTINUOUS
10
301.6153540000
20
13.2089520000
11
303.1252100000
21
14.7188080000
0
LINE
5
32E
100
AcDbEntity
8
05
100
AcDbLine
62
7
6
CONTINUOUS
10
303.6594960000
20
15.2530940000
11
304.0994740000
21
15.6930720000
0
LINE
5
32F
100
AcDbEntity
8
05
100
AcDbLine
62
7
6
CONTINUOUS
10
301.2971560000
20
13.2089520000
11
303.2158460000
21
15.1276420000
0
LINE
5
330
100
AcDbEntity
8
05
100
AcDbLine
62
7
6
CONTINUOUS
10
303.3412980000
20
15.2530940000
11
303.7812760000
21
15.6930720000
0
LINE
5
331
100
AcDbEntity
8
05
100
AcDbLine
62
7
6
CONTINUOUS
10
301.1121870000
20
13.3421810000
11
303.4630780000
21
15.6930720000
0
LINE
5
332
100
AcDbEntity
8
05
100
AcDbLine
62
7
6
CONTINUOUS
10
301.2028230000
20
13.7510150000
11
303.1448800000
21
15.6930720000
0
LINE
5
333
100
AcDbEntity
8
05
100
AcDbLine
62
7
6
CONTINUOUS
10
301.2934600000
20
14.1598500000
11
302.8266820000
21
15.6930720000
0
LINE
5
334
100
AcDbEntity
8
05
100
AcDbLine
62
7
6
CONTINUOUS
10
301.3840960000
20
14.5686840000
11
302.5084840000
21
15.6930720000
0
LINE
5
335
100
AcDbEntity
8
05
100
AcDbLine
62
7
6
CONTINUOUS
10
301.4747320000
20
14.9775190000
11
302.1902860000
21
15.6930720000
0
LINE
5
336
100
AcDbEntity
8
05
100
AcDbLine
62
7
6
CONTINUOUS
10
301.5653690000
20
15.3863530000
11
301.8720880000
21
15.6930720000
0
LINE
5
337
100
AcDbEntity
8
05
100
AcDbLine
62
7
6
CONTINUOUS
10
300.9328600000
20
15.0720420000
11
300.9578200000
21
15.0970020000
0
LINE
5
338
100
AcDbEntity
8
05
100
AcDbLine
62
7
6
CONTINUOUS
10
298.7515720000
20
13.2089520000
11
298.9539010000
21
13.4112820000
0
LINE
5
339
100
AcDbEntity
8
05
100
AcDbLine
62
7
6
CONTINUOUS
10
300.6146620000
20
15.0720420000
11
301.0484570000
21
15.5058370000
0
LINE
5
33A
100
AcDbEntity
8
05
100
AcDbLine
62
7
6
CONTINUOUS
10
298.4333740000
20
13.2089520000
11
299.0445380000
21
13.8201160000
0
LINE
5
33B
100
AcDbEntity
8
05
100
AcDbLine
62
7
6
CONTINUOUS
10
300.2964640000
20
15.0720420000
11
300.9174940000
21
15.6930720000
0
LINE
5
33C
100
AcDbEntity
8
05
100
AcDbLine
62
7
6
CONTINUOUS
10
298.1151760000
20
13.2089520000
11
299.1351740000
21
14.2289510000
0
LINE
5
33D
100
AcDbEntity
8
05
100
AcDbLine
62
7
6
CONTINUOUS
10
299.9782660000
20
15.0720420000
11
300.5992950000
21
15.6930720000
0
LINE
5
33E
100
AcDbEntity
8
05
100
AcDbLine
62
7
6
CONTINUOUS
10
297.7969780000
20
13.2089520000
11
299.2258110000
21
14.6377850000
0
LINE
5
33F
100
AcDbEntity
8
05
100
AcDbLine
62
7
6
CONTINUOUS
10
299.6600670000
20
15.0720420000
11
300.2810970000
21
15.6930720000
0
LINE
5
340
100
AcDbEntity
8
05
100
AcDbLine
62
7
6
CONTINUOUS
10
297.4787800000
20
13.2089520000
11
299.3164470000
21
15.0466200000
0
LINE
5
341
100
AcDbEntity
8
05
100
AcDbLine
62
7
6
CONTINUOUS
10
299.3418690000
20
15.0720420000
11
299.9628990000
21
15.6930720000
0
LINE
5
342
100
AcDbEntity
8
05
100
AcDbLine
62
7
6
CONTINUOUS
10
297.2127870000
20
13.2611580000
11
299.6447010000
21
15.6930720000
0
LINE
5
343
100
AcDbEntity
8
05
100
AcDbLine
62
7
6
CONTINUOUS
10
297.3034240000
20
13.6699920000
11
299.3265030000
21
15.6930720000
0
LINE
5
344
100
AcDbEntity
8
05
100
AcDbLine
62
7
6
CONTINUOUS
10
297.3940600000
20
14.0788270000
11
299.0083050000
21
15.6930720000
0
LINE
5
345
100
AcDbEntity
8
05
100
AcDbLine
62
7
6
CONTINUOUS
10
297.4846970000
20
14.4876610000
11
298.6901070000
21
15.6930720000
0
LINE
5
346
100
AcDbEntity
8
05
100
AcDbLine
62
7
6
CONTINUOUS
10
297.5753330000
20
14.8964960000
11
298.3719090000
21
15.6930720000
0
LINE
5
347
100
AcDbEntity
8
05
100
AcDbLine
62
7
6
CONTINUOUS
10
297.4326810000
20
15.0720420000
11
298.0537110000
21
15.6930720000
0
LINE
5
348
100
AcDbEntity
8
05
100
AcDbLine
62
7
6
CONTINUOUS
10
297.1144830000
20
15.0720420000
11
297.7355130000
21
15.6930720000
0
LINE
5
349
100
AcDbEntity
8
05
100
AcDbLine
62
7
6
CONTINUOUS
10
296.7962850000
20
15.0720420000
11
297.4173150000
21
15.6930720000
0
LINE
5
34A
100
AcDbEntity
8
05
100
AcDbLine
62
7
6
CONTINUOUS
10
294.8821970000
20
13.4761520000
11
295.3623600000
21
13.9563150000
0
LINE
5
34B
100
AcDbEntity
8
05
100
AcDbLine
62
7
6
CONTINUOUS
10
296.4780870000
20
15.0720420000
11
297.0991170000
21
15.6930720000
0
LINE
5
34C
100
AcDbEntity
8
05
100
AcDbLine
62
7
6
CONTINUOUS
10
294.3992870000
20
13.3114400000
11
295.4529960000
21
14.3651490000
0
LINE
5
34D
100
AcDbEntity
8
05
100
AcDbLine
62
7
6
CONTINUOUS
10
296.1598890000
20
15.0720420000
11
296.7809190000
21
15.6930720000
0
LINE
5
34E
100
AcDbEntity
8
05
100
AcDbLine
62
7
6
CONTINUOUS
10
293.9965900000
20
13.2269410000
11
295.5436320000
21
14.7739840000
0
LINE
5
34F
100
AcDbEntity
8
05
100
AcDbLine
62
7
6
CONTINUOUS
10
296.1243370000
20
15.3546880000
11
296.4627210000
21
15.6930720000
0
LINE
5
350
100
AcDbEntity
8
05
100
AcDbLine
62
7
6
CONTINUOUS
10
293.6306800000
20
13.1792300000
11
295.6342690000
21
15.1828180000
0
LINE
5
351
100
AcDbEntity
8
05
100
AcDbLine
62
7
6
CONTINUOUS
10
293.2832320000
20
13.1499790000
11
295.7249050000
21
15.5916520000
0
LINE
5
352
100
AcDbEntity
8
05
100
AcDbLine
62
7
6
CONTINUOUS
10
292.9497120000
20
13.1346570000
11
295.5081270000
21
15.6930720000
0
LINE
5
353
100
AcDbEntity
8
05
100
AcDbLine
62
7
6
CONTINUOUS
10
292.6285090000
20
13.1316520000
11
293.3289400000
21
13.8320840000
0
LINE
5
354
100
AcDbEntity
8
05
100
AcDbLine
62
7
6
CONTINUOUS
10
293.7174270000
20
14.2205700000
11
295.1899290000
21
15.6930720000
0
LINE
5
355
100
AcDbEntity
8
05
100
AcDbLine
62
7
6
CONTINUOUS
10
292.3183390000
20
13.1396810000
11
292.9382900000
21
13.7596310000
0
LINE
5
356
100
AcDbEntity
8
05
100
AcDbLine
62
7
6
CONTINUOUS
10
293.8080630000
20
14.6294040000
11
294.8717310000
21
15.6930720000
0
LINE
5
357
100
AcDbEntity
8
05
100
AcDbLine
62
7
6
CONTINUOUS
10
292.0181640000
20
13.1577030000
11
292.6171330000
21
13.7566730000
0
LINE
5
358
100
AcDbEntity
8
05
100
AcDbLine
62
7
6
CONTINUOUS
10
293.8986990000
20
15.0382390000
11
294.5535320000
21
15.6930720000
0
LINE
5
359
100
AcDbEntity
8
05
100
AcDbLine
62
7
6
CONTINUOUS
10
291.7271270000
20
13.1848640000
11
292.3346200000
21
13.7923570000
0
LINE
5
35A
100
AcDbEntity
8
05
100
AcDbLine
62
7
6
CONTINUOUS
10
293.9893360000
20
15.4470730000
11
294.2353340000
21
15.6930720000
0
LINE
5
35B
100
AcDbEntity
8
05
100
AcDbLine
62
7
6
CONTINUOUS
10
291.4458280000
20
13.2217640000
11
292.0910500000
21
13.8669850000
0
LINE
5
35C
100
AcDbEntity
8
05
100
AcDbLine
62
7
6
CONTINUOUS
10
291.1779920000
20
13.2721250000
11
291.8962300000
21
13.9903630000
0
LINE
5
35D
100
AcDbEntity
8
05
100
AcDbLine
62
7
6
CONTINUOUS
10
290.9225790000
20
13.3349100000
11
291.8386570000
21
14.2509890000
0
LINE
5
35E
100
AcDbEntity
8
05
100
AcDbLine
62
7
6
CONTINUOUS
10
290.6811420000
20
13.4116710000
11
291.9292940000
21
14.6598230000
0
LINE
5
35F
100
AcDbEntity
8
05
100
AcDbLine
62
7
6
CONTINUOUS
10
290.4605390000
20
13.5092670000
11
292.0199300000
21
15.0686580000
0
LINE
5
360
100
AcDbEntity
8
05
100
AcDbLine
62
7
6
CONTINUOUS
10
290.2589240000
20
13.6258500000
11
292.1105660000
21
15.4774920000
0
LINE
5
361
100
AcDbEntity
8
05
100
AcDbLine
62
7
6
CONTINUOUS
10
290.0957150000
20
13.7808390000
11
292.0079480000
21
15.6930720000
0
LINE
5
362
100
AcDbEntity
8
05
100
AcDbLine
62
7
6
CONTINUOUS
10
290.1030690000
20
14.1063910000
11
291.6897500000
21
15.6930720000
0
LINE
5
363
100
AcDbEntity
8
05
100
AcDbLine
62
7
6
CONTINUOUS
10
288.8874320000
20
13.2089520000
11
289.1962990000
21
13.5178190000
0
LINE
5
364
100
AcDbEntity
8
05
100
AcDbLine
62
7
6
CONTINUOUS
10
290.1937060000
20
14.5152260000
11
291.3715520000
21
15.6930720000
0
LINE
5
365
100
AcDbEntity
8
05
100
AcDbLine
62
7
6
CONTINUOUS
10
288.5692340000
20
13.2089520000
11
289.0092130000
21
13.6489310000
0
LINE
5
366
100
AcDbEntity
8
05
100
AcDbLine
62
7
6
CONTINUOUS
10
290.2843420000
20
14.9240600000
11
291.0533540000
21
15.6930720000
0
LINE
5
367
100
AcDbEntity
8
05
100
AcDbLine
62
7
6
CONTINUOUS
10
288.2510360000
20
13.2089520000
11
288.6910150000
21
13.6489310000
0
LINE
5
368
100
AcDbEntity
8
05
100
AcDbLine
62
7
6
CONTINUOUS
10
290.3749790000
20
15.3328950000
11
290.7351560000
21
15.6930720000
0
LINE
5
369
100
AcDbEntity
8
05
100
AcDbLine
62
7
6
CONTINUOUS
10
287.9328380000
20
13.2089520000
11
288.3728170000
21
13.6489310000
0
LINE
5
36A
100
AcDbEntity
8
05
100
AcDbLine
62
7
6
CONTINUOUS
10
289.0299090000
20
14.3060230000
11
289.1689860000
21
14.4451000000
0
LINE
5
36B
100
AcDbEntity
8
05
100
AcDbLine
62
7
6
CONTINUOUS
10
287.6146400000
20
13.2089520000
11
288.0546180000
21
13.6489310000
0
LINE
5
36C
100
AcDbEntity
8
05
100
AcDbLine
62
7
6
CONTINUOUS
10
288.7117110000
20
14.3060230000
11
289.0016890000
21
14.5960010000
0
LINE
5
36D
100
AcDbEntity
8
05
100
AcDbLine
62
7
6
CONTINUOUS
10
287.2964420000
20
13.2089520000
11
287.7364200000
21
13.6489310000
0
LINE
5
36E
100
AcDbEntity
8
05
100
AcDbLine
62
7
6
CONTINUOUS
10
289.3405830000
20
15.2530940000
11
289.6494810000
21
15.5619910000
0
LINE
5
36F
100
AcDbEntity
8
05
100
AcDbLine
62
7
6
CONTINUOUS
10
288.3935130000
20
14.3060230000
11
288.6834910000
21
14.5960010000
0
LINE
5
370
100
AcDbEntity
8
05
100
AcDbLine
62
7
6
CONTINUOUS
10
286.9782440000
20
13.2089520000
11
287.4182220000
21
13.6489310000
0
LINE
5
371
100
AcDbEntity
8
05
100
AcDbLine
62
7
6
CONTINUOUS
10
289.0223850000
20
15.2530940000
11
289.4623640000
21
15.6930720000
0
LINE
5
372
100
AcDbEntity
8
05
100
AcDbLine
62
7
6
CONTINUOUS
10
288.0753150000
20
14.3060230000
11
288.3652930000
21
14.5960010000
0
LINE
5
373
100
AcDbEntity
8
05
100
AcDbLine
62
7
6
CONTINUOUS
10
286.6600460000
20
13.2089520000
11
287.1000240000
21
13.6489310000
0
LINE
5
374
100
AcDbEntity
8
05
100
AcDbLine
62
7
6
CONTINUOUS
10
288.7041870000
20
15.2530940000
11
289.1441660000
21
15.6930720000
0
LINE
5
375
100
AcDbEntity
8
05
100
AcDbLine
62
7
6
CONTINUOUS
10
287.7571170000
20
14.3060230000
11
288.0470950000
21
14.5960010000
0
LINE
5
376
100
AcDbEntity
8
05
100
AcDbLine
62
7
6
CONTINUOUS
10
286.3418480000
20
13.2089520000
11
286.7818260000
21
13.6489310000
0
LINE
5
377
100
AcDbEntity
8
05
100
AcDbLine
62
7
6
CONTINUOUS
10
288.3859890000
20
15.2530940000
11
288.8259680000
21
15.6930720000
0
LINE
5
378
100
AcDbEntity
8
05
100
AcDbLine
62
7
6
CONTINUOUS
10
287.4389180000
20
14.3060230000
11
287.7288970000
21
14.5960010000
0
LINE
5
379
100
AcDbEntity
8
05
100
AcDbLine
62
7
6
CONTINUOUS
10
286.0236500000
20
13.2089520000
11
286.4636280000
21
13.6489310000
0
LINE
5
37A
100
AcDbEntity
8
05
100
AcDbLine
62
7
6
CONTINUOUS
10
288.0677910000
20
15.2530940000
11
288.5077690000
21
15.6930720000
0
LINE
5
37B
100
AcDbEntity
8
05
100
AcDbLine
62
7
6
CONTINUOUS
10
287.1207200000
20
14.3060230000
11
287.4106990000
21
14.5960010000
0
LINE
5
37C
100
AcDbEntity
8
05
100
AcDbLine
62
7
6
CONTINUOUS
10
285.7054520000
20
13.2089520000
11
286.3125150000
21
13.8160160000
0
LINE
5
37D
100
AcDbEntity
8
05
100
AcDbLine
62
7
6
CONTINUOUS
10
287.7495930000
20
15.2530940000
11
288.1895710000
21
15.6930720000
0
LINE
5
37E
100
AcDbEntity
8
05
100
AcDbLine
62
7
6
CONTINUOUS
10
286.8025220000
20
14.3060230000
11
287.0925010000
21
14.5960010000
0
LINE
5
37F
100
AcDbEntity
8
05
100
AcDbLine
62
7
6
CONTINUOUS
10
285.3872540000
20
13.2089520000
11
286.4031520000
21
14.2248500000
0
LINE
5
380
100
AcDbEntity
8
05
100
AcDbLine
62
7
6
CONTINUOUS
10
287.4313950000
20
15.2530940000
11
287.8713730000
21
15.6930720000
0
LINE
5
381
100
AcDbEntity
8
05
100
AcDbLine
62
7
6
CONTINUOUS
10
286.4843240000
20
14.3060230000
11
286.7743030000
21
14.5960010000
0
LINE
5
382
100
AcDbEntity
8
05
100
AcDbLine
62
7
6
CONTINUOUS
10
285.0690560000
20
13.2089520000
11
286.4937880000
21
14.6336850000
0
LINE
5
383
100
AcDbEntity
8
05
100
AcDbLine
62
7
6
CONTINUOUS
10
287.1131970000
20
15.2530940000
11
287.5531750000
21
15.6930720000
0
LINE
5
384
100
AcDbEntity
8
05
100
AcDbLine
62
7
6
CONTINUOUS
10
284.7508580000
20
13.2089520000
11
286.5844240000
21
15.0425190000
0
LINE
5
385
100
AcDbEntity
8
05
100
AcDbLine
62
7
6
CONTINUOUS
10
286.7949990000
20
15.2530940000
11
287.2349770000
21
15.6930720000
0
LINE
5
386
100
AcDbEntity
8
05
100
AcDbLine
62
7
6
CONTINUOUS
10
284.4807650000
20
13.2570570000
11
286.9167790000
21
15.6930720000
0
LINE
5
387
100
AcDbEntity
8
05
100
AcDbLine
62
7
6
CONTINUOUS
10
284.5714010000
20
13.6658920000
11
286.5985810000
21
15.6930720000
0
LINE
5
388
100
AcDbEntity
8
05
100
AcDbLine
62
7
6
CONTINUOUS
10
284.6620380000
20
14.0747260000
11
286.2803830000
21
15.6930720000
0
LINE
5
389
100
AcDbEntity
8
05
100
AcDbLine
62
7
6
CONTINUOUS
10
283.4780650000
20
13.2089520000
11
283.6555260000
21
13.3864130000
0
LINE
5
38A
100
AcDbEntity
8
05
100
AcDbLine
62
7
6
CONTINUOUS
10
284.7526740000
20
14.4835610000
11
285.9621850000
21
15.6930720000
0
LINE
5
38B
100
AcDbEntity
8
05
100
AcDbLine
62
7
6
CONTINUOUS
10
283.1598670000
20
13.2089520000
11
283.7461620000
21
13.7952470000
0
LINE
5
38C
100
AcDbEntity
8
05
100
AcDbLine
62
7
6
CONTINUOUS
10
284.8433100000
20
14.8923950000
11
285.6439870000
21
15.6930720000
0
LINE
5
38D
100
AcDbEntity
8
05
100
AcDbLine
62
7
6
CONTINUOUS
10
282.8416690000
20
13.2089520000
11
283.8367990000
21
14.2040820000
0
LINE
5
38E
100
AcDbEntity
8
05
100
AcDbLine
62
7
6
CONTINUOUS
10
284.9339470000
20
15.3012300000
11
285.3257890000
21
15.6930720000
0
LINE
5
38F
100
AcDbEntity
8
05
100
AcDbLine
62
7
6
CONTINUOUS
10
282.5234710000
20
13.2089520000
11
283.9274350000
21
14.6129160000
0
LINE
5
390
100
AcDbEntity
8
05
100
AcDbLine
62
7
6
CONTINUOUS
10
282.2052730000
20
13.2089520000
11
284.0180720000
21
15.0217510000
0
LINE
5
391
100
AcDbEntity
8
05
100
AcDbLine
62
7
6
CONTINUOUS
10
281.8870750000
20
13.2089520000
11
284.1087080000
21
15.4305850000
0
LINE
5
392
100
AcDbEntity
8
05
100
AcDbLine
62
7
6
CONTINUOUS
10
281.6193540000
20
13.2594290000
11
284.0529970000
21
15.6930720000
0
LINE
5
393
100
AcDbEntity
8
05
100
AcDbLine
62
7
6
CONTINUOUS
10
281.4518430000
20
13.4101170000
11
283.7347990000
21
15.6930720000
0
LINE
5
394
100
AcDbEntity
8
05
100
AcDbLine
62
7
6
CONTINUOUS
10
281.2843330000
20
13.5608040000
11
283.4166010000
21
15.6930720000
0
LINE
5
395
100
AcDbEntity
8
05
100
AcDbLine
62
7
6
CONTINUOUS
10
281.1168230000
20
13.7114920000
11
282.0969020000
21
14.6915710000
0
LINE
5
396
100
AcDbEntity
8
05
100
AcDbLine
62
7
6
CONTINUOUS
10
282.2769580000
20
14.8716270000
11
283.0984030000
21
15.6930720000
0
LINE
5
397
100
AcDbEntity
8
05
100
AcDbLine
62
7
6
CONTINUOUS
10
280.9493120000
20
13.8621800000
11
281.9101280000
21
14.8229950000
0
LINE
5
398
100
AcDbEntity
8
05
100
AcDbLine
62
7
6
CONTINUOUS
10
282.3675940000
20
15.2804620000
11
282.7802050000
21
15.6930720000
0
LINE
5
399
100
AcDbEntity
8
05
100
AcDbLine
62
7
6
CONTINUOUS
10
280.7818020000
20
14.0128680000
11
281.7233530000
21
14.9544190000
0
LINE
5
39A
100
AcDbEntity
8
05
100
AcDbLine
62
7
6
CONTINUOUS
10
282.4582310000
20
15.6892960000
11
282.4620070000
21
15.6930720000
0
LINE
5
39B
100
AcDbEntity
8
05
100
AcDbLine
62
7
6
CONTINUOUS
10
279.6596890000
20
13.2089520000
11
279.8558670000
21
13.4051310000
0
LINE
5
39C
100
AcDbEntity
8
05
100
AcDbLine
62
7
6
CONTINUOUS
10
280.6142920000
20
14.1635550000
11
281.5365790000
21
15.0858420000
0
LINE
5
39D
100
AcDbEntity
8
05
100
AcDbLine
62
7
6
CONTINUOUS
10
279.3414910000
20
13.2089520000
11
279.9465040000
21
13.8139650000
0
LINE
5
39E
100
AcDbEntity
8
05
100
AcDbLine
62
7
6
CONTINUOUS
10
280.4467810000
20
14.3142430000
11
281.3498040000
21
15.2172660000
0
LINE
5
39F
100
AcDbEntity
8
05
100
AcDbLine
62
7
6
CONTINUOUS
10
279.0232930000
20
13.2089520000
11
280.0371400000
21
14.2228000000
0
LINE
5
3A0
100
AcDbEntity
8
05
100
AcDbLine
62
7
6
CONTINUOUS
10
280.2792710000
20
14.4649310000
11
281.1630300000
21
15.3486900000
0
LINE
5
3A1
100
AcDbEntity
8
05
100
AcDbLine
62
7
6
CONTINUOUS
10
278.7050950000
20
13.2089520000
11
280.9762560000
21
15.4801130000
0
LINE
5
3A2
100
AcDbEntity
8
05
100
AcDbLine
62
7
6
CONTINUOUS
10
278.3868970000
20
13.2089520000
11
280.7894810000
21
15.6115370000
0
LINE
5
3A3
100
AcDbEntity
8
05
100
AcDbLine
62
7
6
CONTINUOUS
10
278.1147530000
20
13.2550070000
11
280.5528180000
21
15.6930720000
0
LINE
5
3A4
100
AcDbEntity
8
05
100
AcDbLine
62
7
6
CONTINUOUS
10
278.2053900000
20
13.6638420000
11
280.2346200000
21
15.6930720000
0
LINE
5
3A5
100
AcDbEntity
8
05
100
AcDbLine
62
7
6
CONTINUOUS
10
278.2960260000
20
14.0726760000
11
279.9164220000
21
15.6930720000
0
LINE
5
3A6
100
AcDbEntity
8
05
100
AcDbLine
62
7
6
CONTINUOUS
10
278.3866630000
20
14.4815110000
11
279.5982240000
21
15.6930720000
0
LINE
5
3A7
100
AcDbEntity
8
05
100
AcDbLine
62
7
6
CONTINUOUS
10
278.4772990000
20
14.8903450000
11
279.2800260000
21
15.6930720000
0
LINE
5
3A8
100
AcDbEntity
8
05
100
AcDbLine
62
7
6
CONTINUOUS
10
278.5679360000
20
15.2991800000
11
278.9618280000
21
15.6930720000
0
LINE
5
3A9
100
AcDbEntity
8
05
100
AcDbLine
62
7
6
CONTINUOUS
10
303.8144340000
20
14.1352400000
11
304.1044120000
21
14.4252180000
0
LINE
5
3AA
100
AcDbEntity
8
05
100
AcDbLine
62
7
6
CONTINUOUS
10
304.8604810000
20
15.1812870000
11
305.3722660000
21
15.6930720000
0
LINE
5
3AB
100
AcDbEntity
8
05
100
AcDbLine
62
7
6
CONTINUOUS
10
304.1326320000
20
14.1352400000
11
304.4230620000
21
14.4256700000
0
LINE
5
3AC
100
AcDbEntity
8
05
100
AcDbLine
62
7
6
CONTINUOUS
10
304.9405600000
20
14.9431670000
11
305.6904640000
21
15.6930720000
0
LINE
5
3AD
100
AcDbEntity
8
05
100
AcDbLine
62
7
6
CONTINUOUS
10
304.4500770000
20
14.1344860000
11
306.0084920000
21
15.6929020000
0
LINE
5
3AE
100
AcDbEntity
8
05
100
AcDbLine
62
7
6
CONTINUOUS
10
304.6243370000
20
13.9905480000
11
306.2927640000
21
15.6589760000
0
LINE
5
3AF
100
AcDbEntity
8
05
100
AcDbLine
62
7
6
CONTINUOUS
10
304.6068210000
20
13.6548350000
11
306.5289340000
21
15.5769480000
0
LINE
5
3B0
100
AcDbEntity
8
05
100
AcDbLine
62
7
6
CONTINUOUS
10
304.5990820000
20
13.3288970000
11
306.7188960000
21
15.4487110000
0
LINE
5
3B1
100
AcDbEntity
8
05
100
AcDbLine
62
7
6
CONTINUOUS
10
304.7973350000
20
13.2089520000
11
306.8447210000
21
15.2563380000
0
LINE
5
3B2
100
AcDbEntity
8
05
100
AcDbLine
62
7
6
CONTINUOUS
10
305.1155330000
20
13.2089520000
11
306.2150340000
21
14.3084530000
0
LINE
5
3B3
100
AcDbEntity
8
05
100
AcDbLine
62
7
6
CONTINUOUS
10
306.2599040000
20
14.3533230000
11
306.8280500000
21
14.9214690000
0
LINE
5
3B4
100
AcDbEntity
8
05
100
AcDbLine
62
7
6
CONTINUOUS
10
305.4337310000
20
13.2089520000
11
306.3395790000
21
14.1148000000
0
LINE
5
3B5
100
AcDbEntity
8
05
100
AcDbLine
62
7
6
CONTINUOUS
10
307.6230540000
20
15.3982750000
11
307.9178510000
21
15.6930720000
0
LINE
5
3B6
100
AcDbEntity
8
05
100
AcDbLine
62
7
6
CONTINUOUS
10
305.7519290000
20
13.2089520000
11
306.3237630000
21
13.7807860000
0
LINE
5
3B7
100
AcDbEntity
8
05
100
AcDbLine
62
7
6
CONTINUOUS
10
307.5324170000
20
14.9894400000
11
308.2360490000
21
15.6930720000
0
LINE
5
3B8
100
AcDbEntity
8
05
100
AcDbLine
62
7
6
CONTINUOUS
10
306.0701270000
20
13.2089520000
11
306.3010140000
21
13.4398390000
0
LINE
5
3B9
100
AcDbEntity
8
05
100
AcDbLine
62
7
6
CONTINUOUS
10
307.4417810000
20
14.5806060000
11
308.5542470000
21
15.6930720000
0
LINE
5
3BA
100
AcDbEntity
8
05
100
AcDbLine
62
7
6
CONTINUOUS
10
307.3511440000
20
14.1717720000
11
308.8724450000
21
15.6930720000
0
LINE
5
3BB
100
AcDbEntity
8
05
100
AcDbLine
62
7
6
CONTINUOUS
10
307.2605080000
20
13.7629370000
11
309.1906430000
21
15.6930720000
0
LINE
5
3BC
100
AcDbEntity
8
05
100
AcDbLine
62
7
6
CONTINUOUS
10
307.1698720000
20
13.3541030000
11
309.3641680000
21
15.5483990000
0
LINE
5
3BD
100
AcDbEntity
8
05
100
AcDbLine
62
7
6
CONTINUOUS
10
307.3429190000
20
13.2089520000
11
309.2735310000
21
15.1395640000
0
LINE
5
3BE
100
AcDbEntity
8
05
100
AcDbLine
62
7
6
CONTINUOUS
10
307.6611170000
20
13.2089520000
11
309.1828950000
21
14.7307300000
0
LINE
5
3BF
100
AcDbEntity
8
05
100
AcDbLine
62
7
6
CONTINUOUS
10
307.9793150000
20
13.2089520000
11
309.0922580000
21
14.3218950000
0
LINE
5
3C0
100
AcDbEntity
8
05
100
AcDbLine
62
7
6
CONTINUOUS
10
310.3888880000
20
15.6185250000
11
310.4634350000
21
15.6930720000
0
LINE
5
3C1
100
AcDbEntity
8
05
100
AcDbLine
62
7
6
CONTINUOUS
10
308.2975130000
20
13.2089520000
11
309.0016220000
21
13.9130610000
0
LINE
5
3C2
100
AcDbEntity
8
05
100
AcDbLine
62
7
6
CONTINUOUS
10
310.2982510000
20
15.2096900000
11
310.7816330000
21
15.6930720000
0
LINE
5
3C3
100
AcDbEntity
8
05
100
AcDbLine
62
7
6
CONTINUOUS
10
308.6157110000
20
13.2089520000
11
308.9109850000
21
13.5042260000
0
LINE
5
3C4
100
AcDbEntity
8
05
100
AcDbLine
62
7
6
CONTINUOUS
10
310.2076150000
20
14.8008560000
11
311.0998310000
21
15.6930720000
0
LINE
5
3C5
100
AcDbEntity
8
05
100
AcDbLine
62
7
6
CONTINUOUS
10
310.1169790000
20
14.3920210000
11
311.4180290000
21
15.6930720000
0
LINE
5
3C6
100
AcDbEntity
8
05
100
AcDbLine
62
7
6
CONTINUOUS
10
310.0263420000
20
13.9831870000
11
311.7362270000
21
15.6930720000
0
LINE
5
3C7
100
AcDbEntity
8
05
100
AcDbLine
62
7
6
CONTINUOUS
10
309.9357060000
20
13.5743520000
11
312.0302610000
21
15.6689080000
0
LINE
5
3C8
100
AcDbEntity
8
05
100
AcDbLine
62
7
6
CONTINUOUS
10
309.8885040000
20
13.2089520000
11
311.9396250000
21
15.2600730000
0
LINE
5
3C9
100
AcDbEntity
8
05
100
AcDbLine
62
7
6
CONTINUOUS
10
310.2067020000
20
13.2089520000
11
311.8515390000
21
14.8537890000
0
LINE
5
3CA
100
AcDbEntity
8
05
100
AcDbLine
62
7
6
CONTINUOUS
10
310.5249000000
20
13.2089520000
11
312.4060170000
21
15.0900700000
0
LINE
5
3CB
100
AcDbEntity
8
05
100
AcDbLine
62
7
6
CONTINUOUS
10
310.8430980000
20
13.2089520000
11
312.9604960000
21
15.3263510000
0
LINE
5
3CC
100
AcDbEntity
8
05
100
AcDbLine
62
7
6
CONTINUOUS
10
311.1612960000
20
13.2089520000
11
311.5770790000
21
13.6247350000
0
LINE
5
3CD
100
AcDbEntity
8
05
100
AcDbLine
62
7
6
CONTINUOUS
10
311.9009460000
20
13.9486020000
11
313.5149750000
21
15.5626310000
0
LINE
5
3CE
100
AcDbEntity
8
05
100
AcDbLine
62
7
6
CONTINUOUS
10
311.4794940000
20
13.2089520000
11
311.4864420000
21
13.2159010000
0
LINE
5
3CF
100
AcDbEntity
8
05
100
AcDbLine
62
7
6
CONTINUOUS
10
312.3809510000
20
14.1104090000
11
313.9636140000
21
15.6930720000
0
LINE
5
3D0
100
AcDbEntity
8
05
100
AcDbLine
62
7
6
CONTINUOUS
10
312.5389800000
20
13.9502400000
11
314.2818120000
21
15.6930720000
0
LINE
5
3D1
100
AcDbEntity
8
05
100
AcDbLine
62
7
6
CONTINUOUS
10
312.6970090000
20
13.7900710000
11
314.6000100000
21
15.6930720000
0
LINE
5
3D2
100
AcDbEntity
8
05
100
AcDbLine
62
7
6
CONTINUOUS
10
312.8550380000
20
13.6299020000
11
314.0273000000
21
14.8021650000
0
LINE
5
3D3
100
AcDbEntity
8
05
100
AcDbLine
62
7
6
CONTINUOUS
10
314.1188610000
20
14.8937250000
11
314.9182080000
21
15.6930720000
0
LINE
5
3D4
100
AcDbEntity
8
05
100
AcDbLine
62
7
6
CONTINUOUS
10
313.0130670000
20
13.4697330000
11
314.1853290000
21
14.6419950000
0
LINE
5
3D5
100
AcDbEntity
8
05
100
AcDbLine
62
7
6
CONTINUOUS
10
314.6733400000
20
15.1300060000
11
315.2364060000
21
15.6930720000
0
LINE
5
3D6
100
AcDbEntity
8
05
100
AcDbLine
62
7
6
CONTINUOUS
10
313.1710960000
20
13.3095640000
11
314.3433580000
21
14.4818260000
0
LINE
5
3D7
100
AcDbEntity
8
05
100
AcDbLine
62
7
6
CONTINUOUS
10
315.2278190000
20
15.3662870000
11
315.5546040000
21
15.6930720000
0
LINE
5
3D8
100
AcDbEntity
8
05
100
AcDbLine
62
7
6
CONTINUOUS
10
313.3886820000
20
13.2089520000
11
314.5013870000
21
14.3216570000
0
LINE
5
3D9
100
AcDbEntity
8
05
100
AcDbLine
62
7
6
CONTINUOUS
10
315.7822970000
20
15.6025670000
11
315.8728020000
21
15.6930720000
0
LINE
5
3DA
100
AcDbEntity
8
05
100
AcDbLine
62
7
6
CONTINUOUS
10
313.7068800000
20
13.2089520000
11
314.6594160000
21
14.1614880000
0
LINE
5
3DB
100
AcDbEntity
8
05
100
AcDbLine
62
7
6
CONTINUOUS
10
314.0250780000
20
13.2089520000
11
314.8174450000
21
14.0013190000
0
LINE
5
3DC
100
AcDbEntity
8
05
100
AcDbLine
62
7
6
CONTINUOUS
10
314.3432760000
20
13.2089520000
11
314.9754740000
21
13.8411500000
0
LINE
5
3DD
100
AcDbEntity
8
05
100
AcDbLine
62
7
6
CONTINUOUS
10
314.6614740000
20
13.2089520000
11
315.1335030000
21
13.6809810000
0
LINE
5
3DE
100
AcDbEntity
8
05
100
AcDbLine
62
7
6
CONTINUOUS
10
314.9796720000
20
13.2089520000
11
315.2915320000
21
13.5208120000
0
LINE
5
3DF
100
AcDbEntity
8
05
100
AcDbLine
62
7
6
CONTINUOUS
10
315.2978710000
20
13.2089520000
11
315.4495610000
21
13.3606430000
0
LINE
5
3E0
100
AcDbEntity
8
05
100
AcDbLine
62
7
6
CONTINUOUS
10
320.3015220000
20
15.6670200000
11
320.3283030000
21
15.6938010000
0
LINE
5
3E1
100
AcDbEntity
8
05
100
AcDbLine
62
7
6
CONTINUOUS
10
319.3469280000
20
14.3942270000
11
320.6465010000
21
15.6938010000
0
LINE
5
3E2
100
AcDbEntity
8
05
100
AcDbLine
62
7
6
CONTINUOUS
10
318.4798510000
20
13.2089520000
11
320.9647000000
21
15.6938010000
0
LINE
5
3E3
100
AcDbEntity
8
05
100
AcDbLine
62
7
6
CONTINUOUS
10
318.7980490000
20
13.2089520000
11
321.2828980000
21
15.6938010000
0
LINE
5
3E4
100
AcDbEntity
8
05
100
AcDbLine
62
7
6
CONTINUOUS
10
319.1162470000
20
13.2089520000
11
321.6010960000
21
15.6938010000
0
LINE
5
3E5
100
AcDbEntity
8
05
100
AcDbLine
62
7
6
CONTINUOUS
10
319.4344450000
20
13.2089520000
11
321.9192940000
21
15.6938010000
0
LINE
5
3E6
100
AcDbEntity
8
05
100
AcDbLine
62
7
6
CONTINUOUS
10
319.7526430000
20
13.2089520000
11
321.2785030000
21
14.7348120000
0
LINE
5
3E7
100
AcDbEntity
8
05
100
AcDbLine
62
7
6
CONTINUOUS
10
321.8224170000
20
15.2787260000
11
322.2374920000
21
15.6938010000
0
LINE
5
3E8
100
AcDbEntity
8
05
100
AcDbLine
62
7
6
CONTINUOUS
10
320.0708410000
20
13.2089520000
11
320.3239090000
21
13.4620200000
0
LINE
5
3E9
100
AcDbEntity
8
05
100
AcDbLine
62
7
6
CONTINUOUS
10
321.8860570000
20
15.0241680000
11
322.5556900000
21
15.6938010000
0
LINE
5
3EA
100
AcDbEntity
8
05
100
AcDbLine
62
7
6
CONTINUOUS
10
320.5508730000
20
13.6889840000
11
320.9240610000
21
14.0621710000
0
LINE
5
3EB
100
AcDbEntity
8
05
100
AcDbLine
62
7
6
CONTINUOUS
10
320.8690710000
20
13.6889840000
11
321.2422590000
21
14.0621710000
0
LINE
5
3EC
100
AcDbEntity
8
05
100
AcDbLine
62
7
6
CONTINUOUS
10
321.9496970000
20
14.7696100000
11
322.8738880000
21
15.6938010000
0
LINE
5
3ED
100
AcDbEntity
8
05
100
AcDbLine
62
7
6
CONTINUOUS
10
321.1872690000
20
13.6889840000
11
321.5604570000
21
14.0621710000
0
LINE
5
3EE
100
AcDbEntity
8
05
100
AcDbLine
62
7
6
CONTINUOUS
10
322.0133360000
20
14.5150510000
11
323.1920860000
21
15.6938010000
0
LINE
5
3EF
100
AcDbEntity
8
05
100
AcDbLine
62
7
6
CONTINUOUS
10
321.5054670000
20
13.6889840000
11
321.8786550000
21
14.0621710000
0
LINE
5
3F0
100
AcDbEntity
8
05
100
AcDbLine
62
7
6
CONTINUOUS
10
322.0769760000
20
14.2604930000
11
323.3231070000
21
15.5066230000
0
LINE
5
3F1
100
AcDbEntity
8
05
100
AcDbLine
62
7
6
CONTINUOUS
10
321.8236650000
20
13.6889840000
11
323.3867460000
21
15.2520650000
0
LINE
5
3F2
100
AcDbEntity
8
05
100
AcDbLine
62
7
6
CONTINUOUS
10
322.1418630000
20
13.6889840000
11
323.4503860000
21
14.9975060000
0
LINE
5
3F3
100
AcDbEntity
8
05
100
AcDbLine
62
7
6
CONTINUOUS
10
322.2678950000
20
13.4968170000
11
323.5140250000
21
14.7429480000
0
LINE
5
3F4
100
AcDbEntity
8
05
100
AcDbLine
62
7
6
CONTINUOUS
10
322.3315340000
20
13.2422590000
11
323.5776650000
21
14.4883900000
0
LINE
5
3F5
100
AcDbEntity
8
05
100
AcDbLine
62
7
6
CONTINUOUS
10
322.6164260000
20
13.2089520000
11
323.6413050000
21
14.2338310000
0
LINE
5
3F6
100
AcDbEntity
8
05
100
AcDbLine
62
7
6
CONTINUOUS
10
322.9346240000
20
13.2089520000
11
323.7049440000
21
13.9792730000
0
LINE
5
3F7
100
AcDbEntity
8
05
100
AcDbLine
62
7
6
CONTINUOUS
10
324.8578540000
20
15.1321820000
11
325.2378750000
21
15.5122030000
0
LINE
5
3F8
100
AcDbEntity
8
05
100
AcDbLine
62
7
6
CONTINUOUS
10
323.2528220000
20
13.2089520000
11
323.7685840000
21
13.7247140000
0
LINE
5
3F9
100
AcDbEntity
8
05
100
AcDbLine
62
7
6
CONTINUOUS
10
324.7897360000
20
14.7458660000
11
325.6124070000
21
15.5685370000
0
LINE
5
3FA
100
AcDbEntity
8
05
100
AcDbLine
62
7
6
CONTINUOUS
10
323.5710200000
20
13.2089520000
11
323.8322230000
21
13.4701560000
0
LINE
5
3FB
100
AcDbEntity
8
05
100
AcDbLine
62
7
6
CONTINUOUS
10
324.7216180000
20
14.3595500000
11
325.9751240000
21
15.6130560000
0
LINE
5
3FC
100
AcDbEntity
8
05
100
AcDbLine
62
7
6
CONTINUOUS
10
323.8892180000
20
13.2089520000
11
323.8958630000
21
13.2155970000
0
LINE
5
3FD
100
AcDbEntity
8
05
100
AcDbLine
62
7
6
CONTINUOUS
10
324.6535000000
20
13.9732340000
11
326.3271790000
21
15.6469130000
0
LINE
5
3FE
100
AcDbEntity
8
05
100
AcDbLine
62
7
6
CONTINUOUS
10
324.6090980000
20
13.6106340000
11
326.6695310000
21
15.6710670000
0
LINE
5
3FF
100
AcDbEntity
8
05
100
AcDbLine
62
7
6
CONTINUOUS
10
324.7317150000
20
13.4150530000
11
327.0029860000
21
15.6863240000
0
LINE
5
400
100
AcDbEntity
8
05
100
AcDbLine
62
7
6
CONTINUOUS
10
324.9777720000
20
13.3429130000
11
326.3346400000
21
14.6997800000
0
LINE
5
401
100
AcDbEntity
8
05
100
AcDbLine
62
7
6
CONTINUOUS
10
326.8765310000
20
15.2416710000
11
327.3282300000
21
15.6933700000
0
LINE
5
402
100
AcDbEntity
8
05
100
AcDbLine
62
7
6
CONTINUOUS
10
325.2590240000
20
13.3059660000
11
326.2665220000
21
14.3134640000
0
LINE
5
403
100
AcDbEntity
8
05
100
AcDbLine
62
7
6
CONTINUOUS
10
327.2130400000
20
15.2599820000
11
327.6458530000
21
15.6927950000
0
LINE
5
404
100
AcDbEntity
8
05
100
AcDbLine
62
7
6
CONTINUOUS
10
325.5456430000
20
13.2743870000
11
326.2189150000
21
13.9476590000
0
LINE
5
405
100
AcDbEntity
8
05
100
AcDbLine
62
7
6
CONTINUOUS
10
327.5201420000
20
15.2488860000
11
327.9563660000
21
15.6851100000
0
LINE
5
406
100
AcDbEntity
8
05
100
AcDbLine
62
7
6
CONTINUOUS
10
325.8379090000
20
13.2484550000
11
326.3376930000
21
13.7482390000
0
LINE
5
407
100
AcDbEntity
8
05
100
AcDbLine
62
7
6
CONTINUOUS
10
327.8042420000
20
15.2147880000
11
328.2602160000
21
15.6707620000
0
LINE
5
408
100
AcDbEntity
8
05
100
AcDbLine
62
7
6
CONTINUOUS
10
326.1361330000
20
13.2284810000
11
326.5821250000
21
13.6744730000
0
LINE
5
409
100
AcDbEntity
8
05
100
AcDbLine
62
7
6
CONTINUOUS
10
328.0198160000
20
15.1121640000
11
328.5577940000
21
15.6501420000
0
LINE
5
40A
100
AcDbEntity
8
05
100
AcDbLine
62
7
6
CONTINUOUS
10
326.4406680000
20
13.2148180000
11
326.8774430000
21
13.6515930000
0
LINE
5
40B
100
AcDbEntity
8
05
100
AcDbLine
62
7
6
CONTINUOUS
10
328.1898430000
20
14.9639930000
11
328.8494490000
21
15.6235990000
0
LINE
5
40C
100
AcDbEntity
8
05
100
AcDbLine
62
7
6
CONTINUOUS
10
327.3476030000
20
14.1217520000
11
327.5272270000
21
14.3013760000
0
LINE
5
40D
100
AcDbEntity
8
05
100
AcDbLine
62
7
6
CONTINUOUS
10
326.7519110000
20
13.2078620000
11
327.1986540000
21
13.6546050000
0
LINE
5
40E
100
AcDbEntity
8
05
100
AcDbLine
62
7
6
CONTINUOUS
10
328.5080410000
20
14.9639930000
11
329.1354880000
21
15.5914400000
0
LINE
5
40F
100
AcDbEntity
8
05
100
AcDbLine
62
7
6
CONTINUOUS
10
327.6226970000
20
14.0786490000
11
327.8454250000
21
14.3013760000
0
LINE
5
410
100
AcDbEntity
8
05
100
AcDbLine
62
7
6
CONTINUOUS
10
327.0703140000
20
13.2080680000
11
327.5542140000
21
13.6919670000
0
LINE
5
411
100
AcDbEntity
8
05
100
AcDbLine
62
7
6
CONTINUOUS
10
328.8262390000
20
14.9639930000
11
329.4161880000
21
15.5539410000
0
LINE
5
412
100
AcDbEntity
8
05
100
AcDbLine
62
7
6
CONTINUOUS
10
327.9408950000
20
14.0786490000
11
328.1636230000
21
14.3013760000
0
LINE
5
413
100
AcDbEntity
8
05
100
AcDbLine
62
7
6
CONTINUOUS
10
327.3963960000
20
13.2159520000
11
328.4818210000
21
14.3013760000
0
LINE
5
414
100
AcDbEntity
8
05
100
AcDbLine
62
7
6
CONTINUOUS
10
329.1444370000
20
14.9639930000
11
329.6325630000
21
15.4521180000
0
LINE
5
415
100
AcDbEntity
8
05
100
AcDbLine
62
7
6
CONTINUOUS
10
327.7307570000
20
13.2321150000
11
328.8000190000
21
14.3013760000
0
LINE
5
416
100
AcDbEntity
8
05
100
AcDbLine
62
7
6
CONTINUOUS
10
329.4626350000
20
14.9639930000
11
329.7133700000
21
15.2147280000
0
LINE
5
417
100
AcDbEntity
8
05
100
AcDbLine
62
7
6
CONTINUOUS
10
328.0257930000
20
13.2089520000
11
329.1182170000
21
14.3013760000
0
LINE
5
418
100
AcDbEntity
8
05
100
AcDbLine
62
7
6
CONTINUOUS
10
328.3439910000
20
13.2089520000
11
329.4364150000
21
14.3013760000
0
LINE
5
419
100
AcDbEntity
8
05
100
AcDbLine
62
7
6
CONTINUOUS
10
328.6621890000
20
13.2089520000
11
329.5104680000
21
14.0572320000
0
LINE
5
41A
100
AcDbEntity
8
05
100
AcDbLine
62
7
6
CONTINUOUS
10
328.9803870000
20
13.2089520000
11
329.4423500000
21
13.6709160000
0
LINE
5
41B
100
AcDbEntity
8
05
100
AcDbLine
62
7
6
CONTINUOUS
10
329.2985850000
20
13.2089520000
11
329.3742320000
21
13.2846000000
0
LINE
5
41C
100
AcDbEntity
8
05
100
AcDbLine
62
7
6
CONTINUOUS
10
304.8899660000
20
13.2089520000
11
304.5963580000
21
13.5025600000
0
LINE
5
41D
100
AcDbEntity
8
05
100
AcDbLine
62
7
6
CONTINUOUS
10
303.1714650000
20
14.9274530000
11
302.4058460000
21
15.6930720000
0
LINE
5
41E
100
AcDbEntity
8
05
100
AcDbLine
62
7
6
CONTINUOUS
10
303.9636780000
20
14.1352400000
11
303.6737000000
21
14.4252180000
0
LINE
5
41F
100
AcDbEntity
8
05
100
AcDbLine
62
7
6
CONTINUOUS
10
303.6454800000
20
14.1352400000
11
303.3555020000
21
14.4252180000
0
LINE
5
420
100
AcDbEntity
8
05
100
AcDbLine
62
7
6
CONTINUOUS
10
303.1137240000
20
14.6669960000
11
302.0876480000
21
15.6930720000
0
LINE
5
421
100
AcDbEntity
8
05
100
AcDbLine
62
7
6
CONTINUOUS
10
303.3272820000
20
14.1352400000
11
301.7694500000
21
15.6930720000
0
LINE
5
422
100
AcDbEntity
8
05
100
AcDbLine
62
7
6
CONTINUOUS
10
303.0090840000
20
14.1352400000
11
301.6003190000
21
15.5440050000
0
LINE
5
423
100
AcDbEntity
8
05
100
AcDbLine
62
7
6
CONTINUOUS
10
302.9404980000
20
13.8856280000
11
301.5425780000
21
15.2835480000
0
LINE
5
424
100
AcDbEntity
8
05
100
AcDbLine
62
7
6
CONTINUOUS
10
302.8827570000
20
13.6251710000
11
301.4848360000
21
15.0230920000
0
LINE
5
425
100
AcDbEntity
8
05
100
AcDbLine
62
7
6
CONTINUOUS
10
301.0400430000
20
15.4678850000
11
300.8148560000
21
15.6930720000
0
LINE
5
426
100
AcDbEntity
8
05
100
AcDbLine
62
7
6
CONTINUOUS
10
302.8250150000
20
13.3647150000
11
301.4270940000
21
14.7626360000
0
LINE
5
427
100
AcDbEntity
8
05
100
AcDbLine
62
7
6
CONTINUOUS
10
300.9823010000
20
15.2074290000
11
300.4966580000
21
15.6930720000
0
LINE
5
428
100
AcDbEntity
8
05
100
AcDbLine
62
7
6
CONTINUOUS
10
302.6625790000
20
13.2089520000
11
301.3693520000
21
14.5021790000
0
LINE
5
429
100
AcDbEntity
8
05
100
AcDbLine
62
7
6
CONTINUOUS
10
300.7994900000
20
15.0720420000
11
300.1784600000
21
15.6930720000
0
LINE
5
42A
100
AcDbEntity
8
05
100
AcDbLine
62
7
6
CONTINUOUS
10
302.3443810000
20
13.2089520000
11
301.3116100000
21
14.2417230000
0
LINE
5
42B
100
AcDbEntity
8
05
100
AcDbLine
62
7
6
CONTINUOUS
10
300.4812920000
20
15.0720420000
11
299.8602620000
21
15.6930720000
0
LINE
5
42C
100
AcDbEntity
8
05
100
AcDbLine
62
7
6
CONTINUOUS
10
302.0261830000
20
13.2089520000
11
301.2538690000
21
13.9812670000
0
LINE
5
42D
100
AcDbEntity
8
05
100
AcDbLine
62
7
6
CONTINUOUS
10
300.1630940000
20
15.0720420000
11
299.5420640000
21
15.6930720000
0
LINE
5
42E
100
AcDbEntity
8
05
100
AcDbLine
62
7
6
CONTINUOUS
10
301.7079850000
20
13.2089520000
11
301.1961270000
21
13.7208110000
0
LINE
5
42F
100
AcDbEntity
8
05
100
AcDbLine
62
7
6
CONTINUOUS
10
299.8448960000
20
15.0720420000
11
299.2238660000
21
15.6930720000
0
LINE
5
430
100
AcDbEntity
8
05
100
AcDbLine
62
7
6
CONTINUOUS
10
301.3897870000
20
13.2089520000
11
301.1383850000
21
13.4603540000
0
LINE
5
431
100
AcDbEntity
8
05
100
AcDbLine
62
7
6
CONTINUOUS
10
299.5266970000
20
15.0720420000
11
298.9056680000
21
15.6930720000
0
LINE
5
432
100
AcDbEntity
8
05
100
AcDbLine
62
7
6
CONTINUOUS
10
299.3014720000
20
14.9790700000
11
298.5874690000
21
15.6930720000
0
LINE
5
433
100
AcDbEntity
8
05
100
AcDbLine
62
7
6
CONTINUOUS
10
299.2437300000
20
14.7186140000
11
298.2692710000
21
15.6930720000
0
LINE
5
434
100
AcDbEntity
8
05
100
AcDbLine
62
7
6
CONTINUOUS
10
299.1859880000
20
14.4581570000
11
297.9510730000
21
15.6930720000
0
LINE
5
435
100
AcDbEntity
8
05
100
AcDbLine
62
7
6
CONTINUOUS
10
299.1282460000
20
14.1977010000
11
297.6328750000
21
15.6930720000
0
LINE
5
436
100
AcDbEntity
8
05
100
AcDbLine
62
7
6
CONTINUOUS
10
299.0705040000
20
13.9372450000
11
297.3146770000
21
15.6930720000
0
LINE
5
437
100
AcDbEntity
8
05
100
AcDbLine
62
7
6
CONTINUOUS
10
299.0127630000
20
13.6767880000
11
296.9964790000
21
15.6930720000
0
LINE
5
438
100
AcDbEntity
8
05
100
AcDbLine
62
7
6
CONTINUOUS
10
298.9550210000
20
13.4163320000
11
297.5571000000
21
14.8142530000
0
LINE
5
439
100
AcDbEntity
8
05
100
AcDbLine
62
7
6
CONTINUOUS
10
297.2993110000
20
15.0720420000
11
296.6782810000
21
15.6930720000
0
LINE
5
43A
100
AcDbEntity
8
05
100
AcDbLine
62
7
6
CONTINUOUS
10
298.8442030000
20
13.2089520000
11
297.4993580000
21
14.5537970000
0
LINE
5
43B
100
AcDbEntity
8
05
100
AcDbLine
62
7
6
CONTINUOUS
10
296.9811130000
20
15.0720420000
11
296.3600830000
21
15.6930720000
0
LINE
5
43C
100
AcDbEntity
8
05
100
AcDbLine
62
7
6
CONTINUOUS
10
298.5260050000
20
13.2089520000
11
297.4416170000
21
14.2933400000
0
LINE
5
43D
100
AcDbEntity
8
05
100
AcDbLine
62
7
6
CONTINUOUS
10
296.6629150000
20
15.0720420000
11
296.1707800000
21
15.5641770000
0
LINE
5
43E
100
AcDbEntity
8
05
100
AcDbLine
62
7
6
CONTINUOUS
10
298.2078070000
20
13.2089520000
11
297.3838750000
21
14.0328840000
0
LINE
5
43F
100
AcDbEntity
8
05
100
AcDbLine
62
7
6
CONTINUOUS
10
295.7430880000
20
15.6736710000
11
295.7236870000
21
15.6930720000
0
LINE
5
440
100
AcDbEntity
8
05
100
AcDbLine
62
7
6
CONTINUOUS
10
296.3447170000
20
15.0720420000
11
296.1130380000
21
15.3037210000
0
LINE
5
441
100
AcDbEntity
8
05
100
AcDbLine
62
7
6
CONTINUOUS
10
297.8896090000
20
13.2089520000
11
297.3261330000
21
13.7724280000
0
LINE
5
442
100
AcDbEntity
8
05
100
AcDbLine
62
7
6
CONTINUOUS
10
295.6853460000
20
15.4132140000
11
295.4054890000
21
15.6930720000
0
LINE
5
443
100
AcDbEntity
8
05
100
AcDbLine
62
7
6
CONTINUOUS
10
297.5714110000
20
13.2089520000
11
297.2683910000
21
13.5119710000
0
LINE
5
444
100
AcDbEntity
8
05
100
AcDbLine
62
7
6
CONTINUOUS
10
295.6276050000
20
15.1527580000
11
295.0872910000
21
15.6930720000
0
LINE
5
445
100
AcDbEntity
8
05
100
AcDbLine
62
7
6
CONTINUOUS
10
297.2532130000
20
13.2089520000
11
297.2106500000
21
13.2515150000
0
LINE
5
446
100
AcDbEntity
8
05
100
AcDbLine
62
7
6
CONTINUOUS
10
295.5698630000
20
14.8923020000
11
294.7690930000
21
15.6930720000
0
LINE
5
447
100
AcDbEntity
8
05
100
AcDbLine
62
7
6
CONTINUOUS
10
295.5121210000
20
14.6318460000
11
294.4508950000
21
15.6930720000
0
LINE
5
448
100
AcDbEntity
8
05
100
AcDbLine
62
7
6
CONTINUOUS
10
295.4543790000
20
14.3713890000
11
294.1326970000
21
15.6930720000
0
LINE
5
449
100
AcDbEntity
8
05
100
AcDbLine
62
7
6
CONTINUOUS
10
295.3966380000
20
14.1109330000
11
294.0022490000
21
15.5053220000
0
LINE
5
44A
100
AcDbEntity
8
05
100
AcDbLine
62
7
6
CONTINUOUS
10
295.3388960000
20
13.8504770000
11
293.9445070000
21
15.2448650000
0
LINE
5
44B
100
AcDbEntity
8
05
100
AcDbLine
62
7
6
CONTINUOUS
10
295.2076290000
20
13.6635450000
11
293.8867660000
21
14.9844090000
0
LINE
5
44C
100
AcDbEntity
8
05
100
AcDbLine
62
7
6
CONTINUOUS
10
295.0112690000
20
13.5417070000
11
293.8290240000
21
14.7239530000
0
LINE
5
44D
100
AcDbEntity
8
05
100
AcDbLine
62
7
6
CONTINUOUS
10
294.7964730000
20
13.4383050000
11
293.7712820000
21
14.4634960000
0
LINE
5
44E
100
AcDbEntity
8
05
100
AcDbLine
62
7
6
CONTINUOUS
10
294.5609940000
20
13.3555860000
11
293.7135400000
21
14.2030400000
0
LINE
5
44F
100
AcDbEntity
8
05
100
AcDbLine
62
7
6
CONTINUOUS
10
294.3090040000
20
13.2893790000
11
293.6125330000
21
13.9858500000
0
LINE
5
450
100
AcDbEntity
8
05
100
AcDbLine
62
7
6
CONTINUOUS
10
292.1124400000
20
15.4859430000
11
291.9053100000
21
15.6930720000
0
LINE
5
451
100
AcDbEntity
8
05
100
AcDbLine
62
7
6
CONTINUOUS
10
294.0449650000
20
13.2352190000
11
293.4159970000
21
13.8641880000
0
LINE
5
452
100
AcDbEntity
8
05
100
AcDbLine
62
7
6
CONTINUOUS
10
292.0546980000
20
15.2254860000
11
291.5871120000
21
15.6930720000
0
LINE
5
453
100
AcDbEntity
8
05
100
AcDbLine
62
7
6
CONTINUOUS
10
293.7674910000
20
13.1944950000
11
293.1712250000
21
13.7907610000
0
LINE
5
454
100
AcDbEntity
8
05
100
AcDbLine
62
7
6
CONTINUOUS
10
291.9969560000
20
14.9650300000
11
291.2689140000
21
15.6930720000
0
LINE
5
455
100
AcDbEntity
8
05
100
AcDbLine
62
7
6
CONTINUOUS
10
293.4790030000
20
13.1647850000
11
292.8876560000
21
13.7561320000
0
LINE
5
456
100
AcDbEntity
8
05
100
AcDbLine
62
7
6
CONTINUOUS
10
291.9392140000
20
14.7045740000
11
290.9507160000
21
15.6930720000
0
LINE
5
457
100
AcDbEntity
8
05
100
AcDbLine
62
7
6
CONTINUOUS
10
293.1816000000
20
13.1439900000
11
292.5650960000
21
13.7604950000
0
LINE
5
458
100
AcDbEntity
8
05
100
AcDbLine
62
7
6
CONTINUOUS
10
291.8814730000
20
14.4441170000
11
290.6325180000
21
15.6930720000
0
LINE
5
459
100
AcDbEntity
8
05
100
AcDbLine
62
7
6
CONTINUOUS
10
292.8744710000
20
13.1329210000
11
292.1704710000
21
13.8369210000
0
LINE
5
45A
100
AcDbEntity
8
05
100
AcDbLine
62
7
6
CONTINUOUS
10
291.8237310000
20
14.1836610000
11
290.4293310000
21
15.5780610000
0
LINE
5
45B
100
AcDbEntity
8
05
100
AcDbLine
62
7
6
CONTINUOUS
10
292.5566380000
20
13.1325560000
11
290.3715890000
21
15.3176050000
0
LINE
5
45C
100
AcDbEntity
8
05
100
AcDbLine
62
7
6
CONTINUOUS
10
292.2268950000
20
13.1441010000
11
290.3138470000
21
15.0571490000
0
LINE
5
45D
100
AcDbEntity
8
05
100
AcDbLine
62
7
6
CONTINUOUS
10
289.6784290000
20
15.6925670000
11
289.6779240000
21
15.6930720000
0
LINE
5
45E
100
AcDbEntity
8
05
100
AcDbLine
62
7
6
CONTINUOUS
10
291.8837400000
20
13.1690580000
11
290.2561050000
21
14.7966920000
0
LINE
5
45F
100
AcDbEntity
8
05
100
AcDbLine
62
7
6
CONTINUOUS
10
289.6206870000
20
15.4321110000
11
289.3597260000
21
15.6930720000
0
LINE
5
460
100
AcDbEntity
8
05
100
AcDbLine
62
7
6
CONTINUOUS
10
291.5247250000
20
13.2098750000
11
290.1983640000
21
14.5362360000
0
LINE
5
461
100
AcDbEntity
8
05
100
AcDbLine
62
7
6
CONTINUOUS
10
289.4815060000
20
15.2530940000
11
289.0415280000
21
15.6930720000
0
LINE
5
462
100
AcDbEntity
8
05
100
AcDbLine
62
7
6
CONTINUOUS
10
291.1346530000
20
13.2817490000
11
290.1406220000
21
14.2757800000
0
LINE
5
463
100
AcDbEntity
8
05
100
AcDbLine
62
7
6
CONTINUOUS
10
289.1633080000
20
15.2530940000
11
288.7233300000
21
15.6930720000
0
LINE
5
464
100
AcDbEntity
8
05
100
AcDbLine
62
7
6
CONTINUOUS
10
290.6897800000
20
13.4084240000
11
290.0828800000
21
14.0153240000
0
LINE
5
465
100
AcDbEntity
8
05
100
AcDbLine
62
7
6
CONTINUOUS
10
288.8451100000
20
15.2530940000
11
288.4051320000
21
15.6930720000
0
LINE
5
466
100
AcDbEntity
8
05
100
AcDbLine
62
7
6
CONTINUOUS
10
289.1990940000
20
14.5809110000
11
289.1840040000
21
14.5960010000
0
LINE
5
467
100
AcDbEntity
8
05
100
AcDbLine
62
7
6
CONTINUOUS
10
288.5269120000
20
15.2530940000
11
288.0869340000
21
15.6930720000
0
LINE
5
468
100
AcDbEntity
8
05
100
AcDbLine
62
7
6
CONTINUOUS
10
289.1413530000
20
14.3204550000
11
288.8658060000
21
14.5960010000
0
LINE
5
469
100
AcDbEntity
8
05
100
AcDbLine
62
7
6
CONTINUOUS
10
288.2087140000
20
15.2530940000
11
287.7687360000
21
15.6930720000
0
LINE
5
46A
100
AcDbEntity
8
05
100
AcDbLine
62
7
6
CONTINUOUS
10
288.8375870000
20
14.3060230000
11
288.5476080000
21
14.5960010000
0
LINE
5
46B
100
AcDbEntity
8
05
100
AcDbLine
62
7
6
CONTINUOUS
10
287.8905160000
20
15.2530940000
11
287.4505380000
21
15.6930720000
0
LINE
5
46C
100
AcDbEntity
8
05
100
AcDbLine
62
7
6
CONTINUOUS
10
289.2164950000
20
13.6089170000
11
289.1764810000
21
13.6489310000
0
LINE
5
46D
100
AcDbEntity
8
05
100
AcDbLine
62
7
6
CONTINUOUS
10
287.5723180000
20
15.2530940000
11
287.1323400000
21
15.6930720000
0
LINE
5
46E
100
AcDbEntity
8
05
100
AcDbLine
62
7
6
CONTINUOUS
10
288.5193890000
20
14.3060230000
11
288.2294100000
21
14.5960010000
0
LINE
5
46F
100
AcDbEntity
8
05
100
AcDbLine
62
7
6
CONTINUOUS
10
289.1587530000
20
13.3484610000
11
288.8582830000
21
13.6489310000
0
LINE
5
470
100
AcDbEntity
8
05
100
AcDbLine
62
7
6
CONTINUOUS
10
287.2541200000
20
15.2530940000
11
286.8141420000
21
15.6930720000
0
LINE
5
471
100
AcDbEntity
8
05
100
AcDbLine
62
7
6
CONTINUOUS
10
288.2011910000
20
14.3060230000
11
287.9112120000
21
14.5960010000
0
LINE
5
472
100
AcDbEntity
8
05
100
AcDbLine
62
7
6
CONTINUOUS
10
288.9800630000
20
13.2089520000
11
288.5400850000
21
13.6489310000
0
LINE
5
473
100
AcDbEntity
8
05
100
AcDbLine
62
7
6
CONTINUOUS
10
286.9359220000
20
15.2530940000
11
286.4959440000
21
15.6930720000
0
LINE
5
474
100
AcDbEntity
8
05
100
AcDbLine
62
7
6
CONTINUOUS
10
287.8829930000
20
14.3060230000
11
287.5930140000
21
14.5960010000
0
LINE
5
475
100
AcDbEntity
8
05
100
AcDbLine
62
7
6
CONTINUOUS
10
288.6618650000
20
13.2089520000
11
288.2218870000
21
13.6489310000
0
LINE
5
476
100
AcDbEntity
8
05
100
AcDbLine
62
7
6
CONTINUOUS
10
286.6286790000
20
15.2421380000
11
286.1777450000
21
15.6930720000
0
LINE
5
477
100
AcDbEntity
8
05
100
AcDbLine
62
7
6
CONTINUOUS
10
287.5647950000
20
14.3060230000
11
287.2748160000
21
14.5960010000
0
LINE
5
478
100
AcDbEntity
8
05
100
AcDbLine
62
7
6
CONTINUOUS
10
288.3436670000
20
13.2089520000
11
287.9036890000
21
13.6489310000
0
LINE
5
479
100
AcDbEntity
8
05
100
AcDbLine
62
7
6
CONTINUOUS
10
286.5709370000
20
14.9816820000
11
285.8595470000
21
15.6930720000
0
LINE
5
47A
100
AcDbEntity
8
05
100
AcDbLine
62
7
6
CONTINUOUS
10
287.2465960000
20
14.3060230000
11
286.9566180000
21
14.5960010000
0
LINE
5
47B
100
AcDbEntity
8
05
100
AcDbLine
62
7
6
CONTINUOUS
10
288.0254690000
20
13.2089520000
11
287.5854910000
21
13.6489310000
0
LINE
5
47C
100
AcDbEntity
8
05
100
AcDbLine
62
7
6
CONTINUOUS
10
286.5131950000
20
14.7212260000
11
285.5413490000
21
15.6930720000
0
LINE
5
47D
100
AcDbEntity
8
05
100
AcDbLine
62
7
6
CONTINUOUS
10
286.9283980000
20
14.3060230000
11
286.6384200000
21
14.5960010000
0
LINE
5
47E
100
AcDbEntity
8
05
100
AcDbLine
62
7
6
CONTINUOUS
10
287.7072710000
20
13.2089520000
11
287.2672930000
21
13.6489310000
0
LINE
5
47F
100
AcDbEntity
8
05
100
AcDbLine
62
7
6
CONTINUOUS
10
286.6102000000
20
14.3060230000
11
285.2231510000
21
15.6930720000
0
LINE
5
480
100
AcDbEntity
8
05
100
AcDbLine
62
7
6
CONTINUOUS
10
287.3890730000
20
13.2089520000
11
286.9490950000
21
13.6489310000
0
LINE
5
481
100
AcDbEntity
8
05
100
AcDbLine
62
7
6
CONTINUOUS
10
286.3977120000
20
14.2003130000
11
284.9997910000
21
15.5982340000
0
LINE
5
482
100
AcDbEntity
8
05
100
AcDbLine
62
7
6
CONTINUOUS
10
287.0708750000
20
13.2089520000
11
286.6308960000
21
13.6489310000
0
LINE
5
483
100
AcDbEntity
8
05
100
AcDbLine
62
7
6
CONTINUOUS
10
286.3399700000
20
13.9398570000
11
284.9420490000
21
15.3377780000
0
LINE
5
484
100
AcDbEntity
8
05
100
AcDbLine
62
7
6
CONTINUOUS
10
286.7526770000
20
13.2089520000
11
286.3126980000
21
13.6489310000
0
LINE
5
485
100
AcDbEntity
8
05
100
AcDbLine
62
7
6
CONTINUOUS
10
286.2822280000
20
13.6794010000
11
284.8843080000
21
15.0773220000
0
LINE
5
486
100
AcDbEntity
8
05
100
AcDbLine
62
7
6
CONTINUOUS
10
286.4344790000
20
13.2089520000
11
284.8265660000
21
14.8168650000
0
LINE
5
487
100
AcDbEntity
8
05
100
AcDbLine
62
7
6
CONTINUOUS
10
284.1276050000
20
15.5158260000
11
283.9503590000
21
15.6930720000
0
LINE
5
488
100
AcDbEntity
8
05
100
AcDbLine
62
7
6
CONTINUOUS
10
286.1162810000
20
13.2089520000
11
284.7688240000
21
14.5564090000
0
LINE
5
489
100
AcDbEntity
8
05
100
AcDbLine
62
7
6
CONTINUOUS
10
284.0698640000
20
15.2553690000
11
283.6321610000
21
15.6930720000
0
LINE
5
48A
100
AcDbEntity
8
05
100
AcDbLine
62
7
6
CONTINUOUS
10
285.7980830000
20
13.2089520000
11
284.7110820000
21
14.2959530000
0
LINE
5
48B
100
AcDbEntity
8
05
100
AcDbLine
62
7
6
CONTINUOUS
10
284.0121220000
20
14.9949130000
11
283.3139630000
21
15.6930720000
0
LINE
5
48C
100
AcDbEntity
8
05
100
AcDbLine
62
7
6
CONTINUOUS
10
285.4798850000
20
13.2089520000
11
284.6533410000
21
14.0354960000
0
LINE
5
48D
100
AcDbEntity
8
05
100
AcDbLine
62
7
6
CONTINUOUS
10
283.9543800000
20
14.7344570000
11
282.9957650000
21
15.6930720000
0
LINE
5
48E
100
AcDbEntity
8
05
100
AcDbLine
62
7
6
CONTINUOUS
10
285.1616870000
20
13.2089520000
11
284.5955990000
21
13.7750400000
0
LINE
5
48F
100
AcDbEntity
8
05
100
AcDbLine
62
7
6
CONTINUOUS
10
283.8966380000
20
14.4740000000
11
282.6775670000
21
15.6930720000
0
LINE
5
490
100
AcDbEntity
8
05
100
AcDbLine
62
7
6
CONTINUOUS
10
284.8434890000
20
13.2089520000
11
284.5378570000
21
13.5145840000
0
LINE
5
491
100
AcDbEntity
8
05
100
AcDbLine
62
7
6
CONTINUOUS
10
283.8388970000
20
14.2135440000
11
282.4409760000
21
15.6114650000
0
LINE
5
492
100
AcDbEntity
8
05
100
AcDbLine
62
7
6
CONTINUOUS
10
284.5252910000
20
13.2089520000
11
284.4801150000
21
13.2541280000
0
LINE
5
493
100
AcDbEntity
8
05
100
AcDbLine
62
7
6
CONTINUOUS
10
283.7811550000
20
13.9530880000
11
282.3832340000
21
15.3510090000
0
LINE
5
494
100
AcDbEntity
8
05
100
AcDbLine
62
7
6
CONTINUOUS
10
283.7234130000
20
13.6926320000
11
282.3254920000
21
15.0905520000
0
LINE
5
495
100
AcDbEntity
8
05
100
AcDbLine
62
7
6
CONTINUOUS
10
283.6656710000
20
13.4321750000
11
282.2677510000
21
14.8300960000
0
LINE
5
496
100
AcDbEntity
8
05
100
AcDbLine
62
7
6
CONTINUOUS
10
283.5706960000
20
13.2089520000
11
282.0671250000
21
14.7125240000
0
LINE
5
497
100
AcDbEntity
8
05
100
AcDbLine
62
7
6
CONTINUOUS
10
283.2524980000
20
13.2089520000
11
280.9934030000
21
15.4680470000
0
LINE
5
498
100
AcDbEntity
8
05
100
AcDbLine
62
7
6
CONTINUOUS
10
282.9343000000
20
13.2089520000
11
280.4501810000
21
15.6930720000
0
LINE
5
499
100
AcDbEntity
8
05
100
AcDbLine
62
7
6
CONTINUOUS
10
282.6161020000
20
13.2089520000
11
280.1319820000
21
15.6930720000
0
LINE
5
49A
100
AcDbEntity
8
05
100
AcDbLine
62
7
6
CONTINUOUS
10
282.2979040000
20
13.2089520000
11
279.8137840000
21
15.6930720000
0
LINE
5
49B
100
AcDbEntity
8
05
100
AcDbLine
62
7
6
CONTINUOUS
10
281.9797060000
20
13.2089520000
11
279.4955860000
21
15.6930720000
0
LINE
5
49C
100
AcDbEntity
8
05
100
AcDbLine
62
7
6
CONTINUOUS
10
281.5364860000
20
13.3339750000
11
279.1773880000
21
15.6930720000
0
LINE
5
49D
100
AcDbEntity
8
05
100
AcDbLine
62
7
6
CONTINUOUS
10
280.0901860000
20
14.4620760000
11
278.8591900000
21
15.6930720000
0
LINE
5
49E
100
AcDbEntity
8
05
100
AcDbLine
62
7
6
CONTINUOUS
10
280.0324450000
20
14.2016200000
11
278.6345240000
21
15.5995400000
0
LINE
5
49F
100
AcDbEntity
8
05
100
AcDbLine
62
7
6
CONTINUOUS
10
279.9747030000
20
13.9411630000
11
278.5767820000
21
15.3390840000
0
LINE
5
4A0
100
AcDbEntity
8
05
100
AcDbLine
62
7
6
CONTINUOUS
10
279.9169610000
20
13.6807070000
11
278.5190400000
21
15.0786280000
0
LINE
5
4A1
100
AcDbEntity
8
05
100
AcDbLine
62
7
6
CONTINUOUS
10
279.8592190000
20
13.4202510000
11
278.4612990000
21
14.8181710000
0
LINE
5
4A2
100
AcDbEntity
8
05
100
AcDbLine
62
7
6
CONTINUOUS
10
279.7523200000
20
13.2089520000
11
278.4035570000
21
14.5577150000
0
LINE
5
4A3
100
AcDbEntity
8
05
100
AcDbLine
62
7
6
CONTINUOUS
10
279.4341220000
20
13.2089520000
11
278.3458150000
21
14.2972590000
0
LINE
5
4A4
100
AcDbEntity
8
05
100
AcDbLine
62
7
6
CONTINUOUS
10
279.1159240000
20
13.2089520000
11
278.2880730000
21
14.0368030000
0
LINE
5
4A5
100
AcDbEntity
8
05
100
AcDbLine
62
7
6
CONTINUOUS
10
278.7977260000
20
13.2089520000
11
278.2303320000
21
13.7763460000
0
LINE
5
4A6
100
AcDbEntity
8
05
100
AcDbLine
62
7
6
CONTINUOUS
10
278.4795280000
20
13.2089520000
11
278.1725900000
21
13.5158900000
0
LINE
5
4A7
100
AcDbEntity
8
05
100
AcDbLine
62
7
6
CONTINUOUS
10
278.1613290000
20
13.2089520000
11
278.1148480000
21
13.2554340000
0
LINE
5
4A8
100
AcDbEntity
8
05
100
AcDbLine
62
7
6
CONTINUOUS
10
305.2081640000
20
13.2089520000
11
304.6168160000
21
13.8003000000
0
LINE
5
4A9
100
AcDbEntity
8
05
100
AcDbLine
62
7
6
CONTINUOUS
10
303.2292070000
20
15.1879090000
11
302.7240440000
21
15.6930720000
0
LINE
5
4AA
100
AcDbEntity
8
05
100
AcDbLine
62
7
6
CONTINUOUS
10
304.2818760000
20
14.1352400000
11
303.9918980000
21
14.4252180000
0
LINE
5
4AB
100
AcDbEntity
8
05
100
AcDbLine
62
7
6
CONTINUOUS
10
305.5263620000
20
13.2089520000
11
304.3100960000
21
14.4252180000
0
LINE
5
4AC
100
AcDbEntity
8
05
100
AcDbLine
62
7
6
CONTINUOUS
10
303.4822210000
20
15.2530940000
11
303.0422420000
21
15.6930720000
0
LINE
5
4AD
100
AcDbEntity
8
05
100
AcDbLine
62
7
6
CONTINUOUS
10
305.8445600000
20
13.2089520000
11
304.5803620000
21
14.4731500000
0
LINE
5
4AE
100
AcDbEntity
8
05
100
AcDbLine
62
7
6
CONTINUOUS
10
303.8004190000
20
15.2530940000
11
303.3604400000
21
15.6930720000
0
LINE
5
4AF
100
AcDbEntity
8
05
100
AcDbLine
62
7
6
CONTINUOUS
10
306.1627580000
20
13.2089520000
11
304.7833860000
21
14.5883250000
0
LINE
5
4B0
100
AcDbEntity
8
05
100
AcDbLine
62
7
6
CONTINUOUS
10
304.1186170000
20
15.2530940000
11
303.6786380000
21
15.6930720000
0
LINE
5
4B1
100
AcDbEntity
8
05
100
AcDbLine
62
7
6
CONTINUOUS
10
306.3052430000
20
13.3846650000
11
304.9215050000
21
14.7684040000
0
LINE
5
4B2
100
AcDbEntity
8
05
100
AcDbLine
62
7
6
CONTINUOUS
10
304.4368150000
20
15.2530940000
11
303.9968360000
21
15.6930720000
0
LINE
5
4B3
100
AcDbEntity
8
05
100
AcDbLine
62
7
6
CONTINUOUS
10
306.3174600000
20
13.6906470000
11
304.9084920000
21
15.0996140000
0
LINE
5
4B4
100
AcDbEntity
8
05
100
AcDbLine
62
7
6
CONTINUOUS
10
304.7854360000
20
15.2226700000
11
304.3150340000
21
15.6930720000
0
LINE
5
4B5
100
AcDbEntity
8
05
100
AcDbLine
62
7
6
CONTINUOUS
10
306.3382560000
20
13.9880480000
11
304.6332320000
21
15.6930720000
0
LINE
5
4B6
100
AcDbEntity
8
05
100
AcDbLine
62
7
6
CONTINUOUS
10
307.4355500000
20
13.2089520000
11
307.1917430000
21
13.4527590000
0
LINE
5
4B7
100
AcDbEntity
8
05
100
AcDbLine
62
7
6
CONTINUOUS
10
306.2804360000
20
14.3640660000
11
304.9514310000
21
15.6930720000
0
LINE
5
4B8
100
AcDbEntity
8
05
100
AcDbLine
62
7
6
CONTINUOUS
10
307.7537480000
20
13.2089520000
11
307.2494850000
21
13.7132160000
0
LINE
5
4B9
100
AcDbEntity
8
05
100
AcDbLine
62
7
6
CONTINUOUS
10
306.4755210000
20
14.4871790000
11
305.2696290000
21
15.6930720000
0
LINE
5
4BA
100
AcDbEntity
8
05
100
AcDbLine
62
7
6
CONTINUOUS
10
308.0719460000
20
13.2089520000
11
307.3072270000
21
13.9736720000
0
LINE
5
4BB
100
AcDbEntity
8
05
100
AcDbLine
62
7
6
CONTINUOUS
10
306.6441070000
20
14.6367910000
11
305.5878270000
21
15.6930720000
0
LINE
5
4BC
100
AcDbEntity
8
05
100
AcDbLine
62
7
6
CONTINUOUS
10
308.3901440000
20
13.2089520000
11
307.3649690000
21
14.2341280000
0
LINE
5
4BD
100
AcDbEntity
8
05
100
AcDbLine
62
7
6
CONTINUOUS
10
306.7791670000
20
14.8199300000
11
305.9060250000
21
15.6930720000
0
LINE
5
4BE
100
AcDbEntity
8
05
100
AcDbLine
62
7
6
CONTINUOUS
10
308.7083420000
20
13.2089520000
11
307.4227100000
21
14.4945840000
0
LINE
5
4BF
100
AcDbEntity
8
05
100
AcDbLine
62
7
6
CONTINUOUS
10
306.8647230000
20
15.0525710000
11
306.2492490000
21
15.6680460000
0
LINE
5
4C0
100
AcDbEntity
8
05
100
AcDbLine
62
7
6
CONTINUOUS
10
308.8783730000
20
13.3571200000
11
307.4804520000
21
14.7550410000
0
LINE
5
4C1
100
AcDbEntity
8
05
100
AcDbLine
62
7
6
CONTINUOUS
10
308.9361150000
20
13.6175760000
11
307.5381940000
21
15.0154970000
0
LINE
5
4C2
100
AcDbEntity
8
05
100
AcDbLine
62
7
6
CONTINUOUS
10
308.9938560000
20
13.8780330000
11
307.5959360000
21
15.2759530000
0
LINE
5
4C3
100
AcDbEntity
8
05
100
AcDbLine
62
7
6
CONTINUOUS
10
309.9811350000
20
13.2089520000
11
309.8776420000
21
13.3124450000
0
LINE
5
4C4
100
AcDbEntity
8
05
100
AcDbLine
62
7
6
CONTINUOUS
10
309.0515980000
20
14.1384890000
11
307.6536770000
21
15.5364100000
0
LINE
5
4C5
100
AcDbEntity
8
05
100
AcDbLine
62
7
6
CONTINUOUS
10
310.2993330000
20
13.2089520000
11
309.9353840000
21
13.5729010000
0
LINE
5
4C6
100
AcDbEntity
8
05
100
AcDbLine
62
7
6
CONTINUOUS
10
309.1093400000
20
14.3989450000
11
307.8152130000
21
15.6930720000
0
LINE
5
4C7
100
AcDbEntity
8
05
100
AcDbLine
62
7
6
CONTINUOUS
10
310.6175310000
20
13.2089520000
11
309.9931260000
21
13.8333570000
0
LINE
5
4C8
100
AcDbEntity
8
05
100
AcDbLine
62
7
6
CONTINUOUS
10
309.1670820000
20
14.6594010000
11
308.1334110000
21
15.6930720000
0
LINE
5
4C9
100
AcDbEntity
8
05
100
AcDbLine
62
7
6
CONTINUOUS
10
310.9357290000
20
13.2089520000
11
310.0508670000
21
14.0938140000
0
LINE
5
4CA
100
AcDbEntity
8
05
100
AcDbLine
62
7
6
CONTINUOUS
10
309.2248230000
20
14.9198580000
11
308.4516090000
21
15.6930720000
0
LINE
5
4CB
100
AcDbEntity
8
05
100
AcDbLine
62
7
6
CONTINUOUS
10
311.2539270000
20
13.2089520000
11
310.1086090000
21
14.3542700000
0
LINE
5
4CC
100
AcDbEntity
8
05
100
AcDbLine
62
7
6
CONTINUOUS
10
309.2825650000
20
15.1803140000
11
308.7698070000
21
15.6930720000
0
LINE
5
4CD
100
AcDbEntity
8
05
100
AcDbLine
62
7
6
CONTINUOUS
10
311.5007300000
20
13.2803470000
11
310.1663510000
21
14.6147260000
0
LINE
5
4CE
100
AcDbEntity
8
05
100
AcDbLine
62
7
6
CONTINUOUS
10
309.3403070000
20
15.4407700000
11
309.0880050000
21
15.6930720000
0
LINE
5
4CF
100
AcDbEntity
8
05
100
AcDbLine
62
7
6
CONTINUOUS
10
311.5584720000
20
13.5408040000
11
310.2240930000
21
14.8751820000
0
LINE
5
4D0
100
AcDbEntity
8
05
100
AcDbLine
62
7
6
CONTINUOUS
10
311.6162130000
20
13.8012600000
11
310.2818350000
21
15.1356390000
0
LINE
5
4D1
100
AcDbEntity
8
05
100
AcDbLine
62
7
6
CONTINUOUS
10
311.8210960000
20
13.9145760000
11
310.3395760000
21
15.3960950000
0
LINE
5
4D2
100
AcDbEntity
8
05
100
AcDbLine
62
7
6
CONTINUOUS
10
312.0442160000
20
14.0096540000
11
310.3973180000
21
15.6565510000
0
LINE
5
4D3
100
AcDbEntity
8
05
100
AcDbLine
62
7
6
CONTINUOUS
10
312.2673350000
20
14.1047320000
11
310.6789950000
21
15.6930720000
0
LINE
5
4D4
100
AcDbEntity
8
05
100
AcDbLine
62
7
6
CONTINUOUS
10
313.4813130000
20
13.2089520000
11
310.9971930000
21
15.6930720000
0
LINE
5
4D5
100
AcDbEntity
8
05
100
AcDbLine
62
7
6
CONTINUOUS
10
313.7995110000
20
13.2089520000
11
312.0640970000
21
14.9443670000
0
LINE
5
4D6
100
AcDbEntity
8
05
100
AcDbLine
62
7
6
CONTINUOUS
10
311.9049220000
20
15.1035410000
11
311.3153920000
21
15.6930720000
0
LINE
5
4D7
100
AcDbEntity
8
05
100
AcDbLine
62
7
6
CONTINUOUS
10
314.1177090000
20
13.2089520000
11
312.2872160000
21
15.0394450000
0
LINE
5
4D8
100
AcDbEntity
8
05
100
AcDbLine
62
7
6
CONTINUOUS
10
311.9626640000
20
15.3639980000
11
311.6335900000
21
15.6930720000
0
LINE
5
4D9
100
AcDbEntity
8
05
100
AcDbLine
62
7
6
CONTINUOUS
10
314.4359070000
20
13.2089520000
11
312.5103360000
21
15.1345230000
0
LINE
5
4DA
100
AcDbEntity
8
05
100
AcDbLine
62
7
6
CONTINUOUS
10
312.0204060000
20
15.6244540000
11
311.9517880000
21
15.6930720000
0
LINE
5
4DB
100
AcDbEntity
8
05
100
AcDbLine
62
7
6
CONTINUOUS
10
314.7541050000
20
13.2089520000
11
312.7334560000
21
15.2296020000
0
LINE
5
4DC
100
AcDbEntity
8
05
100
AcDbLine
62
7
6
CONTINUOUS
10
315.0723030000
20
13.2089520000
11
312.9565760000
21
15.3246800000
0
LINE
5
4DD
100
AcDbEntity
8
05
100
AcDbLine
62
7
6
CONTINUOUS
10
315.3905020000
20
13.2089520000
11
313.1796950000
21
15.4197580000
0
LINE
5
4DE
100
AcDbEntity
8
05
100
AcDbLine
62
7
6
CONTINUOUS
10
314.0522930000
20
14.8653590000
11
313.4028150000
21
15.5148370000
0
LINE
5
4DF
100
AcDbEntity
8
05
100
AcDbLine
62
7
6
CONTINUOUS
10
314.2754130000
20
14.9604370000
11
313.6259350000
21
15.6099150000
0
LINE
5
4E0
100
AcDbEntity
8
05
100
AcDbLine
62
7
6
CONTINUOUS
10
314.4985330000
20
15.0555150000
11
313.8609760000
21
15.6930720000
0
LINE
5
4E1
100
AcDbEntity
8
05
100
AcDbLine
62
7
6
CONTINUOUS
10
314.7216520000
20
15.1505930000
11
314.1791740000
21
15.6930720000
0
LINE
5
4E2
100
AcDbEntity
8
05
100
AcDbLine
62
7
6
CONTINUOUS
10
314.9447720000
20
15.2456720000
11
314.4973720000
21
15.6930720000
0
LINE
5
4E3
100
AcDbEntity
8
05
100
AcDbLine
62
7
6
CONTINUOUS
10
315.1678920000
20
15.3407500000
11
314.8155700000
21
15.6930720000
0
LINE
5
4E4
100
AcDbEntity
8
05
100
AcDbLine
62
7
6
CONTINUOUS
10
315.3910120000
20
15.4358280000
11
315.1337680000
21
15.6930720000
0
LINE
5
4E5
100
AcDbEntity
8
05
100
AcDbLine
62
7
6
CONTINUOUS
10
315.6141310000
20
15.5309070000
11
315.4519660000
21
15.6930720000
0
LINE
5
4E6
100
AcDbEntity
8
05
100
AcDbLine
62
7
6
CONTINUOUS
10
315.8372510000
20
15.6259850000
11
315.7701640000
21
15.6930720000
0
LINE
5
4E7
100
AcDbEntity
8
05
100
AcDbLine
62
7
6
CONTINUOUS
10
318.5724820000
20
13.2089520000
11
318.5070480000
21
13.2743870000
0
LINE
5
4E8
100
AcDbEntity
8
05
100
AcDbLine
62
7
6
CONTINUOUS
10
318.8906800000
20
13.2089520000
11
318.6434180000
21
13.4562140000
0
LINE
5
4E9
100
AcDbEntity
8
05
100
AcDbLine
62
7
6
CONTINUOUS
10
319.2088780000
20
13.2089520000
11
318.7797890000
21
13.6380420000
0
LINE
5
4EA
100
AcDbEntity
8
05
100
AcDbLine
62
7
6
CONTINUOUS
10
319.5270760000
20
13.2089520000
11
318.9161590000
21
13.8198690000
0
LINE
5
4EB
100
AcDbEntity
8
05
100
AcDbLine
62
7
6
CONTINUOUS
10
319.8452740000
20
13.2089520000
11
319.0525300000
21
14.0016960000
0
LINE
5
4EC
100
AcDbEntity
8
05
100
AcDbLine
62
7
6
CONTINUOUS
10
320.1466930000
20
13.2257320000
11
319.1889010000
21
14.1835240000
0
LINE
5
4ED
100
AcDbEntity
8
05
100
AcDbLine
62
7
6
CONTINUOUS
10
320.2830630000
20
13.4075590000
11
319.3252710000
21
14.3653510000
0
LINE
5
4EE
100
AcDbEntity
8
05
100
AcDbLine
62
7
6
CONTINUOUS
10
320.4194340000
20
13.5893870000
11
319.4616420000
21
14.5471790000
0
LINE
5
4EF
100
AcDbEntity
8
05
100
AcDbLine
62
7
6
CONTINUOUS
10
320.6380350000
20
13.6889840000
11
319.5980120000
21
14.7290060000
0
LINE
5
4F0
100
AcDbEntity
8
05
100
AcDbLine
62
7
6
CONTINUOUS
10
320.9562330000
20
13.6889840000
11
319.7343830000
21
14.9108340000
0
LINE
5
4F1
100
AcDbEntity
8
05
100
AcDbLine
62
7
6
CONTINUOUS
10
321.2744310000
20
13.6889840000
11
320.9012430000
21
14.0621710000
0
LINE
5
4F2
100
AcDbEntity
8
05
100
AcDbLine
62
7
6
CONTINUOUS
10
320.8285460000
20
14.1348690000
11
319.8707540000
21
15.0926610000
0
LINE
5
4F3
100
AcDbEntity
8
05
100
AcDbLine
62
7
6
CONTINUOUS
10
321.5926290000
20
13.6889840000
11
321.2194410000
21
14.0621710000
0
LINE
5
4F4
100
AcDbEntity
8
05
100
AcDbLine
62
7
6
CONTINUOUS
10
320.9649160000
20
14.3166960000
11
320.0071240000
21
15.2744890000
0
LINE
5
4F5
100
AcDbEntity
8
05
100
AcDbLine
62
7
6
CONTINUOUS
10
322.3908590000
20
13.2089520000
11
322.3228620000
21
13.2769490000
0
LINE
5
4F6
100
AcDbEntity
8
05
100
AcDbLine
62
7
6
CONTINUOUS
10
321.1012870000
20
14.4985240000
11
320.1434950000
21
15.4563160000
0
LINE
5
4F7
100
AcDbEntity
8
05
100
AcDbLine
62
7
6
CONTINUOUS
10
321.9108270000
20
13.6889840000
11
321.5376390000
21
14.0621710000
0
LINE
5
4F8
100
AcDbEntity
8
05
100
AcDbLine
62
7
6
CONTINUOUS
10
322.7090570000
20
13.2089520000
11
321.8558370000
21
14.0621710000
0
LINE
5
4F9
100
AcDbEntity
8
05
100
AcDbLine
62
7
6
CONTINUOUS
10
321.2376580000
20
14.6803510000
11
320.2798650000
21
15.6381440000
0
LINE
5
4FA
100
AcDbEntity
8
05
100
AcDbLine
62
7
6
CONTINUOUS
10
323.0272550000
20
13.2089520000
11
322.1107300000
21
14.1254770000
0
LINE
5
4FB
100
AcDbEntity
8
05
100
AcDbLine
62
7
6
CONTINUOUS
10
321.3740280000
20
14.8621790000
11
320.5424060000
21
15.6938010000
0
LINE
5
4FC
100
AcDbEntity
8
05
100
AcDbLine
62
7
6
CONTINUOUS
10
323.3454530000
20
13.2089520000
11
322.0046640000
21
14.5497410000
0
LINE
5
4FD
100
AcDbEntity
8
05
100
AcDbLine
62
7
6
CONTINUOUS
10
321.5103990000
20
15.0440060000
11
320.8606040000
21
15.6938010000
0
LINE
5
4FE
100
AcDbEntity
8
05
100
AcDbLine
62
7
6
CONTINUOUS
10
323.6636510000
20
13.2089520000
11
321.8985980000
21
14.9740050000
0
LINE
5
4FF
100
AcDbEntity
8
05
100
AcDbLine
62
7
6
CONTINUOUS
10
321.6467690000
20
15.2258340000
11
321.1788020000
21
15.6938010000
0
LINE
5
500
100
AcDbEntity
8
05
100
AcDbLine
62
7
6
CONTINUOUS
10
323.8694160000
20
13.3213850000
11
321.7925320000
21
15.3982690000
0
LINE
5
501
100
AcDbEntity
8
05
100
AcDbLine
62
7
6
CONTINUOUS
10
321.7831400000
20
15.4076610000
11
321.4970000000
21
15.6938010000
0
LINE
5
502
100
AcDbEntity
8
05
100
AcDbLine
62
7
6
CONTINUOUS
10
323.7633500000
20
13.7456490000
11
321.8151980000
21
15.6938010000
0
LINE
5
503
100
AcDbEntity
8
05
100
AcDbLine
62
7
6
CONTINUOUS
10
323.6572840000
20
14.1699130000
11
322.1333970000
21
15.6938010000
0
LINE
5
504
100
AcDbEntity
8
05
100
AcDbLine
62
7
6
CONTINUOUS
10
324.7263130000
20
13.4190820000
11
324.6677930000
21
13.4776020000
0
LINE
5
505
100
AcDbEntity
8
05
100
AcDbLine
62
7
6
CONTINUOUS
10
323.5512180000
20
14.5941770000
11
322.4515950000
21
15.6938010000
0
LINE
5
506
100
AcDbEntity
8
05
100
AcDbLine
62
7
6
CONTINUOUS
10
325.1431190000
20
13.3204740000
11
324.6290460000
21
13.8345480000
0
LINE
5
507
100
AcDbEntity
8
05
100
AcDbLine
62
7
6
CONTINUOUS
10
323.4451520000
20
15.0184410000
11
322.7697930000
21
15.6938010000
0
LINE
5
508
100
AcDbEntity
8
05
100
AcDbLine
62
7
6
CONTINUOUS
10
325.5031030000
20
13.2786890000
11
324.6767430000
21
14.1050490000
0
LINE
5
509
100
AcDbEntity
8
05
100
AcDbLine
62
7
6
CONTINUOUS
10
323.3390860000
20
15.4427050000
11
323.0879910000
21
15.6938010000
0
LINE
5
50A
100
AcDbEntity
8
05
100
AcDbLine
62
7
6
CONTINUOUS
10
325.8526780000
20
13.2473120000
11
324.7244390000
21
14.3755500000
0
LINE
5
50B
100
AcDbEntity
8
05
100
AcDbLine
62
7
6
CONTINUOUS
10
326.1927610000
20
13.2254260000
11
324.7721360000
21
14.6460520000
0
LINE
5
50C
100
AcDbEntity
8
05
100
AcDbLine
62
7
6
CONTINUOUS
10
326.5241270000
20
13.2122580000
11
324.8198330000
21
14.9165530000
0
LINE
5
50D
100
AcDbEntity
8
05
100
AcDbLine
62
7
6
CONTINUOUS
10
326.8474370000
20
13.2071470000
11
324.8675290000
21
15.1870540000
0
LINE
5
50E
100
AcDbEntity
8
05
100
AcDbLine
62
7
6
CONTINUOUS
10
327.1632580000
20
13.2095230000
11
326.7113640000
21
13.6614180000
0
LINE
5
50F
100
AcDbEntity
8
05
100
AcDbLine
62
7
6
CONTINUOUS
10
326.2354630000
20
14.1373190000
11
324.9643200000
21
15.4084620000
0
LINE
5
510
100
AcDbEntity
8
05
100
AcDbLine
62
7
6
CONTINUOUS
10
327.4720860000
20
13.2188940000
11
327.0414700000
21
13.6495100000
0
LINE
5
511
100
AcDbEntity
8
05
100
AcDbLine
62
7
6
CONTINUOUS
10
326.2831600000
20
14.4078200000
11
325.1872120000
21
15.5037670000
0
LINE
5
512
100
AcDbEntity
8
05
100
AcDbLine
62
7
6
CONTINUOUS
10
327.7743510000
20
13.2348260000
11
327.3436880000
21
13.6654900000
0
LINE
5
513
100
AcDbEntity
8
05
100
AcDbLine
62
7
6
CONTINUOUS
10
326.3308560000
20
14.6783210000
11
325.4619930000
21
15.5471850000
0
LINE
5
514
100
AcDbEntity
8
05
100
AcDbLine
62
7
6
CONTINUOUS
10
328.1184240000
20
13.2089520000
11
327.6238300000
21
13.7035460000
0
LINE
5
515
100
AcDbEntity
8
05
100
AcDbLine
62
7
6
CONTINUOUS
10
326.3785530000
20
14.9488230000
11
325.7418260000
21
15.5855500000
0
LINE
5
516
100
AcDbEntity
8
05
100
AcDbLine
62
7
6
CONTINUOUS
10
328.4366220000
20
13.2089520000
11
327.8493470000
21
13.7962270000
0
LINE
5
517
100
AcDbEntity
8
05
100
AcDbLine
62
7
6
CONTINUOUS
10
326.4968200000
20
15.1487530000
11
326.0269560000
21
15.6186170000
0
LINE
5
518
100
AcDbEntity
8
05
100
AcDbLine
62
7
6
CONTINUOUS
10
327.5669250000
20
14.0786490000
11
327.3740170000
21
14.2715570000
0
LINE
5
519
100
AcDbEntity
8
05
100
AcDbLine
62
7
6
CONTINUOUS
10
328.7548200000
20
13.2089520000
11
327.9498090000
21
14.0139630000
0
LINE
5
51A
100
AcDbEntity
8
05
100
AcDbLine
62
7
6
CONTINUOUS
10
326.7388620000
20
15.2249100000
11
326.3176540000
21
15.6461180000
0
LINE
5
51B
100
AcDbEntity
8
05
100
AcDbLine
62
7
6
CONTINUOUS
10
327.8851230000
20
14.0786490000
11
327.6623950000
21
14.3013760000
0
LINE
5
51C
100
AcDbEntity
8
05
100
AcDbLine
62
7
6
CONTINUOUS
10
329.0730180000
20
13.2089520000
11
327.9805930000
21
14.3013760000
0
LINE
5
51D
100
AcDbEntity
8
05
100
AcDbLine
62
7
6
CONTINUOUS
10
327.0280960000
20
15.2538740000
11
326.6142220000
21
15.6677480000
0
LINE
5
51E
100
AcDbEntity
8
05
100
AcDbLine
62
7
6
CONTINUOUS
10
329.3654390000
20
13.2347290000
11
328.2987920000
21
14.3013760000
0
LINE
5
51F
100
AcDbEntity
8
05
100
AcDbLine
62
7
6
CONTINUOUS
10
327.3416020000
20
15.2585660000
11
326.9169990000
21
15.6831690000
0
LINE
5
520
100
AcDbEntity
8
05
100
AcDbLine
62
7
6
CONTINUOUS
10
329.4131360000
20
13.5052300000
11
328.6169900000
21
14.3013760000
0
LINE
5
521
100
AcDbEntity
8
05
100
AcDbLine
62
7
6
CONTINUOUS
10
327.6866530000
20
15.2317130000
11
327.2263720000
21
15.6919940000
0
LINE
5
522
100
AcDbEntity
8
05
100
AcDbLine
62
7
6
CONTINUOUS
10
329.4608320000
20
13.7757320000
11
328.9351880000
21
14.3013760000
0
LINE
5
523
100
AcDbEntity
8
05
100
AcDbLine
62
7
6
CONTINUOUS
10
328.2725710000
20
14.9639930000
11
327.5427750000
21
15.6937890000
0
LINE
5
524
100
AcDbEntity
8
05
100
AcDbLine
62
7
6
CONTINUOUS
10
329.5085290000
20
14.0462330000
11
329.2533860000
21
14.3013760000
0
LINE
5
525
100
AcDbEntity
8
05
100
AcDbLine
62
7
6
CONTINUOUS
10
328.5907690000
20
14.9639930000
11
327.8667100000
21
15.6880520000
0
LINE
5
526
100
AcDbEntity
8
05
100
AcDbLine
62
7
6
CONTINUOUS
10
328.9089670000
20
14.9639930000
11
328.1987500000
21
15.6742100000
0
LINE
5
527
100
AcDbEntity
8
05
100
AcDbLine
62
7
6
CONTINUOUS
10
329.2271650000
20
14.9639930000
11
328.5395660000
21
15.6515930000
0
LINE
5
528
100
AcDbEntity
8
05
100
AcDbLine
62
7
6
CONTINUOUS
10
329.5453630000
20
14.9639930000
11
328.8899400000
21
15.6194160000
0
LINE
5
529
100
AcDbEntity
8
05
100
AcDbLine
62
7
6
CONTINUOUS
10
329.6993160000
20
15.1282390000
11
329.2508050000
21
15.5767500000
0
LINE
5
52A
100
AcDbEntity
8
BEM1
100
AcDbLine
62
7
6
CONTINUOUS
10
0.0000000000
20
0.0000000000
11
420.0000000000
21
0.0000000000
0
LINE
5
52B
100
AcDbEntity
8
BEM1
100
AcDbLine
62
7
6
CONTINUOUS
10
420.0000000000
20
0.0000000000
11
420.0000000000
21
297.0000000000
0
LINE
5
52C
100
AcDbEntity
8
BEM1
100
AcDbLine
62
7
6
CONTINUOUS
10
420.0000000000
20
297.0000000000
11
0.0000000000
21
297.0000000000
0
LINE
5
52D
100
AcDbEntity
8
BEM1
100
AcDbLine
62
7
6
CONTINUOUS
10
0.0000000000
20
297.0000000000
11
0.0000000000
21
0.0000000000
0
LINE
5
52E
100
AcDbEntity
8
035
100
AcDbLine
62
3
6
CONTINUOUS
10
278.1045430000
20
13.2089520000
11
279.8123760000
21
13.2089520000
0
LINE
5
52F
100
AcDbEntity
8
035
100
AcDbLine
62
3
6
CONTINUOUS
10
278.6552590000
20
15.6930720000
11
280.6736070000
21
15.6930720000
0
LINE
5
530
100
AcDbEntity
8
035
100
AcDbLine
62
3
6
CONTINUOUS
10
278.1045430000
20
13.2089520000
11
278.6552590000
21
15.6930720000
0
LINE
5
531
100
AcDbEntity
8
035
100
AcDbLine
62
3
6
CONTINUOUS
10
279.8123760000
20
13.2089520000
11
280.1221530000
21
14.6062700000
0
LINE
5
532
100
AcDbEntity
8
035
100
AcDbLine
62
3
6
CONTINUOUS
10
283.6161840000
20
13.2089520000
11
284.1669000000
21
15.6930720000
0
LINE
5
533
100
AcDbEntity
8
035
100
AcDbLine
62
3
6
CONTINUOUS
10
282.2181290000
20
14.6062700000
11
282.4590680000
21
15.6930720000
0
LINE
5
534
100
AcDbEntity
8
035
100
AcDbLine
62
3
6
CONTINUOUS
10
280.1221530000
20
14.6062700000
11
281.6754650000
21
13.2089520000
0
LINE
5
535
100
AcDbEntity
8
035
100
AcDbLine
62
3
6
CONTINUOUS
10
280.6736070000
20
15.6930720000
11
282.2181290000
21
14.6062700000
0
LINE
5
536
100
AcDbEntity
8
035
100
AcDbLine
62
3
6
CONTINUOUS
10
282.4590680000
20
15.6930720000
11
284.1669000000
21
15.6930720000
0
LINE
5
537
100
AcDbEntity
8
035
100
AcDbLine
62
3
6
CONTINUOUS
10
281.6754650000
20
13.2089520000
11
283.6161840000
21
13.2089520000
0
LINE
5
538
100
AcDbEntity
8
035
100
AcDbLine
62
3
6
CONTINUOUS
10
284.4701000000
20
13.2089520000
11
285.0208160000
21
15.6930720000
0
LINE
5
539
100
AcDbEntity
8
035
100
AcDbLine
62
3
6
CONTINUOUS
10
286.2754730000
20
13.6489310000
11
286.4211470000
21
14.3060230000
0
LINE
5
53A
100
AcDbEntity
8
035
100
AcDbLine
62
3
6
CONTINUOUS
10
289.1381530000
20
14.3060230000
11
289.2024400000
21
14.5960010000
0
LINE
5
53B
100
AcDbEntity
8
035
100
AcDbLine
62
3
6
CONTINUOUS
10
289.1278250000
20
13.2089520000
11
289.2253650000
21
13.6489310000
0
LINE
5
53C
100
AcDbEntity
8
035
100
AcDbLine
62
3
6
CONTINUOUS
10
284.4701000000
20
13.2089520000
11
289.1278250000
21
13.2089520000
0
LINE
5
53D
100
AcDbEntity
8
035
100
AcDbLine
62
3
6
CONTINUOUS
10
285.0208160000
20
15.6930720000
11
289.6785410000
21
15.6930720000
0
LINE
5
53E
100
AcDbEntity
8
035
100
AcDbLine
62
3
6
CONTINUOUS
10
286.4854340000
20
14.5960010000
11
286.6311080000
21
15.2530940000
0
LINE
5
53F
100
AcDbEntity
8
035
100
AcDbLine
62
3
6
CONTINUOUS
10
289.5810000000
20
15.2530940000
11
289.6785410000
21
15.6930720000
0
LINE
5
540
100
AcDbEntity
8
035
100
AcDbLine
62
3
6
CONTINUOUS
10
290.0723330000
20
13.9677470000
11
290.4548280000
21
15.6930720000
0
LINE
5
541
100
AcDbEntity
8
035
100
AcDbLine
62
3
6
CONTINUOUS
10
291.8232370000
20
14.1814320000
11
292.1583590000
21
15.6930720000
0
LINE
5
542
100
AcDbEntity
8
035
100
AcDbLine
62
3
6
CONTINUOUS
10
293.6908940000
20
14.1008870000
11
294.0438720000
21
15.6930720000
0
LINE
5
543
100
AcDbEntity
8
035
100
AcDbLine
62
3
6
CONTINUOUS
10
295.3381470000
20
13.8470990000
11
295.7473890000
21
15.6930720000
0
LINE
5
544
100
AcDbEntity
8
035
100
AcDbLine
62
3
6
CONTINUOUS
10
290.4548280000
20
15.6930720000
11
292.1583590000
21
15.6930720000
0
ARC
5
545
100
AcDbEntity
8
035
100
AcDbCircle
62
3
6
CONTINUOUS
10
290.3503592511
20
13.9076074747
40
0.2844562511
100
AcDbArc
50
167.7944635173
51
179.9992899294
0
ARC
5
546
100
AcDbEntity
8
035
100
AcDbCircle
62
3
6
CONTINUOUS
10
290.3503595413
20
13.9076113390
40
0.2844565413
100
AcDbArc
50
180.0000682898
51
234.6229224813
0
ARC
5
547
100
AcDbEntity
8
035
100
AcDbCircle
62
3
6
CONTINUOUS
10
291.4600576591
20
15.4704306902
40
2.2011814138
100
AcDbArc
50
234.6229020698
51
253.6104761870
0
ARC
5
548
100
AcDbEntity
8
035
100
AcDbCircle
62
3
6
CONTINUOUS
10
292.2084198754
20
18.0148393689
40
4.8533619377
100
AcDbArc
50
253.6103910211
51
263.0540333551
0
ARC
5
549
100
AcDbEntity
8
035
100
AcDbCircle
62
3
6
CONTINUOUS
10
292.7052791813
20
22.0931766141
40
8.9618536141
100
AcDbArc
50
263.0539945915
51
270.0000116273
0
ARC
5
54A
100
AcDbEntity
8
035
100
AcDbCircle
62
3
6
CONTINUOUS
10
292.7052823187
20
22.0931683755
40
8.9618453755
100
AcDbArc
50
269.9999915694
51
276.9460086052
0
ARC
5
54B
100
AcDbEntity
8
035
100
AcDbCircle
62
3
6
CONTINUOUS
10
293.2021411246
20
18.0148393689
40
4.8533619377
100
AcDbArc
50
276.9459666449
51
286.3896089789
0
ARC
5
54C
100
AcDbEntity
8
035
100
AcDbCircle
62
3
6
CONTINUOUS
10
293.9505033409
20
15.4704306902
40
2.2011814138
100
AcDbArc
50
286.3895238130
51
305.3770979302
0
ARC
5
54D
100
AcDbEntity
8
035
100
AcDbCircle
62
3
6
CONTINUOUS
10
295.0602020713
20
13.9076107687
40
0.2844557216
100
AcDbArc
50
305.3770434265
51
347.7177170673
0
ARC
5
54E
100
AcDbEntity
8
035
100
AcDbCircle
62
3
6
CONTINUOUS
10
291.9963507663
20
14.1404964568
40
0.1778877663
100
AcDbArc
50
179.9998250514
51
225.0422913416
0
ARC
5
54F
100
AcDbEntity
8
035
100
AcDbCircle
62
3
6
CONTINUOUS
10
292.3556845061
20
14.5003622419
40
0.6864387665
100
AcDbArc
50
225.0423614170
51
247.5300128082
0
ARC
5
550
100
AcDbEntity
8
035
100
AcDbCircle
62
3
6
CONTINUOUS
10
292.5973128176
20
15.0845620937
40
1.3186362892
100
AcDbArc
50
247.5298821870
51
260.2785491795
0
ARC
5
551
100
AcDbEntity
8
035
100
AcDbCircle
62
3
6
CONTINUOUS
10
292.7569113846
20
16.0161117087
40
2.2637587087
100
AcDbArc
50
260.2783770082
51
269.9999902662
0
ARC
5
552
100
AcDbEntity
8
035
100
AcDbCircle
62
3
6
CONTINUOUS
10
292.7569106154
20
16.0161117087
40
2.2637587087
100
AcDbArc
50
270.0000097338
51
279.7216229918
0
ARC
5
553
100
AcDbEntity
8
035
100
AcDbCircle
62
3
6
CONTINUOUS
10
292.9165091824
20
15.0845620937
40
1.3186362892
100
AcDbArc
50
279.7214508205
51
292.4701178130
0
ARC
5
554
100
AcDbEntity
8
035
100
AcDbCircle
62
3
6
CONTINUOUS
10
293.1581374939
20
14.5003622419
40
0.6864387665
100
AcDbArc
50
292.4699871918
51
314.9576385830
0
ARC
5
555
100
AcDbEntity
8
035
100
AcDbCircle
62
3
6
CONTINUOUS
10
293.5174717293
20
14.1404979651
40
0.1778884834
100
AcDbArc
50
314.9572524508
51
347.1339192357
0
ARC
5
556
100
AcDbEntity
8
035
100
AcDbCircle
62
3
6
CONTINUOUS
10
291.9963500776
20
14.1404969937
40
0.1778870776
100
AcDbArc
50
166.6959850486
51
179.9999979692
0
LINE
5
557
100
AcDbEntity
8
035
100
AcDbLine
62
3
6
CONTINUOUS
10
294.0438720000
20
15.6930720000
11
295.7473890000
21
15.6930720000
0
LINE
5
558
100
AcDbEntity
8
035
100
AcDbLine
62
3
6
CONTINUOUS
10
296.0616760000
20
15.0720420000
11
296.1993550000
21
15.6930720000
0
LINE
5
559
100
AcDbEntity
8
035
100
AcDbLine
62
3
6
CONTINUOUS
10
297.2012140000
20
13.2089520000
11
297.6142510000
21
15.0720420000
0
LINE
5
55A
100
AcDbEntity
8
035
100
AcDbLine
62
3
6
CONTINUOUS
10
298.9090460000
20
13.2089520000
11
299.3220830000
21
15.0720420000
0
LINE
5
55B
100
AcDbEntity
8
035
100
AcDbLine
62
3
6
CONTINUOUS
10
300.9522870000
20
15.0720420000
11
301.0899660000
21
15.6930720000
0
LINE
5
55C
100
AcDbEntity
8
035
100
AcDbLine
62
3
6
CONTINUOUS
10
296.0616760000
20
15.0720420000
11
297.6142510000
21
15.0720420000
0
LINE
5
55D
100
AcDbEntity
8
035
100
AcDbLine
62
3
6
CONTINUOUS
10
297.2012140000
20
13.2089520000
11
298.9090460000
21
13.2089520000
0
LINE
5
55E
100
AcDbEntity
8
035
100
AcDbLine
62
3
6
CONTINUOUS
10
296.1993550000
20
15.6930720000
11
301.0899660000
21
15.6930720000
0
LINE
5
55F
100
AcDbEntity
8
035
100
AcDbLine
62
3
6
CONTINUOUS
10
299.3220830000
20
15.0720420000
11
300.9522870000
21
15.0720420000
0
LINE
5
560
100
AcDbEntity
8
035
100
AcDbLine
62
3
6
CONTINUOUS
10
301.0826510000
20
13.2089520000
11
301.6333670000
21
15.6930720000
0
LINE
5
561
100
AcDbEntity
8
035
100
AcDbLine
62
3
6
CONTINUOUS
10
302.7904830000
20
13.2089520000
11
302.9958360000
21
14.1352400000
0
LINE
5
562
100
AcDbEntity
8
035
100
AcDbLine
62
3
6
CONTINUOUS
10
301.0826510000
20
13.2089520000
11
302.7904830000
21
13.2089520000
0
LINE
5
563
100
AcDbEntity
8
035
100
AcDbLine
62
3
6
CONTINUOUS
10
301.6333670000
20
15.6930720000
11
305.9917430000
21
15.6930720000
0
LINE
5
564
100
AcDbEntity
8
035
100
AcDbLine
62
3
6
CONTINUOUS
10
306.3019550000
20
13.4689140000
11
306.3424070000
21
14.0474050000
0
LINE
5
565
100
AcDbEntity
8
035
100
AcDbLine
62
3
6
CONTINUOUS
10
304.5897840000
20
13.4068680000
11
304.6210500000
21
13.8619210000
0
LINE
5
566
100
AcDbEntity
8
035
100
AcDbLine
62
3
6
CONTINUOUS
10
303.0601230000
20
14.4252180000
11
303.2436580000
21
15.2530940000
0
ARC
5
567
100
AcDbEntity
8
035
100
AcDbCircle
62
3
6
CONTINUOUS
10
306.6891530000
20
13.4418380000
40
0.3881440000
100
AcDbArc
50
176.0000000000
51
216.8698980000
0
ARC
5
568
100
AcDbEntity
8
035
100
AcDbCircle
62
3
6
CONTINUOUS
10
304.9635740000
20
13.4119050000
40
0.3738240000
100
AcDbArc
50
180.7720050000
51
212.8818750000
0
LINE
5
569
100
AcDbEntity
8
035
100
AcDbLine
62
3
6
CONTINUOUS
10
304.6496390000
20
13.2089520000
11
306.3786380000
21
13.2089520000
0
ARC
5
56A
100
AcDbEntity
8
035
100
AcDbCircle
62
3
6
CONTINUOUS
10
306.0583301256
20
14.0692414046
40
0.2849148980
100
AcDbArc
50
355.6044351018
51
14.9998321139
0
ARC
5
56B
100
AcDbEntity
8
035
100
AcDbCircle
62
3
6
CONTINUOUS
10
306.0583325927
20
14.0692393407
40
0.2849130492
100
AcDbArc
50
15.0003614107
51
49.8062951149
0
ARC
5
56C
100
AcDbEntity
8
035
100
AcDbCircle
62
3
6
CONTINUOUS
10
305.8740496242
20
13.8511285638
40
0.5704520544
100
AcDbArc
50
49.8058236467
51
55.6063554031
0
ARC
5
56D
100
AcDbEntity
8
035
100
AcDbCircle
62
3
6
CONTINUOUS
10
305.3070692994
20
16.1994672129
40
2.0775325922
100
AcDbArc
50
295.3416402972
51
298.8636783469
0
ARC
5
56E
100
AcDbEntity
8
035
100
AcDbCircle
62
3
6
CONTINUOUS
10
305.6353605293
20
15.6038639832
40
1.3974455839
100
AcDbArc
50
298.8639281557
51
315.7882926038
0
ARC
5
56F
100
AcDbEntity
8
035
100
AcDbCircle
62
3
6
CONTINUOUS
10
305.9827967242
20
15.2658585190
40
0.9127192659
100
AcDbArc
50
315.7883093494
51
340.1939355680
0
ARC
5
570
100
AcDbEntity
8
035
100
AcDbCircle
62
3
6
CONTINUOUS
10
306.4126301494
20
15.1110581593
40
0.4558605079
100
AcDbArc
50
340.1938658204
51
14.9997995246
0
ARC
5
571
100
AcDbEntity
8
035
100
AcDbCircle
62
3
6
CONTINUOUS
10
306.4126297341
20
15.1110565785
40
0.4558613183
100
AcDbArc
50
14.9999779363
51
49.8059116405
0
ARC
5
572
100
AcDbEntity
8
035
100
AcDbCircle
62
3
6
CONTINUOUS
10
306.1177841890
20
14.7620752320
40
0.9127222113
100
AcDbArc
50
49.8061438314
51
74.2117700500
0
ARC
5
573
100
AcDbEntity
8
035
100
AcDbCircle
62
3
6
CONTINUOUS
10
305.9858991414
20
14.2956381767
40
1.3974460423
100
AcDbArc
50
74.2117641360
51
89.7603990413
0
LINE
5
574
100
AcDbEntity
8
035
100
AcDbLine
62
3
6
CONTINUOUS
10
307.1376920000
20
13.2089520000
11
307.6884090000
21
15.6930720000
0
LINE
5
575
100
AcDbEntity
8
035
100
AcDbLine
62
3
6
CONTINUOUS
10
308.8455250000
20
13.2089520000
11
309.3962410000
21
15.6930720000
0
LINE
5
576
100
AcDbEntity
8
035
100
AcDbLine
62
3
6
CONTINUOUS
10
307.1376920000
20
13.2089520000
11
308.8455250000
21
13.2089520000
0
LINE
5
577
100
AcDbEntity
8
035
100
AcDbLine
62
3
6
CONTINUOUS
10
307.6884090000
20
15.6930720000
11
309.3962410000
21
15.6930720000
0
LINE
5
578
100
AcDbEntity
8
035
100
AcDbLine
62
3
6
CONTINUOUS
10
309.8546980000
20
13.2089520000
11
310.4054150000
21
15.6930720000
0
LINE
5
579
100
AcDbEntity
8
035
100
AcDbLine
62
3
6
CONTINUOUS
10
311.4849020000
20
13.2089520000
11
311.6225810000
21
13.8299820000
0
LINE
5
57A
100
AcDbEntity
8
035
100
AcDbLine
62
3
6
CONTINUOUS
10
310.4054150000
20
15.6930720000
11
312.0356180000
21
15.6930720000
0
LINE
5
57B
100
AcDbEntity
8
035
100
AcDbLine
62
3
6
CONTINUOUS
10
309.8546980000
20
13.2089520000
11
311.4849020000
21
13.2089520000
0
LINE
5
57C
100
AcDbEntity
8
035
100
AcDbLine
62
3
6
CONTINUOUS
10
311.6225810000
20
13.8299820000
11
312.3512650000
21
14.1404970000
0
LINE
5
57D
100
AcDbEntity
8
035
100
AcDbLine
62
3
6
CONTINUOUS
10
311.8493460000
20
14.8528550000
11
313.8210790000
21
15.6930720000
0
LINE
5
57E
100
AcDbEntity
8
035
100
AcDbLine
62
3
6
CONTINUOUS
10
313.8210790000
20
15.6930720000
11
315.9946840000
21
15.6930720000
0
LINE
5
57F
100
AcDbEntity
8
035
100
AcDbLine
62
3
6
CONTINUOUS
10
312.3512650000
20
14.1404970000
11
313.2703630000
21
13.2089520000
0
LINE
5
580
100
AcDbEntity
8
035
100
AcDbLine
62
3
6
CONTINUOUS
10
313.9908030000
20
14.8391560000
11
315.5992250000
21
13.2089520000
0
LINE
5
581
100
AcDbEntity
8
035
100
AcDbLine
62
3
6
CONTINUOUS
10
313.9908030000
20
14.8391560000
11
315.9946840000
21
15.6930720000
0
LINE
5
582
100
AcDbEntity
8
035
100
AcDbLine
62
3
6
CONTINUOUS
10
311.8493460000
20
14.8528550000
11
312.0356180000
21
15.6930720000
0
LINE
5
583
100
AcDbEntity
8
035
100
AcDbLine
62
3
6
CONTINUOUS
10
313.2703630000
20
13.2089520000
11
315.5992250000
21
13.2089520000
0
LINE
5
584
100
AcDbEntity
8
035
100
AcDbLine
62
3
6
CONTINUOUS
10
318.4579720000
20
13.2089520000
11
320.1341080000
21
13.2089520000
0
LINE
5
585
100
AcDbEntity
8
035
100
AcDbLine
62
3
6
CONTINUOUS
10
320.3216080000
20
15.6938010000
11
323.2763120000
21
15.6938010000
0
LINE
5
586
100
AcDbEntity
8
035
100
AcDbLine
62
3
6
CONTINUOUS
10
318.4579720000
20
13.2089520000
11
320.3216080000
21
15.6938010000
0
LINE
5
587
100
AcDbEntity
8
035
100
AcDbLine
62
3
6
CONTINUOUS
10
323.2763120000
20
15.6938010000
11
323.8975240000
21
13.2089520000
0
LINE
5
588
100
AcDbEntity
8
035
100
AcDbLine
62
3
6
CONTINUOUS
10
320.4941320000
20
13.6889840000
11
322.2198530000
21
13.6889840000
0
LINE
5
589
100
AcDbEntity
8
035
100
AcDbLine
62
3
6
CONTINUOUS
10
320.7740230000
20
14.0621710000
11
322.1265560000
21
14.0621710000
0
LINE
5
58A
100
AcDbEntity
8
035
100
AcDbLine
62
3
6
CONTINUOUS
10
324.6088400000
20
13.7199520000
11
324.8772010000
21
15.2419070000
0
LINE
5
58B
100
AcDbEntity
8
035
100
AcDbLine
62
3
6
CONTINUOUS
10
329.3608940000
20
13.2089520000
11
329.5535180000
21
14.3013760000
0
LINE
5
58C
100
AcDbEntity
8
035
100
AcDbLine
62
3
6
CONTINUOUS
10
326.2199460000
20
14.0493180000
11
326.3798420000
21
14.9561340000
0
LINE
5
58D
100
AcDbEntity
8
035
100
AcDbLine
62
3
6
CONTINUOUS
10
327.8078630000
20
13.2089520000
11
327.8128690000
21
13.2373380000
0
LINE
5
58E
100
AcDbEntity
8
035
100
AcDbLine
62
3
6
CONTINUOUS
10
327.3400020000
20
14.0786490000
11
327.3792750000
21
14.3013760000
0
LINE
5
58F
100
AcDbEntity
8
035
100
AcDbLine
62
3
6
CONTINUOUS
10
327.3400020000
20
14.0786490000
11
327.9612140000
21
14.0786490000
0
ARC
5
590
100
AcDbEntity
8
035
100
AcDbCircle
62
3
6
CONTINUOUS
10
327.4622480000
20
1.9968720000
40
13.6971530000
100
AcDbArc
50
81.6598950000
51
99.8027900000
0
ARC
5
591
100
AcDbEntity
8
035
100
AcDbCircle
62
3
6
CONTINUOUS
10
326.9022870000
20
26.9041900000
40
13.6971530000
100
AcDbArc
50
261.4614730000
51
273.8118150000
0
ARC
5
592
100
AcDbEntity
8
035
100
AcDbCircle
62
3
6
CONTINUOUS
10
325.1830880000
20
15.1879710000
40
0.3106060000
100
AcDbArc
50
99.8027900000
51
170.0000000000
0
ARC
5
593
100
AcDbEntity
8
035
100
AcDbCircle
62
3
6
CONTINUOUS
10
324.9147270000
20
13.6660160000
40
0.3106060000
100
AcDbArc
50
170.0000000000
51
261.4614730000
0
ARC
5
594
100
AcDbEntity
8
035
100
AcDbCircle
62
3
6
CONTINUOUS
10
329.4039510000
20
15.2418500000
40
0.3106060000
100
AcDbArc
50
350.0000000000
51
81.6598950000
0
LINE
5
595
100
AcDbEntity
8
035
100
AcDbLine
62
3
6
CONTINUOUS
10
328.0953920000
20
14.9639930000
11
329.6703550000
21
14.9639930000
0
LINE
5
596
100
AcDbEntity
8
035
100
AcDbLine
62
3
6
CONTINUOUS
10
329.6703550000
20
14.9639930000
11
329.7098380000
21
15.1879140000
0
LINE
5
597
100
AcDbEntity
8
035
100
AcDbLine
62
3
6
CONTINUOUS
10
327.9416740000
20
13.9678320000
11
327.9612140000
21
14.0786490000
0
ARC
5
598
100
AcDbEntity
8
035
100
AcDbCircle
62
3
6
CONTINUOUS
10
327.2380970000
20
11.6982740000
40
3.5617970000
100
AcDbArc
50
80.2083390000
51
99.7818250000
0
ARC
5
599
100
AcDbEntity
8
035
100
AcDbCircle
62
3
6
CONTINUOUS
10
327.0046800000
20
17.2111170000
40
3.5617970000
100
AcDbArc
50
261.5304680000
51
281.1930680000
0
ARC
5
59A
100
AcDbEntity
8
035
100
AcDbCircle
62
3
6
CONTINUOUS
10
326.6857290000
20
14.9021980000
40
0.3106060000
100
AcDbArc
50
99.7818250000
51
170.0000000000
0
ARC
5
59B
100
AcDbEntity
8
035
100
AcDbCircle
62
3
6
CONTINUOUS
10
327.7910140000
20
14.9021030000
40
0.3106060000
100
AcDbArc
50
11.4934250000
51
80.2083390000
0
ARC
5
59C
100
AcDbEntity
8
035
100
AcDbCircle
62
3
6
CONTINUOUS
10
326.5258330000
20
13.9953820000
40
0.3106060000
100
AcDbArc
50
170.0000000000
51
261.5304680000
0
ARC
5
59D
100
AcDbEntity
8
035
100
AcDbCircle
62
3
6
CONTINUOUS
10
327.6357870000
20
14.0217680000
40
0.3106060000
100
AcDbArc
50
281.1930680000
51
350.0000000000
0
LINE
5
59E
100
AcDbEntity
8
035
100
AcDbLine
62
3
6
CONTINUOUS
10
327.8078630000
20
13.2089520000
11
329.3608940000
21
13.2089520000
0
LINE
5
59F
100
AcDbEntity
8
035
100
AcDbLine
62
3
6
CONTINUOUS
10
322.3398610000
20
13.2089520000
11
323.8975240000
21
13.2089520000
0
LINE
5
5A0
100
AcDbEntity
8
035
100
AcDbLine
62
3
6
CONTINUOUS
10
286.6311080000
20
15.2530940000
11
289.5810000000
21
15.2530940000
0
LINE
5
5A1
100
AcDbEntity
8
035
100
AcDbLine
62
3
6
CONTINUOUS
10
286.4854340000
20
14.5960010000
11
289.2024400000
21
14.5960010000
0
LINE
5
5A2
100
AcDbEntity
8
035
100
AcDbLine
62
3
6
CONTINUOUS
10
286.4211470000
20
14.3060230000
11
289.1381530000
21
14.3060230000
0
LINE
5
5A3
100
AcDbEntity
8
035
100
AcDbLine
62
3
6
CONTINUOUS
10
286.2754730000
20
13.6489310000
11
289.2253650000
21
13.6489310000
0
LINE
5
5A4
100
AcDbEntity
8
035
100
AcDbLine
62
3
6
CONTINUOUS
10
303.2436580000
20
15.2530940000
11
304.6502180000
21
15.2530940000
0
LINE
5
5A5
100
AcDbEntity
8
035
100
AcDbLine
62
3
6
CONTINUOUS
10
303.0601230000
20
14.4252180000
11
304.4204480000
21
14.4252180000
0
LINE
5
5A6
100
AcDbEntity
8
035
100
AcDbLine
62
3
6
CONTINUOUS
10
302.9958360000
20
14.1352400000
11
304.4447210000
21
14.1352400000
0
LINE
5
5A7
100
AcDbEntity
8
035
100
AcDbLine
62
3
6
CONTINUOUS
10
304.6502180000
20
15.2530940000
11
304.7612350000
21
15.2349300000
0
LINE
5
5A8
100
AcDbEntity
8
035
100
AcDbLine
62
3
6
CONTINUOUS
10
304.7612350000
20
15.2349300000
11
304.8574320000
21
15.1861990000
0
LINE
5
5A9
100
AcDbEntity
8
035
100
AcDbLine
62
3
6
CONTINUOUS
10
304.8574320000
20
15.1861990000
11
304.9036080000
21
15.1118220000
0
LINE
5
5AA
100
AcDbEntity
8
035
100
AcDbLine
62
3
6
CONTINUOUS
10
304.9036080000
20
15.1118220000
11
304.9395200000
21
15.0220570000
0
LINE
5
5AB
100
AcDbEntity
8
035
100
AcDbLine
62
3
6
CONTINUOUS
10
304.9395200000
20
15.0220570000
11
304.9408040000
21
14.9246000000
0
LINE
5
5AC
100
AcDbEntity
8
035
100
AcDbLine
62
3
6
CONTINUOUS
10
304.9408040000
20
14.9246000000
11
304.9305430000
21
14.7835390000
0
LINE
5
5AD
100
AcDbEntity
8
035
100
AcDbLine
62
3
6
CONTINUOUS
10
304.9305430000
20
14.7835390000
11
304.8792350000
21
14.6976240000
0
LINE
5
5AE
100
AcDbEntity
8
035
100
AcDbLine
62
3
6
CONTINUOUS
10
304.8792350000
20
14.6976240000
11
304.7881710000
21
14.5911860000
0
LINE
5
5AF
100
AcDbEntity
8
035
100
AcDbLine
62
3
6
CONTINUOUS
10
304.7881710000
20
14.5911860000
11
304.6509270000
21
14.5091160000
0
LINE
5
5B0
100
AcDbEntity
8
035
100
AcDbLine
62
3
6
CONTINUOUS
10
304.6509270000
20
14.5091160000
11
304.5200970000
21
14.4424340000
0
LINE
5
5B1
100
AcDbEntity
8
035
100
AcDbLine
62
3
6
CONTINUOUS
10
304.5200970000
20
14.4424340000
11
304.4204480000
21
14.4252180000
0
LINE
5
5B2
100
AcDbEntity
8
035
100
AcDbLine
62
3
6
CONTINUOUS
10
304.4447210000
20
14.1352400000
11
304.5276020000
21
14.1235790000
0
LINE
5
5B3
100
AcDbEntity
8
035
100
AcDbLine
62
3
6
CONTINUOUS
10
304.5276020000
20
14.1235790000
11
304.5808020000
21
14.0899330000
0
LINE
5
5B4
100
AcDbEntity
8
035
100
AcDbLine
62
3
6
CONTINUOUS
10
304.5808020000
20
14.0899330000
11
304.6133720000
21
14.0367450000
0
LINE
5
5B5
100
AcDbEntity
8
035
100
AcDbLine
62
3
6
CONTINUOUS
10
304.6133720000
20
14.0367450000
11
304.6285720000
21
13.9727040000
0
LINE
5
5B6
100
AcDbEntity
8
035
100
AcDbLine
62
3
6
CONTINUOUS
10
304.6285720000
20
13.9727040000
11
304.6210500000
21
13.8619210000
0
LINE
5
5B7
100
AcDbEntity
8
035
100
AcDbLine
62
3
6
CONTINUOUS
10
321.7884230000
20
15.4147050000
11
322.1265560000
21
14.0621710000
0
LINE
5
5B8
100
AcDbEntity
8
035
100
AcDbLine
62
3
6
CONTINUOUS
10
320.7740230000
20
14.0621710000
11
321.7884230000
21
15.4147050000
0
LINE
5
5B9
100
AcDbEntity
8
035
100
AcDbLine
62
3
6
CONTINUOUS
10
322.2198530000
20
13.6889840000
11
322.3398610000
21
13.2089520000
0
LINE
5
5BA
100
AcDbEntity
8
035
100
AcDbLine
62
3
6
CONTINUOUS
10
320.1341080000
20
13.2089520000
11
320.4941320000
21
13.6889840000
0
LINE
5
5BB
100
AcDbEntity
8
035
100
AcDbLine
62
3
6
CONTINUOUS
10
327.3792750000
20
14.3013760000
11
329.5535180000
21
14.3013760000
0
ARC
5
5BC
100
AcDbEntity
8
035
100
AcDbCircle
62
3
6
CONTINUOUS
10
310.2129047739
20
133.5677230548
40
8.5992812270
100
AcDbArc
50
71.7780215871
51
79.2721583913
0
ARC
5
5BD
100
AcDbEntity
8
035
100
AcDbCircle
62
3
6
CONTINUOUS
10
307.9534912443
20
121.6419811232
40
20.7371669620
100
AcDbArc
50
79.2721076325
51
85.5128252899
0
ARC
5
5BE
100
AcDbEntity
8
035
100
AcDbCircle
62
3
6
CONTINUOUS
10
306.4390928599
20
102.3437809673
40
40.0946960327
100
AcDbArc
50
85.5129057090
51
89.9999669325
0
ARC
5
5BF
100
AcDbEntity
8
035
100
AcDbCircle
62
3
6
CONTINUOUS
10
309.9824024487
20
130.4822610487
40
11.2436316877
100
AcDbArc
50
73.8152116321
51
82.7046602315
0
ARC
5
5C0
100
AcDbEntity
8
035
100
AcDbCircle
62
3
6
CONTINUOUS
10
307.8698929291
20
113.9810985656
40
27.8794682992
100
AcDbArc
50
82.7046072116
51
86.9646306836
0
ARC
5
5C1
100
AcDbEntity
8
035
100
AcDbCircle
62
3
6
CONTINUOUS
10
306.4390704111
20
86.9986585817
40
54.8998184183
100
AcDbArc
50
86.9645995120
51
89.9999524215
0
ARC
5
5C2
100
AcDbEntity
8
035
100
AcDbCircle
62
3
6
CONTINUOUS
10
309.8367547016
20
140.2034380220
40
4.1688643600
100
AcDbArc
50
9.0429849393
51
29.3218757903
0
ARC
5
5C3
100
AcDbEntity
8
035
100
AcDbCircle
62
3
6
CONTINUOUS
10
308.2029158899
20
139.2857520827
40
6.0427845146
100
AcDbArc
50
29.3218586731
51
53.5926530099
0
ARC
5
5C4
100
AcDbEntity
8
035
100
AcDbCircle
62
3
6
CONTINUOUS
10
307.1361157110
20
137.8391541076
40
7.8402016401
100
AcDbArc
50
53.5927128916
51
73.0138223152
0
ARC
5
5C5
100
AcDbEntity
8
035
100
AcDbCircle
62
3
6
CONTINUOUS
10
306.4391124228
20
135.5573758513
40
10.2260611487
100
AcDbArc
50
73.0138461993
51
89.9999799575
0
ARC
5
5C6
100
AcDbEntity
8
035
100
AcDbCircle
62
3
6
CONTINUOUS
10
307.6174458567
20
138.9273331229
40
5.9843716675
100
AcDbArc
50
27.9885450899
51
50.6711590894
0
ARC
5
5C7
100
AcDbEntity
8
035
100
AcDbCircle
62
3
6
CONTINUOUS
10
306.9037503199
20
138.0562539003
40
7.1104890376
100
AcDbArc
50
50.6712031388
51
71.2538557417
0
ARC
5
5C8
100
AcDbEntity
8
035
100
AcDbCircle
62
3
6
CONTINUOUS
10
306.4391133197
20
136.6871416314
40
8.5562953686
100
AcDbArc
50
71.2539270226
51
89.9999820517
0
LINE
5
5C9
100
AcDbEntity
8
035
100
AcDbLine
62
3
6
CONTINUOUS
10
306.4391160000
20
147.7586810000
11
318.4391160000
21
147.7586810000
0
ARC
5
5CA
100
AcDbEntity
8
035
100
AcDbCircle
62
3
6
CONTINUOUS
10
309.9823810167
20
129.5641062604
40
11.2437284301
100
AcDbArc
50
67.5897084428
51
82.7046132382
0
ARC
5
5CB
100
AcDbEntity
8
035
100
AcDbCircle
62
3
6
CONTINUOUS
10
307.8698794857
20
113.0630390656
40
27.8794695104
100
AcDbArc
50
82.7045796769
51
86.9646031489
0
ARC
5
5CC
100
AcDbEntity
8
035
100
AcDbCircle
62
3
6
CONTINUOUS
10
306.4390892829
20
86.0805990817
40
54.8998179183
100
AcDbArc
50
86.9646192073
51
89.9999721169
0
LINE
5
5CD
100
AcDbEntity
8
035
100
AcDbLine
62
3
6
CONTINUOUS
10
306.4391160000
20
148.4186810000
11
318.4391160000
21
148.4186810000
0
ARC
5
5CE
100
AcDbEntity
8
035
100
AcDbCircle
62
3
6
CONTINUOUS
10
312.3915904247
20
151.8083230437
40
1.6140285753
100
AcDbArc
50
316.4072841621
51
0.0000694453
0
ARC
5
5CF
100
AcDbEntity
8
035
100
AcDbCircle
62
3
6
CONTINUOUS
10
309.4688535811
20
154.5908950174
40
5.6495084037
100
AcDbArc
50
293.5127538410
51
316.4073154166
0
ARC
5
5D0
100
AcDbEntity
8
035
100
AcDbCircle
62
3
6
CONTINUOUS
10
307.5065870905
20
159.1010356179
40
10.5680303379
100
AcDbArc
50
280.2158598785
51
293.5127920240
0
ARC
5
5D1
100
AcDbEntity
8
035
100
AcDbCircle
62
3
6
CONTINUOUS
10
306.2113847147
20
166.2879937483
40
17.8707638235
100
AcDbArc
50
270.7301531602
51
280.2158933089
0
ARC
5
5D2
100
AcDbEntity
8
035
100
AcDbCircle
62
3
6
CONTINUOUS
10
312.2456779395
20
151.7063517570
40
1.1657130605
100
AcDbArc
50
312.3272240226
51
0.0000610930
0
ARC
5
5D3
100
AcDbEntity
8
035
100
AcDbCircle
62
3
6
CONTINUOUS
10
309.3986663123
20
154.8321848811
40
5.3937513675
100
AcDbArc
50
290.6697658016
51
312.3272725913
0
ARC
5
5D4
100
AcDbEntity
8
035
100
AcDbCircle
62
3
6
CONTINUOUS
10
307.4801713529
20
159.9174175278
40
10.8288423492
100
AcDbArc
50
278.8816538773
51
290.6698232919
0
ARC
5
5D5
100
AcDbEntity
8
035
100
AcDbCircle
62
3
6
CONTINUOUS
10
306.2114003630
20
168.0365112377
40
19.0464735465
100
AcDbArc
50
270.6850326254
51
278.8817079651
0
LINE
5
5D6
100
AcDbEntity
8
035
100
AcDbLine
62
3
6
CONTINUOUS
10
306.4391160000
20
165.0686810000
11
306.4391160000
21
140.9804170000
0
LINE
5
5D7
100
AcDbEntity
8
035
100
AcDbLine
62
3
6
CONTINUOUS
10
313.2658780000
20
140.8586810000
11
318.4391160000
21
140.8586810000
0
LINE
5
5D8
100
AcDbEntity
8
035
100
AcDbLine
62
3
6
CONTINUOUS
10
314.2689000000
20
139.9586810000
11
318.4391160000
21
139.9586810000
0
LINE
5
5D9
100
AcDbEntity
8
035
100
AcDbLine
62
3
6
CONTINUOUS
10
306.4391160000
20
155.5886810000
11
318.4391160000
21
155.5886810000
0
LINE
5
5DA
100
AcDbEntity
8
035
100
AcDbLine
62
3
6
CONTINUOUS
10
306.4391160000
20
165.0686810000
11
318.4391160000
21
165.0686810000
0
LINE
5
5DB
100
AcDbEntity
8
035
100
AcDbLine
62
3
6
CONTINUOUS
10
318.4391160000
20
158.1686810000
11
306.4391160000
21
158.1686810000
0
ARC
5
5DC
100
AcDbEntity
8
035
100
AcDbCircle
62
3
6
CONTINUOUS
10
312.3915879241
20
152.1990379563
40
1.6140310759
100
AcDbArc
50
359.9998950563
51
43.5926803394
0
ARC
5
5DD
100
AcDbEntity
8
035
100
AcDbCircle
62
3
6
CONTINUOUS
10
309.4688560503
20
149.4164664826
40
5.6495069601
100
AcDbArc
50
43.5927055232
51
66.4872670988
0
ARC
5
5DE
100
AcDbEntity
8
035
100
AcDbCircle
62
3
6
CONTINUOUS
10
307.5065828009
20
144.9063258821
40
10.5680315908
100
AcDbArc
50
66.4871855690
51
79.7841177144
0
ARC
5
5DF
100
AcDbEntity
8
035
100
AcDbCircle
62
3
6
CONTINUOUS
10
306.2113847147
20
137.7193682517
40
17.8707638235
100
AcDbArc
50
79.7841066911
51
89.2698468398
0
ARC
5
5E0
100
AcDbEntity
8
035
100
AcDbCircle
62
3
6
CONTINUOUS
10
312.2456768078
20
152.3010087430
40
1.1657141922
100
AcDbArc
50
359.9999143317
51
47.6727514021
0
ARC
5
5E1
100
AcDbEntity
8
035
100
AcDbCircle
62
3
6
CONTINUOUS
10
309.3986636983
20
149.1751766189
40
5.3937527580
100
AcDbArc
50
47.6727033037
51
69.3302100934
0
ARC
5
5E2
100
AcDbEntity
8
035
100
AcDbCircle
62
3
6
CONTINUOUS
10
307.4801713529
20
144.0899444722
40
10.8288423492
100
AcDbArc
50
69.3301767081
51
81.1183461227
0
ARC
5
5E3
100
AcDbEntity
8
035
100
AcDbCircle
62
3
6
CONTINUOUS
10
306.2114003630
20
135.9708507623
40
19.0464735465
100
AcDbArc
50
81.1182920349
51
89.3149673746
0
ARC
5
5E4
100
AcDbEntity
8
035
100
AcDbCircle
62
3
6
CONTINUOUS
10
312.2456769094
20
161.7810083950
40
1.1657143811
100
AcDbArc
50
13.3412824910
51
47.6727666092
0
ARC
5
5E5
100
AcDbEntity
8
035
100
AcDbCircle
62
3
6
CONTINUOUS
10
309.3986636983
20
158.6551766189
40
5.3937527580
100
AcDbArc
50
47.6727033037
51
69.3302100934
0
ARC
5
5E6
100
AcDbEntity
8
035
100
AcDbCircle
62
3
6
CONTINUOUS
10
307.4801713529
20
153.5699444722
40
10.8288423492
100
AcDbArc
50
69.3301767081
51
81.1183461227
0
ARC
5
5E7
100
AcDbEntity
8
035
100
AcDbCircle
62
3
6
CONTINUOUS
10
306.2114003630
20
145.4508507623
40
19.0464735465
100
AcDbArc
50
81.1182920349
51
89.3149673746
0
ARC
5
5E8
100
AcDbEntity
8
035
100
AcDbCircle
62
3
6
CONTINUOUS
10
312.3915860768
20
161.6790368373
40
1.6140331854
100
AcDbArc
50
13.2873520718
51
43.5926638924
0
ARC
5
5E9
100
AcDbEntity
8
035
100
AcDbCircle
62
3
6
CONTINUOUS
10
309.4688560503
20
158.8964664826
40
5.6495069601
100
AcDbArc
50
43.5927055232
51
66.4872670988
0
ARC
5
5EA
100
AcDbEntity
8
035
100
AcDbCircle
62
3
6
CONTINUOUS
10
307.5065828009
20
154.3863258821
40
10.5680315908
100
AcDbArc
50
66.4871855690
51
79.7841177144
0
ARC
5
5EB
100
AcDbEntity
8
035
100
AcDbCircle
62
3
6
CONTINUOUS
10
306.2113847147
20
147.1993682517
40
17.8707638235
100
AcDbArc
50
79.7841066911
51
89.2698468398
0
ARC
5
5EC
100
AcDbEntity
8
035
100
AcDbCircle
62
3
6
CONTINUOUS
10
312.2456769094
20
162.3189876050
40
1.1657143811
100
AcDbArc
50
312.3272333908
51
346.6587175090
0
ARC
5
5ED
100
AcDbEntity
8
035
100
AcDbCircle
62
3
6
CONTINUOUS
10
309.3986663123
20
165.4448198811
40
5.3937513675
100
AcDbArc
50
290.6697658016
51
312.3272725913
0
ARC
5
5EE
100
AcDbEntity
8
035
100
AcDbCircle
62
3
6
CONTINUOUS
10
307.4801713529
20
170.5300525278
40
10.8288423492
100
AcDbArc
50
278.8816538773
51
290.6698232919
0
ARC
5
5EF
100
AcDbEntity
8
035
100
AcDbCircle
62
3
6
CONTINUOUS
10
306.2114003630
20
178.6491462377
40
19.0464735465
100
AcDbArc
50
270.6850326254
51
278.8817079651
0
ARC
5
5F0
100
AcDbEntity
8
035
100
AcDbCircle
62
3
6
CONTINUOUS
10
312.3915879232
20
162.4209596627
40
1.6140315034
100
AcDbArc
50
316.4073037696
51
346.7126155902
0
ARC
5
5F1
100
AcDbEntity
8
035
100
AcDbCircle
62
3
6
CONTINUOUS
10
309.4688535811
20
165.2035300174
40
5.6495084037
100
AcDbArc
50
293.5127538410
51
316.4073154166
0
ARC
5
5F2
100
AcDbEntity
8
035
100
AcDbCircle
62
3
6
CONTINUOUS
10
307.5065870905
20
169.7136706179
40
10.5680303379
100
AcDbArc
50
280.2158598785
51
293.5127920240
0
ARC
5
5F3
100
AcDbEntity
8
035
100
AcDbCircle
62
3
6
CONTINUOUS
10
306.2113847147
20
176.9006287483
40
17.8707638235
100
AcDbArc
50
270.7301531602
51
280.2158933089
0
LINE
5
5F4
100
AcDbEntity
8
035
100
AcDbLine
62
3
6
CONTINUOUS
10
318.4391160000
20
168.1195470000
11
304.6391160000
21
168.1195470000
0
ARC
5
5F5
100
AcDbEntity
8
035
100
AcDbCircle
62
3
6
CONTINUOUS
10
308.2391194836
20
175.5296371236
40
4.2281101236
100
AcDbArc
50
269.9999527929
51
286.3249600197
0
ARC
5
5F6
100
AcDbEntity
8
035
100
AcDbCircle
62
3
6
CONTINUOUS
10
308.5425228626
20
174.4937573946
40
3.1487119471
100
AcDbArc
50
286.3249419815
51
305.2644887912
0
ARC
5
5F7
100
AcDbEntity
8
035
100
AcDbCircle
62
3
6
CONTINUOUS
10
309.0063093327
20
173.8378701167
40
2.3454149839
100
AcDbArc
50
305.2644403955
51
329.6387961888
0
ARC
5
5F8
100
AcDbEntity
8
035
100
AcDbCircle
62
3
6
CONTINUOUS
10
309.7147938435
20
173.4228482749
40
1.5243221565
100
AcDbArc
50
329.6388302835
51
359.9999896677
0
ARC
5
5F9
100
AcDbEntity
8
035
100
AcDbCircle
62
3
6
CONTINUOUS
10
309.7147956863
20
173.4228472251
40
1.5243203137
100
AcDbArc
50
0.0000291261
51
30.3611885104
0
ARC
5
5FA
100
AcDbEntity
8
035
100
AcDbCircle
62
3
6
CONTINUOUS
10
309.0063070176
20
173.0078253833
40
2.3454167288
100
AcDbArc
50
30.3611646861
51
54.7355204795
0
ARC
5
5FB
100
AcDbEntity
8
035
100
AcDbCircle
62
3
6
CONTINUOUS
10
308.5425258602
20
172.3519381054
40
3.1487106247
100
AcDbArc
50
54.7355609983
51
73.6751078080
0
ARC
5
5FC
100
AcDbEntity
8
035
100
AcDbCircle
62
3
6
CONTINUOUS
10
308.2391194836
20
171.3160578764
40
4.2281101236
100
AcDbArc
50
73.6750399803
51
90.0000472071
0
ARC
5
5FD
100
AcDbEntity
8
035
100
AcDbCircle
62
3
6
CONTINUOUS
10
308.2391130164
20
171.3160613623
40
4.2281066377
100
AcDbArc
50
89.9999595685
51
106.3249667952
0
ARC
5
5FE
100
AcDbEntity
8
035
100
AcDbCircle
62
3
6
CONTINUOUS
10
307.9357071398
20
172.3519381054
40
3.1487106247
100
AcDbArc
50
106.3248921920
51
125.2644390017
0
ARC
5
5FF
100
AcDbEntity
8
035
100
AcDbCircle
62
3
6
CONTINUOUS
10
307.4719259824
20
173.0078253833
40
2.3454167288
100
AcDbArc
50
125.2644795205
51
149.6388353139
0
ARC
5
600
100
AcDbEntity
8
035
100
AcDbCircle
62
3
6
CONTINUOUS
10
306.7634368137
20
173.4228453823
40
1.5243208137
100
AcDbArc
50
149.6387422239
51
179.9999016081
0
ARC
5
601
100
AcDbEntity
8
035
100
AcDbCircle
62
3
6
CONTINUOUS
10
306.7634386565
20
173.4228501177
40
1.5243226565
100
AcDbArc
50
180.0000795979
51
210.3612389821
0
ARC
5
602
100
AcDbEntity
8
035
100
AcDbCircle
62
3
6
CONTINUOUS
10
307.4719236673
20
173.8378701167
40
2.3454149839
100
AcDbArc
50
210.3612038112
51
234.7355596045
0
ARC
5
603
100
AcDbEntity
8
035
100
AcDbCircle
62
3
6
CONTINUOUS
10
307.9357101374
20
174.4937573946
40
3.1487119471
100
AcDbArc
50
234.7355112088
51
253.6750580185
0
ARC
5
604
100
AcDbEntity
8
035
100
AcDbCircle
62
3
6
CONTINUOUS
10
308.2391130164
20
175.5296336377
40
4.2281066377
100
AcDbArc
50
253.6750332048
51
270.0000404315
0
LINE
5
605
100
AcDbEntity
8
035
100
AcDbLine
62
3
6
CONTINUOUS
10
318.4391160000
20
177.6654880000
11
304.6391160000
21
177.6654880000
0
LINE
5
606
100
AcDbEntity
8
035
100
AcDbLine
62
3
6
CONTINUOUS
10
318.4391160000
20
169.1802070000
11
304.6391160000
21
169.1802070000
0
ARC
5
607
100
AcDbEntity
8
035
100
AcDbCircle
62
3
6
CONTINUOUS
10
304.6391136131
20
174.2830026898
40
3.3824853102
100
AcDbArc
50
89.9999595685
51
106.3249667952
0
ARC
5
608
100
AcDbEntity
8
035
100
AcDbCircle
62
3
6
CONTINUOUS
10
304.3963889118
20
175.1117040843
40
2.5189684998
100
AcDbArc
50
106.3248921920
51
125.2644390017
0
ARC
5
609
100
AcDbEntity
8
035
100
AcDbCircle
62
3
6
CONTINUOUS
10
304.0253632229
20
175.6364126176
40
1.8763339950
100
AcDbArc
50
125.2644377704
51
149.6387935637
0
ARC
5
60A
100
AcDbEntity
8
035
100
AcDbCircle
62
3
6
CONTINUOUS
10
303.4585727195
20
175.9684311115
40
1.2194567195
100
AcDbArc
50
149.6387988717
51
179.9999582559
0
ARC
5
60B
100
AcDbEntity
8
035
100
AcDbCircle
62
3
6
CONTINUOUS
10
303.4585727195
20
170.8772638885
40
1.2194567195
100
AcDbArc
50
180.0000417441
51
210.3612011283
0
ARC
5
60C
100
AcDbEntity
8
035
100
AcDbCircle
62
3
6
CONTINUOUS
10
304.0253632229
20
171.2092823824
40
1.8763339950
100
AcDbArc
50
210.3612064363
51
234.7355622296
0
ARC
5
60D
100
AcDbEntity
8
035
100
AcDbCircle
62
3
6
CONTINUOUS
10
304.3963889118
20
171.7339909157
40
2.5189684998
100
AcDbArc
50
234.7355609983
51
253.6751078080
0
ARC
5
60E
100
AcDbEntity
8
035
100
AcDbCircle
62
3
6
CONTINUOUS
10
304.6391136131
20
172.5626923102
40
3.3824853102
100
AcDbArc
50
253.6750332048
51
270.0000404315
0
CIRCLE
5
60F
100
AcDbEntity
8
035
100
AcDbCircle
62
3
6
CONTINUOUS
10
103.2342020000
20
73.9632490000
40
1.5300000000
0
CIRCLE
5
610
100
AcDbEntity
8
035
100
AcDbCircle
62
3
6
CONTINUOUS
10
103.2342020000
20
73.9632490000
40
3.4500000000
0
CIRCLE
5
611
100
AcDbEntity
8
035
100
AcDbCircle
62
3
6
CONTINUOUS
10
79.7742020000
20
76.2732490000
40
1.5300000000
0
CIRCLE
5
612
100
AcDbEntity
8
035
100
AcDbCircle
62
3
6
CONTINUOUS
10
79.7742020000
20
76.2732490000
40
3.4500000000
0
CIRCLE
5
613
100
AcDbEntity
8
035
100
AcDbCircle
62
3
6
CONTINUOUS
10
85.9242020000
20
68.7132490000
40
3.4500000000
0
CIRCLE
5
614
100
AcDbEntity
8
035
100
AcDbCircle
62
3
6
CONTINUOUS
10
85.9242020000
20
68.7132490000
40
1.5300000000
0
CIRCLE
5
615
100
AcDbEntity
8
035
100
AcDbCircle
62
3
6
CONTINUOUS
10
95.6742020000
20
67.8132490000
40
1.5300000000
0
CIRCLE
5
616
100
AcDbEntity
8
035
100
AcDbCircle
62
3
6
CONTINUOUS
10
95.6742020000
20
67.8132490000
40
3.4500000000
0
CIRCLE
5
617
100
AcDbEntity
8
035
100
AcDbCircle
62
3
6
CONTINUOUS
10
80.6742020000
20
86.0232490000
40
3.4500000000
0
CIRCLE
5
618
100
AcDbEntity
8
035
100
AcDbCircle
62
3
6
CONTINUOUS
10
80.6742020000
20
86.0232490000
40
1.5300000000
0
CIRCLE
5
619
100
AcDbEntity
8
035
100
AcDbCircle
62
3
6
CONTINUOUS
10
104.1342020000
20
83.5632490000
40
3.4500000000
0
CIRCLE
5
61A
100
AcDbEntity
8
035
100
AcDbCircle
62
3
6
CONTINUOUS
10
104.1342020000
20
83.5632490000
40
1.5300000000
0
LINE
5
61B
100
AcDbEntity
8
035
100
AcDbLine
62
3
6
CONTINUOUS
10
89.7042020000
20
95.2932490000
11
89.7042020000
21
100.4197030000
0
LINE
5
61C
100
AcDbEntity
8
035
100
AcDbLine
62
3
6
CONTINUOUS
10
94.2042020000
20
95.2932490000
11
94.2042020000
21
100.4197030000
0
LINE
5
61D
100
AcDbEntity
8
035
100
AcDbLine
62
3
6
CONTINUOUS
10
89.7042020000
20
95.2932490000
11
94.2042020000
21
95.2932490000
0
ARC
5
61E
100
AcDbEntity
8
035
100
AcDbCircle
62
3
6
CONTINUOUS
10
303.4585745623
20
169.8166033885
40
1.2194585623
100
AcDbArc
50
180.0000182517
51
210.3611776359
0
ARC
5
61F
100
AcDbEntity
8
035
100
AcDbCircle
62
3
6
CONTINUOUS
10
304.0253609078
20
170.1486218824
40
1.8763322501
100
AcDbArc
50
210.3612553427
51
234.7356111360
0
ARC
5
620
100
AcDbEntity
8
035
100
AcDbCircle
62
3
6
CONTINUOUS
10
304.3963889118
20
170.6733309157
40
2.5189684998
100
AcDbArc
50
234.7355609983
51
253.6751078080
0
ARC
5
621
100
AcDbEntity
8
035
100
AcDbCircle
62
3
6
CONTINUOUS
10
304.6391136131
20
171.5020323102
40
3.3824853102
100
AcDbArc
50
253.6750332048
51
270.0000404315
0
LINE
5
622
100
AcDbEntity
8
035
100
AcDbLine
62
3
6
CONTINUOUS
10
302.2391160000
20
175.9684320000
11
302.2391160000
21
169.8166030000
0
ARC
5
623
100
AcDbEntity
8
035
100
AcDbCircle
62
3
6
CONTINUOUS
10
308.2391159977
20
170.2553973764
40
4.2281106236
100
AcDbArc
50
73.6749927421
51
89.9999999689
0
ARC
5
624
100
AcDbEntity
8
035
100
AcDbCircle
62
3
6
CONTINUOUS
10
308.5425258602
20
171.2912771054
40
3.1487106247
100
AcDbArc
50
54.7355609983
51
73.6751078080
0
ARC
5
625
100
AcDbEntity
8
035
100
AcDbCircle
62
3
6
CONTINUOUS
10
309.0063093327
20
171.9471648833
40
2.3454149839
100
AcDbArc
50
30.3612038112
51
54.7355596045
0
ARC
5
626
100
AcDbEntity
8
035
100
AcDbCircle
62
3
6
CONTINUOUS
10
309.7148099012
20
172.3621896061
40
1.5243068448
100
AcDbArc
50
20.3597670667
51
30.3613813551
0
ARC
5
627
100
AcDbEntity
8
035
100
AcDbCircle
62
3
6
CONTINUOUS
10
306.7634230988
20
172.3621896061
40
1.5243068448
100
AcDbArc
50
149.6386186449
51
159.6402329333
0
ARC
5
628
100
AcDbEntity
8
035
100
AcDbCircle
62
3
6
CONTINUOUS
10
307.4719236673
20
171.9471648833
40
2.3454149839
100
AcDbArc
50
125.2644403955
51
149.6387961888
0
ARC
5
629
100
AcDbEntity
8
035
100
AcDbCircle
62
3
6
CONTINUOUS
10
307.9357071398
20
171.2912771054
40
3.1487106247
100
AcDbArc
50
106.3248921920
51
125.2644390017
0
ARC
5
62A
100
AcDbEntity
8
035
100
AcDbCircle
62
3
6
CONTINUOUS
10
308.2391165023
20
170.2554008623
40
4.2281071377
100
AcDbArc
50
90.0000068067
51
106.3250140335
0
ARC
5
62B
100
AcDbEntity
8
035
100
AcDbCircle
62
3
6
CONTINUOUS
10
246.0515528316
20
193.0886804362
40
5.0000059097
100
AcDbArc
50
330.0000465582
51
34.9999579260
0
ARC
5
62C
100
AcDbEntity
8
035
100
AcDbCircle
62
3
6
CONTINUOUS
10
249.6353500000
20
195.5980780000
40
0.6249998209
100
AcDbArc
50
34.9999809758
51
214.9999809758
0
ARC
5
62D
100
AcDbEntity
8
035
100
AcDbCircle
62
3
6
CONTINUOUS
10
246.0515667147
20
193.0886820755
40
3.7499939553
100
AcDbArc
50
339.5940172312
51
35.0000513925
0
LINE
5
62E
100
AcDbEntity
8
035
100
AcDbLine
62
3
6
CONTINUOUS
10
249.5662320000
20
191.7811720000
11
248.2584910000
21
192.5361970000
0
ARC
5
62F
100
AcDbEntity
8
035
100
AcDbCircle
62
3
6
CONTINUOUS
10
247.9459910000
20
191.9949310000
40
0.6250001062
100
AcDbArc
50
60.0000056212
51
240.0000056212
0
LINE
5
630
100
AcDbEntity
8
035
100
AcDbLine
62
3
6
CONTINUOUS
10
247.6334910000
20
191.4536650000
11
249.5279210000
21
190.3599150000
0
ARC
5
631
100
AcDbEntity
8
035
100
AcDbCircle
62
3
6
CONTINUOUS
10
249.8404211709
20
190.9011803622
40
0.6249996393
100
AcDbArc
50
239.9999628169
51
330.0000484254
0
ARC
5
632
100
AcDbEntity
8
035
100
AcDbCircle
62
3
6
CONTINUOUS
10
246.0515605638
20
193.0886738316
40
5.0000059097
100
AcDbArc
50
60.0000465582
51
124.9999579260
0
ARC
5
633
100
AcDbEntity
8
035
100
AcDbCircle
62
3
6
CONTINUOUS
10
243.5421635000
20
196.6724710000
40
0.6250001077
100
AcDbArc
50
125.0000185230
51
305.0000185230
0
ARC
5
634
100
AcDbEntity
8
035
100
AcDbCircle
62
3
6
CONTINUOUS
10
246.0515560917
20
193.0886943345
40
3.7499863343
100
AcDbArc
50
99.5940429585
51
125.0000614349
0
LINE
5
635
100
AcDbEntity
8
035
100
AcDbLine
62
3
6
CONTINUOUS
10
245.4265600000
20
196.7862310000
11
245.4265600000
21
188.7136810000
0
ARC
5
636
100
AcDbEntity
8
035
100
AcDbCircle
62
3
6
CONTINUOUS
10
246.0515600000
20
188.7136810000
40
0.6250000000
100
AcDbArc
50
180.0000000000
51
360.0000000000
0
LINE
5
637
100
AcDbEntity
8
035
100
AcDbLine
62
3
6
CONTINUOUS
10
246.6765600000
20
188.7136810000
11
246.6765600000
21
196.7862310000
0
ARC
5
638
100
AcDbEntity
8
035
100
AcDbCircle
62
3
6
CONTINUOUS
10
246.0515630035
20
193.0886923647
40
3.7499884273
100
AcDbArc
50
59.9999509034
51
80.4059484267
0
ARC
5
639
100
AcDbEntity
8
035
100
AcDbCircle
62
3
6
CONTINUOUS
10
248.2390600000
20
196.8775420000
40
0.6250001062
100
AcDbArc
50
240.0000056212
51
60.0000056212
0
ARC
5
63A
100
AcDbEntity
8
035
100
AcDbCircle
62
3
6
CONTINUOUS
10
246.0515671684
20
193.0886815638
40
5.0000059097
100
AcDbArc
50
150.0000465582
51
214.9999579260
0
ARC
5
63B
100
AcDbEntity
8
035
100
AcDbCircle
62
3
6
CONTINUOUS
10
242.4677700000
20
190.5792840000
40
0.6249998209
100
AcDbArc
50
214.9999809758
51
34.9999809758
0
ARC
5
63C
100
AcDbEntity
8
035
100
AcDbCircle
62
3
6
CONTINUOUS
10
246.0515532853
20
193.0886799245
40
3.7499939553
100
AcDbArc
50
159.5940172312
51
215.0000513925
0
LINE
5
63D
100
AcDbEntity
8
035
100
AcDbLine
62
3
6
CONTINUOUS
10
242.5368880000
20
194.3961900000
11
243.8446300000
21
193.6411650000
0
ARC
5
63E
100
AcDbEntity
8
035
100
AcDbCircle
62
3
6
CONTINUOUS
10
244.1571300000
20
194.1824310000
40
0.6250001062
100
AcDbArc
50
240.0000056212
51
60.0000056212
0
LINE
5
63F
100
AcDbEntity
8
035
100
AcDbLine
62
3
6
CONTINUOUS
10
244.4696300000
20
194.7236970000
11
242.5751990000
21
195.8174470000
0
ARC
5
640
100
AcDbEntity
8
035
100
AcDbCircle
62
3
6
CONTINUOUS
10
242.2626988291
20
195.2761816378
40
0.6249996393
100
AcDbArc
50
59.9999628169
51
150.0000484254
0
CIRCLE
5
641
100
AcDbEntity
8
035
100
AcDbCircle
62
3
6
CONTINUOUS
10
246.0515600000
20
193.0886810000
40
6.2500000000
0
CIRCLE
5
642
100
AcDbEntity
8
035
100
AcDbCircle
62
3
6
CONTINUOUS
10
246.0515600000
20
193.0886810000
40
7.5000000000
0
LINE
5
643
100
AcDbEntity
8
05
100
AcDbLine
62
4
6
CONTINUOUS
10
209.9938210000
20
21.0000000000
11
276.9938210000
21
21.0000000000
0
LINE
5
644
100
AcDbEntity
8
05
100
AcDbLine
62
4
6
CONTINUOUS
10
209.9938210000
20
26.0000000000
11
276.9938210000
21
26.0000000000
0
LINE
5
645
100
AcDbEntity
8
05
100
AcDbLine
62
4
6
CONTINUOUS
10
209.9938210000
20
31.0000000000
11
276.9938210000
21
31.0000000000
0
LINE
5
646
100
AcDbEntity
8
05
100
AcDbLine
62
4
6
CONTINUOUS
10
209.9938210000
20
36.0000000000
11
276.9938210000
21
36.0000000000
0
LINE
5
647
100
AcDbEntity
8
05
100
AcDbLine
62
4
6
CONTINUOUS
10
209.9938210000
20
41.0000000000
11
276.9938210000
21
41.0000000000
0
LINE
5
648
100
AcDbEntity
8
05
100
AcDbLine
62
4
6
CONTINUOUS
10
209.9938210000
20
46.0000000000
11
276.9938210000
21
46.0000000000
0
LINE
5
649
100
AcDbEntity
8
05
100
AcDbLine
62
4
6
CONTINUOUS
10
209.9938210000
20
51.0000000000
11
276.9938210000
21
51.0000000000
0
LINE
5
64A
100
AcDbEntity
8
05
100
AcDbLine
62
4
6
CONTINUOUS
10
315.9055150000
20
15.6550740000
11
315.9435130000
21
15.6930720000
0
LINE
5
64B
100
AcDbEntity
8
05
100
AcDbLine
62
4
6
CONTINUOUS
10
315.5807130000
20
13.2089520000
11
315.5900310000
21
13.2182700000
0
ARC
5
64C
100
AcDbEntity
8
025
100
AcDbCircle
62
4
6
CONTINUOUS
10
310.8426880000
20
157.0886800000
40
23.7964290000
100
AcDbArc
50
325.4370030000
51
34.5629970000
0
LINE
5
64D
100
AcDbEntity
8
0
100
AcDbLine
62
4
6
CONTINUOUS
10
116.4195210000
20
214.5387750000
11
67.4888830000
21
172.5758840000
0
LINE
5
64E
100
AcDbEntity
8
0
100
AcDbLine
62
4
6
CONTINUOUS
10
116.7992660000
20
214.0959750000
11
119.0763200000
21
216.8172440000
0
LINE
5
64F
100
AcDbEntity
8
0
100
AcDbLine
62
4
6
CONTINUOUS
10
119.0763200000
20
216.8172440000
11
116.0397770000
21
214.9815750000
0
LINE
5
650
100
AcDbEntity
8
0
100
AcDbLine
62
4
6
CONTINUOUS
10
116.0397770000
20
214.9815750000
11
116.7992660000
21
214.0959750000
0
SOLID
5
651
100
AcDbEntity
8
0
100
AcDbTrace
62
4
6
CONTINUOUS
10
116.0397770000
20
214.9815750000
11
116.7992660000
21
214.0959750000
12
119.0763200000
22
216.8172440000
13
119.0763200000
23
216.8172440000
0
LINE
5
652
100
AcDbEntity
8
0
100
AcDbLine
62
4
6
CONTINUOUS
10
67.8686270000
20
172.1330850000
11
64.8320840000
21
170.2974150000
0
LINE
5
653
100
AcDbEntity
8
0
100
AcDbLine
62
4
6
CONTINUOUS
10
64.8320840000
20
170.2974150000
11
67.1091380000
21
173.0186840000
0
LINE
5
654
100
AcDbEntity
8
0
100
AcDbLine
62
4
6
CONTINUOUS
10
67.1091380000
20
173.0186840000
11
67.8686270000
21
172.1330850000
0
SOLID
5
655
100
AcDbEntity
8
0
100
AcDbTrace
62
4
6
CONTINUOUS
10
67.8686270000
20
172.1330850000
11
67.1091380000
21
173.0186840000
12
64.8320840000
22
170.2974150000
13
64.8320840000
23
170.2974150000
0
LINE
5
656
100
AcDbEntity
8
0
100
AcDbLine
62
4
6
CONTINUOUS
10
58.7742020000
20
156.7273300000
11
58.7742020000
21
142.5199980000
0
LINE
5
657
100
AcDbEntity
8
0
100
AcDbLine
62
4
6
CONTINUOUS
10
68.0742020000
20
156.7273300000
11
68.0742020000
21
150.7895090000
0
LINE
5
658
100
AcDbEntity
8
0
100
AcDbLine
62
4
6
CONTINUOUS
10
53.1268490000
20
144.3199980000
11
85.8625870000
21
144.3199980000
0
LINE
5
659
100
AcDbEntity
8
0
100
AcDbLine
62
4
6
CONTINUOUS
10
71.5742020000
20
143.7366650000
11
68.0742020000
21
144.3199980000
0
LINE
5
65A
100
AcDbEntity
8
0
100
AcDbLine
62
4
6
CONTINUOUS
10
68.0742020000
20
144.3199980000
11
71.5742020000
21
144.9033310000
0
LINE
5
65B
100
AcDbEntity
8
0
100
AcDbLine
62
4
6
CONTINUOUS
10
71.5742020000
20
144.9033310000
11
71.5742020000
21
143.7366650000
0
SOLID
5
65C
100
AcDbEntity
8
0
100
AcDbTrace
62
4
6
CONTINUOUS
10
68.0742020000
20
144.3199980000
11
71.5742020000
21
143.7366650000
12
71.5742020000
22
144.9033310000
13
71.5742020000
23
144.9033310000
0
LINE
5
65D
100
AcDbEntity
8
0
100
AcDbLine
62
4
6
CONTINUOUS
10
55.2742020000
20
143.7366650000
11
58.7742020000
21
144.3199980000
0
LINE
5
65E
100
AcDbEntity
8
0
100
AcDbLine
62
4
6
CONTINUOUS
10
58.7742020000
20
144.3199980000
11
55.2742020000
21
144.9033310000
0
LINE
5
65F
100
AcDbEntity
8
0
100
AcDbLine
62
4
6
CONTINUOUS
10
55.2742020000
20
144.9033310000
11
55.2742020000
21
143.7366650000
0
SOLID
5
660
100
AcDbEntity
8
0
100
AcDbTrace
62
4
6
CONTINUOUS
10
58.7742020000
20
144.3199980000
11
55.2742020000
21
144.9033310000
12
55.2742020000
22
143.7366650000
13
55.2742020000
23
143.7366650000
0
LINE
5
661
100
AcDbEntity
8
0
100
AcDbLine
62
4
6
CONTINUOUS
10
367.3391160000
20
109.7886810000
11
367.3391160000
21
105.6463580000
0
LINE
5
662
100
AcDbEntity
8
0
100
AcDbLine
62
4
6
CONTINUOUS
10
373.3391160000
20
110.9886810000
11
373.3391160000
21
98.3398410000
0
LINE
5
663
100
AcDbEntity
8
0
100
AcDbLine
62
4
6
CONTINUOUS
10
363.8391160000
20
100.1398410000
11
347.1916490000
21
100.1398410000
0
LINE
5
664
100
AcDbEntity
8
0
100
AcDbLine
62
4
6
CONTINUOUS
10
376.8391160000
20
100.1398410000
11
379.6236070000
21
100.1398410000
0
LINE
5
665
100
AcDbEntity
8
0
100
AcDbLine
62
4
6
CONTINUOUS
10
367.3391160000
20
100.1398410000
11
373.3391160000
21
100.1398410000
0
LINE
5
666
100
AcDbEntity
8
0
100
AcDbLine
62
4
6
CONTINUOUS
10
363.8391160000
20
99.5565080000
11
367.3391160000
21
100.1398410000
0
LINE
5
667
100
AcDbEntity
8
0
100
AcDbLine
62
4
6
CONTINUOUS
10
367.3391160000
20
100.1398410000
11
363.8391160000
21
100.7231740000
0
LINE
5
668
100
AcDbEntity
8
0
100
AcDbLine
62
4
6
CONTINUOUS
10
363.8391160000
20
100.7231740000
11
363.8391160000
21
99.5565080000
0
SOLID
5
669
100
AcDbEntity
8
0
100
AcDbTrace
62
4
6
CONTINUOUS
10
367.3391160000
20
100.1398410000
11
363.8391160000
21
100.7231740000
12
363.8391160000
22
99.5565080000
13
363.8391160000
23
99.5565080000
0
LINE
5
66A
100
AcDbEntity
8
0
100
AcDbLine
62
4
6
CONTINUOUS
10
376.8391160000
20
99.5565080000
11
373.3391160000
21
100.1398410000
0
LINE
5
66B
100
AcDbEntity
8
0
100
AcDbLine
62
4
6
CONTINUOUS
10
373.3391160000
20
100.1398410000
11
376.8391160000
21
100.7231740000
0
LINE
5
66C
100
AcDbEntity
8
0
100
AcDbLine
62
4
6
CONTINUOUS
10
376.8391160000
20
100.7231740000
11
376.8391160000
21
99.5565080000
0
SOLID
5
66D
100
AcDbEntity
8
0
100
AcDbTrace
62
4
6
CONTINUOUS
10
373.3391160000
20
100.1398410000
11
376.8391160000
21
99.5565080000
12
376.8391160000
22
100.7231740000
13
376.8391160000
23
100.7231740000
0
LINE
5
66E
100
AcDbEntity
8
0
100
AcDbLine
62
4
6
CONTINUOUS
10
381.4391160000
20
120.8886810000
11
381.4391160000
21
96.0807090000
0
LINE
5
66F
100
AcDbEntity
8
0
100
AcDbLine
62
4
6
CONTINUOUS
10
373.3391160000
20
110.9886810000
11
373.3391160000
21
88.4893940000
0
LINE
5
670
100
AcDbEntity
8
0
100
AcDbLine
62
4
6
CONTINUOUS
10
397.8839130000
20
89.6487820000
11
368.0741390000
21
89.6487820000
0
LINE
5
671
100
AcDbEntity
8
0
100
AcDbLine
62
4
6
CONTINUOUS
10
369.8391160000
20
89.0654490000
11
373.3391160000
21
89.6487820000
0
LINE
5
672
100
AcDbEntity
8
0
100
AcDbLine
62
4
6
CONTINUOUS
10
373.3391160000
20
89.6487820000
11
369.8391160000
21
90.2321160000
0
LINE
5
673
100
AcDbEntity
8
0
100
AcDbLine
62
4
6
CONTINUOUS
10
369.8391160000
20
90.2321160000
11
369.8391160000
21
89.0654490000
0
SOLID
5
674
100
AcDbEntity
8
0
100
AcDbTrace
62
4
6
CONTINUOUS
10
373.3391160000
20
89.6487820000
11
369.8391160000
21
90.2321160000
12
369.8391160000
22
89.0654490000
13
369.8391160000
23
89.0654490000
0
LINE
5
675
100
AcDbEntity
8
0
100
AcDbLine
62
4
6
CONTINUOUS
10
384.9391160000
20
89.0654490000
11
381.4391160000
21
89.6487820000
0
LINE
5
676
100
AcDbEntity
8
0
100
AcDbLine
62
4
6
CONTINUOUS
10
381.4391160000
20
89.6487820000
11
384.9391160000
21
90.2321160000
0
LINE
5
677
100
AcDbEntity
8
0
100
AcDbLine
62
4
6
CONTINUOUS
10
384.9391160000
20
90.2321160000
11
384.9391160000
21
89.0654490000
0
SOLID
5
678
100
AcDbEntity
8
0
100
AcDbTrace
62
4
6
CONTINUOUS
10
381.4391160000
20
89.6487820000
11
384.9391160000
21
89.0654490000
12
384.9391160000
22
90.2321160000
13
384.9391160000
23
90.2321160000
0
LINE
5
679
100
AcDbEntity
8
0
100
AcDbLine
62
4
6
CONTINUOUS
10
318.9391160000
20
188.0386810000
11
318.9391160000
21
221.8628160000
0
LINE
5
67A
100
AcDbEntity
8
0
100
AcDbLine
62
4
6
CONTINUOUS
10
381.9391160000
20
192.0886810000
11
381.9391160000
21
221.8628160000
0
LINE
5
67B
100
AcDbEntity
8
0
100
AcDbLine
62
4
6
CONTINUOUS
10
322.4391160000
20
221.2352950000
11
378.4391160000
21
221.2352950000
0
LINE
5
67C
100
AcDbEntity
8
0
100
AcDbLine
62
4
6
CONTINUOUS
10
322.4391160000
20
220.6519610000
11
318.9391160000
21
221.2352950000
0
LINE
5
67D
100
AcDbEntity
8
0
100
AcDbLine
62
4
6
CONTINUOUS
10
318.9391160000
20
221.2352950000
11
322.4391160000
21
221.8186280000
0
LINE
5
67E
100
AcDbEntity
8
0
100
AcDbLine
62
4
6
CONTINUOUS
10
322.4391160000
20
221.8186280000
11
322.4391160000
21
220.6519610000
0
SOLID
5
67F
100
AcDbEntity
8
0
100
AcDbTrace
62
4
6
CONTINUOUS
10
318.9391160000
20
221.2352950000
11
322.4391160000
21
220.6519610000
12
322.4391160000
22
221.8186280000
13
322.4391160000
23
221.8186280000
0
LINE
5
680
100
AcDbEntity
8
0
100
AcDbLine
62
4
6
CONTINUOUS
10
378.4391160000
20
220.6519610000
11
381.9391160000
21
221.2352950000
0
LINE
5
681
100
AcDbEntity
8
0
100
AcDbLine
62
4
6
CONTINUOUS
10
381.9391160000
20
221.2352950000
11
378.4391160000
21
221.8186280000
0
LINE
5
682
100
AcDbEntity
8
0
100
AcDbLine
62
4
6
CONTINUOUS
10
378.4391160000
20
221.8186280000
11
378.4391160000
21
220.6519610000
0
SOLID
5
683
100
AcDbEntity
8
0
100
AcDbTrace
62
4
6
CONTINUOUS
10
381.9391160000
20
221.2352950000
11
378.4391160000
21
221.8186280000
12
378.4391160000
22
220.6519610000
13
378.4391160000
23
220.6519610000
0
LINE
5
684
100
AcDbEntity
8
0
100
AcDbLine
62
4
6
CONTINUOUS
10
179.0515600000
20
193.8886810000
11
179.0515600000
21
223.0352950000
0
LINE
5
685
100
AcDbEntity
8
0
100
AcDbLine
62
4
6
CONTINUOUS
10
257.0515600000
20
193.8886810000
11
257.0515600000
21
223.0352950000
0
LINE
5
686
100
AcDbEntity
8
0
100
AcDbLine
62
4
6
CONTINUOUS
10
182.5515600000
20
221.2352950000
11
253.5515600000
21
221.2352950000
0
LINE
5
687
100
AcDbEntity
8
0
100
AcDbLine
62
4
6
CONTINUOUS
10
182.5515600000
20
220.6519610000
11
179.0515600000
21
221.2352950000
0
LINE
5
688
100
AcDbEntity
8
0
100
AcDbLine
62
4
6
CONTINUOUS
10
179.0515600000
20
221.2352950000
11
182.5515600000
21
221.8186280000
0
LINE
5
689
100
AcDbEntity
8
0
100
AcDbLine
62
4
6
CONTINUOUS
10
182.5515600000
20
221.8186280000
11
182.5515600000
21
220.6519610000
0
SOLID
5
68A
100
AcDbEntity
8
0
100
AcDbTrace
62
4
6
CONTINUOUS
10
179.0515600000
20
221.2352950000
11
182.5515600000
21
220.6519610000
12
182.5515600000
22
221.8186280000
13
182.5515600000
23
221.8186280000
0
LINE
5
68B
100
AcDbEntity
8
0
100
AcDbLine
62
4
6
CONTINUOUS
10
253.5515600000
20
220.6519610000
11
257.0515600000
21
221.2352950000
0
LINE
5
68C
100
AcDbEntity
8
0
100
AcDbLine
62
4
6
CONTINUOUS
10
257.0515600000
20
221.2352950000
11
253.5515600000
21
221.8186280000
0
LINE
5
68D
100
AcDbEntity
8
0
100
AcDbLine
62
4
6
CONTINUOUS
10
253.5515600000
20
221.8186280000
11
253.5515600000
21
220.6519610000
0
SOLID
5
68E
100
AcDbEntity
8
0
100
AcDbTrace
62
4
6
CONTINUOUS
10
257.0515600000
20
221.2352950000
11
253.5515600000
21
221.8186280000
12
253.5515600000
22
220.6519610000
13
253.5515600000
23
220.6519610000
0
LINE
5
68F
100
AcDbEntity
8
0
100
AcDbLine
62
4
6
CONTINUOUS
10
246.8515600000
20
203.5886810000
11
276.2810270000
21
203.5886810000
0
LINE
5
690
100
AcDbEntity
8
0
100
AcDbLine
62
4
6
CONTINUOUS
10
246.8515600000
20
110.5886810000
11
276.2810270000
21
110.5886810000
0
LINE
5
691
100
AcDbEntity
8
0
100
AcDbLine
62
4
6
CONTINUOUS
10
274.4810270000
20
200.0886810000
11
274.4810270000
21
114.0886810000
0
LINE
5
692
100
AcDbEntity
8
0
100
AcDbLine
62
4
6
CONTINUOUS
10
275.0643600000
20
200.0886810000
11
274.4810270000
21
203.5886810000
0
LINE
5
693
100
AcDbEntity
8
0
100
AcDbLine
62
4
6
CONTINUOUS
10
274.4810270000
20
203.5886810000
11
273.8976940000
21
200.0886810000
0
LINE
5
694
100
AcDbEntity
8
0
100
AcDbLine
62
4
6
CONTINUOUS
10
273.8976940000
20
200.0886810000
11
275.0643600000
21
200.0886810000
0
SOLID
5
695
100
AcDbEntity
8
0
100
AcDbTrace
62
4
6
CONTINUOUS
10
273.8976940000
20
200.0886808200
11
275.0643600000
21
200.0886808200
12
274.4810270000
22
203.5886810000
13
274.4810270000
23
203.5886810000
0
LINE
5
696
100
AcDbEntity
8
0
100
AcDbLine
62
4
6
CONTINUOUS
10
275.0643600000
20
114.0886810000
11
274.4810270000
21
110.5886810000
0
LINE
5
697
100
AcDbEntity
8
0
100
AcDbLine
62
4
6
CONTINUOUS
10
274.4810270000
20
110.5886810000
11
273.8976940000
21
114.0886810000
0
LINE
5
698
100
AcDbEntity
8
0
100
AcDbLine
62
4
6
CONTINUOUS
10
273.8976940000
20
114.0886810000
11
275.0643600000
21
114.0886810000
0
SOLID
5
699
100
AcDbEntity
8
0
100
AcDbTrace
62
4
6
CONTINUOUS
10
275.0643600000
20
114.0886811400
11
273.8976940000
21
114.0886811400
12
274.4810270000
22
110.5886810000
13
274.4810270000
23
110.5886810000
0
LINE
5
69A
100
AcDbEntity
8
0
100
AcDbLine
62
4
6
CONTINUOUS
10
125.9042020000
20
229.5873300000
11
141.3896040000
21
229.5873300000
0
LINE
5
69B
100
AcDbEntity
8
0
100
AcDbLine
62
4
6
CONTINUOUS
10
68.9042020000
20
157.5273300000
11
141.3896040000
21
157.5273300000
0
LINE
5
69C
100
AcDbEntity
8
0
100
AcDbLine
62
4
6
CONTINUOUS
10
139.5896040000
20
226.0873300000
11
139.5896040000
21
161.0273300000
0
LINE
5
69D
100
AcDbEntity
8
0
100
AcDbLine
62
4
6
CONTINUOUS
10
140.1729370000
20
226.0873300000
11
139.5896040000
21
229.5873300000
0
LINE
5
69E
100
AcDbEntity
8
0
100
AcDbLine
62
4
6
CONTINUOUS
10
139.5896040000
20
229.5873300000
11
139.0062710000
21
226.0873300000
0
LINE
5
69F
100
AcDbEntity
8
0
100
AcDbLine
62
4
6
CONTINUOUS
10
139.0062710000
20
226.0873300000
11
140.1729370000
21
226.0873300000
0
SOLID
5
6A0
100
AcDbEntity
8
0
100
AcDbTrace
62
4
6
CONTINUOUS
10
139.0062710000
20
226.0873301400
11
140.1729370000
21
226.0873301400
12
139.5896040000
22
229.5873300000
13
139.5896040000
23
229.5873300000
0
LINE
5
6A1
100
AcDbEntity
8
0
100
AcDbLine
62
4
6
CONTINUOUS
10
140.1729370000
20
161.0273300000
11
139.5896040000
21
157.5273300000
0
LINE
5
6A2
100
AcDbEntity
8
0
100
AcDbLine
62
4
6
CONTINUOUS
10
139.5896040000
20
157.5273300000
11
139.0062710000
21
161.0273300000
0
LINE
5
6A3
100
AcDbEntity
8
0
100
AcDbLine
62
4
6
CONTINUOUS
10
139.0062710000
20
161.0273300000
11
140.1729370000
21
161.0273300000
0
SOLID
5
6A4
100
AcDbEntity
8
0
100
AcDbTrace
62
4
6
CONTINUOUS
10
140.1729370000
20
161.0273301000
11
139.0062710000
21
161.0273301000
12
139.5896040000
22
157.5273300000
13
139.5896040000
23
157.5273300000
0
LINE
5
6A5
100
AcDbEntity
8
0
100
AcDbLine
62
4
6
CONTINUOUS
10
63.9242020000
20
162.9773300000
11
63.9242020000
21
242.7888660000
0
LINE
5
6A6
100
AcDbEntity
8
0
100
AcDbLine
62
4
6
CONTINUOUS
10
120.9842020000
20
235.0373300000
11
120.9842020000
21
242.7888660000
0
LINE
5
6A7
100
AcDbEntity
8
0
100
AcDbLine
62
4
6
CONTINUOUS
10
67.4242020000
20
241.4888660000
11
117.4842020000
21
241.4888660000
0
LINE
5
6A8
100
AcDbEntity
8
0
100
AcDbLine
62
4
6
CONTINUOUS
10
67.4242020000
20
240.9055330000
11
63.9242020000
21
241.4888660000
0
LINE
5
6A9
100
AcDbEntity
8
0
100
AcDbLine
62
4
6
CONTINUOUS
10
63.9242020000
20
241.4888660000
11
67.4242020000
21
242.0721990000
0
LINE
5
6AA
100
AcDbEntity
8
0
100
AcDbLine
62
4
6
CONTINUOUS
10
67.4242020000
20
242.0721990000
11
67.4242020000
21
240.9055330000
0
SOLID
5
6AB
100
AcDbEntity
8
0
100
AcDbTrace
62
4
6
CONTINUOUS
10
63.9242020000
20
241.4888660000
11
67.4242020000
21
240.9055330000
12
67.4242020000
22
242.0721990000
13
67.4242020000
23
242.0721990000
0
LINE
5
6AC
100
AcDbEntity
8
0
100
AcDbLine
62
4
6
CONTINUOUS
10
117.4842020000
20
240.9055330000
11
120.9842020000
21
241.4888660000
0
LINE
5
6AD
100
AcDbEntity
8
0
100
AcDbLine
62
4
6
CONTINUOUS
10
120.9842020000
20
241.4888660000
11
117.4842020000
21
242.0721990000
0
LINE
5
6AE
100
AcDbEntity
8
0
100
AcDbLine
62
4
6
CONTINUOUS
10
117.4842020000
20
242.0721990000
11
117.4842020000
21
240.9055330000
0
SOLID
5
6AF
100
AcDbEntity
8
0
100
AcDbTrace
62
4
6
CONTINUOUS
10
120.9842020000
20
241.4888660000
11
117.4842020000
21
242.0721990000
12
117.4842020000
22
240.9055330000
13
117.4842020000
23
240.9055330000
0
LINE
5
6B0
100
AcDbEntity
8
0
100
AcDbLine
62
4
6
CONTINUOUS
10
58.2042020000
20
43.1932490000
11
58.2042020000
21
20.1098030000
0
LINE
5
6B1
100
AcDbEntity
8
0
100
AcDbLine
62
4
6
CONTINUOUS
10
68.7042020000
20
43.1932490000
11
68.7042020000
21
27.7213570000
0
LINE
5
6B2
100
AcDbEntity
8
0
100
AcDbLine
62
4
6
CONTINUOUS
10
53.2711200000
20
21.5188500000
11
86.2220380000
21
21.5188500000
0
LINE
5
6B3
100
AcDbEntity
8
0
100
AcDbLine
62
4
6
CONTINUOUS
10
72.2042020000
20
20.9355170000
11
68.7042020000
21
21.5188500000
0
LINE
5
6B4
100
AcDbEntity
8
0
100
AcDbLine
62
4
6
CONTINUOUS
10
68.7042020000
20
21.5188500000
11
72.2042020000
21
22.1021840000
0
LINE
5
6B5
100
AcDbEntity
8
0
100
AcDbLine
62
4
6
CONTINUOUS
10
72.2042020000
20
22.1021840000
11
72.2042020000
21
20.9355170000
0
SOLID
5
6B6
100
AcDbEntity
8
0
100
AcDbTrace
62
4
6
CONTINUOUS
10
68.7042020000
20
21.5188500000
11
72.2042020000
21
20.9355170000
12
72.2042020000
22
22.1021840000
13
72.2042020000
23
22.1021840000
0
LINE
5
6B7
100
AcDbEntity
8
0
100
AcDbLine
62
4
6
CONTINUOUS
10
54.7042020000
20
20.9355170000
11
58.2042020000
21
21.5188500000
0
LINE
5
6B8
100
AcDbEntity
8
0
100
AcDbLine
62
4
6
CONTINUOUS
10
58.2042020000
20
21.5188500000
11
54.7042020000
21
22.1021840000
0
LINE
5
6B9
100
AcDbEntity
8
0
100
AcDbLine
62
4
6
CONTINUOUS
10
54.7042020000
20
22.1021840000
11
54.7042020000
21
20.9355170000
0
SOLID
5
6BA
100
AcDbEntity
8
0
100
AcDbTrace
62
4
6
CONTINUOUS
10
58.2042020000
20
21.5188500000
11
54.7042020000
21
22.1021840000
12
54.7042020000
22
20.9355170000
13
54.7042020000
23
20.9355170000
0
LINE
5
6BB
100
AcDbEntity
8
0
100
AcDbLine
62
4
6
CONTINUOUS
10
68.0742020000
20
145.4455670000
11
68.0742020000
21
142.5199980000
0
LINE
5
6BC
100
AcDbEntity
8
0
100
AcDbLine
62
4
6
CONTINUOUS
10
367.3391160000
20
101.2658270000
11
367.3391160000
21
98.8889370000
0
LINE
5
6BD
100
AcDbEntity
8
0
100
AcDbLine
62
4
6
CONTINUOUS
10
381.4391160000
20
90.9849900000
11
381.4391160000
21
88.4893940000
0
LINE
5
6BE
100
AcDbEntity
8
0
100
AcDbLine
62
4
6
CONTINUOUS
10
68.7042020000
20
22.9879730000
11
68.7042020000
21
20.1098030000
0
TEXT
5
6BF
100
AcDbEntity
8
05
100
AcDbText
62
4
6
CONTINUOUS
10
359.9938210000
20
16.0000000000
40
1.5000000000
1
Zeichn. Nr.
51
15.0000000000
72
5
11
371.1723924286
21
16.0000000000
100
AcDbText
0
TEXT
5
6C0
100
AcDbEntity
8
05
100
AcDbText
62
4
6
CONTINUOUS
10
359.9938210000
20
33.0000000000
40
1.5000000000
1
Ersetzt durch:         Blatt
51
15.0000000000
72
5
11
389.1366781429
21
33.0000000000
100
AcDbText
0
TEXT
5
6C1
100
AcDbEntity
8
05
100
AcDbText
62
4
6
CONTINUOUS
10
359.9938210000
20
48.0000000000
40
1.5000000000
1
Gezeichnet
51
15.0000000000
72
5
11
370.2081067143
21
48.0000000000
100
AcDbText
0
TEXT
5
6C2
100
AcDbEntity
8
05
100
AcDbText
62
4
6
CONTINUOUS
10
359.9938210000
20
37.0000000000
40
1.5000000000
1
Gesehen
51
15.0000000000
72
5
11
367.6009638571
21
37.0000000000
100
AcDbText
0
TEXT
5
6C3
100
AcDbEntity
8
05
100
AcDbText
62
4
6
CONTINUOUS
10
378.9938210000
20
52.0000000000
40
1.5000000000
1
Datum     Name
51
15.0000000000
72
5
11
395.3509638571
21
52.0000000000
100
AcDbText
0
TEXT
5
6C4
100
AcDbEntity
8
05
100
AcDbText
62
4
6
CONTINUOUS
10
318.9938210000
20
52.0000000000
40
1.5000000000
1
Werkstoff:      Massstab:
51
15.0000000000
72
5
11
345.5652495714
21
52.0000000000
100
AcDbText
0
TEXT
5
6C5
100
AcDbEntity
8
05
100
AcDbText
62
4
6
CONTINUOUS
10
277.9938210000
20
33.0000000000
40
1.5000000000
1
Benennung:
51
15.0000000000
72
5
11
288.2795352857
21
33.0000000000
100
AcDbText
0
TEXT
5
6C6
100
AcDbEntity
8
05
100
AcDbText
62
4
6
CONTINUOUS
10
277.9938210000
20
49.0000000000
40
1.5000000000
1
*)Lieferant darf ohne 
51
15.0000000000
72
5
11
300.1366781429
21
49.0000000000
100
AcDbText
0
TEXT
5
6C7
100
AcDbEntity
8
05
100
AcDbText
62
4
6
CONTINUOUS
10
277.9938210000
20
46.5000000000
40
1.5000000000
1
 Ruecksprache nicht 
51
15.0000000000
72
5
11
298.9223924286
21
46.5000000000
100
AcDbText
0
TEXT
5
6C8
100
AcDbEntity
8
05
100
AcDbText
62
4
6
CONTINUOUS
10
277.9938210000
20
44.0000000000
40
1.5000000000
1
 geaendert werden
51
15.0000000000
72
5
11
296.4223924286
21
44.0000000000
100
AcDbText
0
TEXT
5
6C9
100
AcDbEntity
8
05
100
AcDbText
62
4
6
CONTINUOUS
10
277.9938210000
20
40.0000000000
40
1.5000000000
1
Zeichnung urheberrechtlich
51
15.0000000000
72
5
11
304.3152495714
21
40.0000000000
100
AcDbText
0
TEXT
5
6CA
100
AcDbEntity
8
05
100
AcDbText
62
4
6
CONTINUOUS
10
277.9938210000
20
37.5000000000
40
1.5000000000
1
geschuetzt (DIN 34) (C)
51
15.0000000000
72
5
11
301.2795352857
21
37.5000000000
100
AcDbText
0
TEXT
5
6CB
100
AcDbEntity
8
05
100
AcDbText
62
4
6
CONTINUOUS
10
359.9938210000
20
42.0000000000
40
1.5000000000
1
Geprueft
51
15.0000000000
72
5
11
368.1366781429
21
42.0000000000
100
AcDbText
0
TEXT
5
6CC
100
AcDbEntity
8
05
100
AcDbText
62
4
6
CONTINUOUS
10
359.9938210000
20
25.0000000000
40
1.5000000000
1
Ersatz fuer:           von  Blatt
51
15.0000000000
72
5
11
395.0295352857
21
25.0000000000
100
AcDbText
0
TEXT
5
6CD
100
AcDbEntity
8
05
100
AcDbText
62
4
6
CONTINUOUS
10
212.9938210000
20
11.0000000000
40
1.5000000000
1
Ind.  Aenderung             Datum   
51
15.0000000000
72
5
11
253.6723924286
21
11.0000000000
100
AcDbText
0
TEXT
5
6CE
100
AcDbEntity
8
05
100
AcDbText
62
4
6
CONTINUOUS
10
253.6723924286
20
11.0000000000
40
1.5000000000
1
 Name
51
15.0000000000
72
5
11
259.5652495714
21
11.0000000000
100
AcDbText
0
TEXT
5
6CF
100
AcDbEntity
8
035
100
AcDbText
62
4
6
CONTINUOUS
10
332.4168950000
20
13.2646360000
40
2.4848480000
1
FL-9494 SCHAAN
51
15.0000000000
72
5
11
359.5135708095
21
13.2646360000
100
AcDbText
0
TEXT
5
6D0
100
AcDbEntity
8
05
100
AcDbText
62
4
6
CONTINUOUS
10
392.4759638571
20
47.0000000000
40
2.5000000000
1
Illenberger
72
5
11
410.5116781429
21
47.0000000000
100
AcDbText
0
TEXT
5
6D1
100
AcDbEntity
8
05
100
AcDbText
62
4
6
CONTINUOUS
10
378.7081067143
20
47.0000000000
40
2.5000000000
1
09.11.90
51
15.0000000000
72
5
11
392.2795352857
21
47.0000000000
100
AcDbText
0
TEXT
5
6D2
100
AcDbEntity
8
05
100
AcDbText
62
2
6
CONTINUOUS
10
300.9700114762
20
22.5000000000
40
5.0000000000
1
NC7MD-L-1
51
15.0000000000
72
5
11
335.0176305238
21
22.5000000000
100
AcDbText
0
TEXT
5
6D3
100
AcDbEntity
8
05
100
AcDbText
62
3
6
CONTINUOUS
10
373.1936020000
20
11.9765410000
40
3.5000000000
1
3102 St 10 21
51
15.0000000000
72
5
11
405.6936020000
21
11.9765410000
100
AcDbText
0
TEXT
5
6D4
100
AcDbEntity
8
05
100
AcDbText
62
2
6
CONTINUOUS
10
345.3206731429
20
44.6560560000
40
5.0000000000
1
3:1
51
15.0000000000
72
5
11
353.5349588571
21
44.6560560000
100
AcDbText
0
TEXT
5
6D5
100
AcDbEntity
8
05
100
AcDbText
62
4
6
CONTINUOUS
10
212.8075540000
20
17.0000000000
40
2.5000000000
1
A
51
15.0000000000
72
5
11
214.9504111429
21
17.0000000000
100
AcDbText
0
TEXT
5
6D6
100
AcDbEntity
8
05
100
AcDbText
62
4
6
CONTINUOUS
10
219.6450780000
20
17.0000000000
40
2.5000000000
1
Aktuelle Zeichnung
51
15.0000000000
72
5
11
250.4188875238
21
17.0000000000
100
AcDbText
0
TEXT
5
6D7
100
AcDbEntity
8
05
100
AcDbText
62
4
6
CONTINUOUS
10
252.6450780000
20
17.0000000000
40
2.5000000000
1
05.03.98
51
15.0000000000
72
5
11
266.9307922857
21
17.0000000000
100
AcDbText
0
TEXT
5
6D8
100
AcDbEntity
8
05
100
AcDbText
62
4
6
CONTINUOUS
10
265.5288310000
20
17.0000000000
40
2.5000000000
1
Alinjak
51
15.0000000000
72
5
11
276.8383548095
21
17.0000000000
100
AcDbText
0
TEXT
5
6D9
100
AcDbEntity
8
SCHRAFFIERT
100
AcDbText
62
4
6
CONTINUOUS
10
206.9640490000
20
141.1886810000
40
3.0000000000
1
3
72
5
11
209.1069061429
21
141.1886810000
100
AcDbText
0
TEXT
5
6DA
100
AcDbEntity
8
SCHRAFFIERT
100
AcDbText
62
4
6
CONTINUOUS
10
227.6640490000
20
142.3886810000
40
3.0000000000
1
4
72
5
11
230.0211918571
21
142.3886810000
100
AcDbText
0
TEXT
5
6DB
100
AcDbEntity
8
SCHRAFFIERT
100
AcDbText
62
4
6
CONTINUOUS
10
199.1733080000
20
152.7377450000
40
3.0000000000
1
2
72
5
11
201.5304508571
21
152.7377450000
100
AcDbText
0
TEXT
5
6DC
100
AcDbEntity
8
SCHRAFFIERT
100
AcDbText
62
4
6
CONTINUOUS
10
204.5534621429
20
165.8635940000
40
3.0000000000
1
1
72
5
11
206.2677478571
21
165.8635940000
100
AcDbText
0
TEXT
5
6DD
100
AcDbEntity
8
SCHRAFFIERT
100
AcDbText
62
4
6
CONTINUOUS
10
218.4515600000
20
159.4886810000
40
3.0000000000
1
7
72
5
11
220.8087028571
21
159.4886810000
100
AcDbText
0
TEXT
5
6DE
100
AcDbEntity
8
SCHRAFFIERT
100
AcDbText
62
4
6
CONTINUOUS
10
227.6854775714
20
167.8886810000
40
3.0000000000
1
6
72
5
11
230.0426204286
21
167.8886810000
100
AcDbText
0
TEXT
5
6DF
100
AcDbEntity
8
SCHRAFFIERT
100
AcDbText
62
4
6
CONTINUOUS
10
233.6640490000
20
155.8886810000
40
3.0000000000
1
5
72
5
11
235.8069061429
21
155.8886810000
100
AcDbText
0
TEXT
5
6E0
100
AcDbEntity
8
SCHRAFFIERT
100
AcDbText
62
4
6
CONTINUOUS
10
88.3542020000
20
62.8932490000
40
3.0000000000
1
4
72
5
11
90.7113448571
21
62.8932490000
100
AcDbText
0
TEXT
5
6E1
100
AcDbEntity
8
SCHRAFFIERT
100
AcDbText
62
4
6
CONTINUOUS
10
75.4542020000
20
70.0932490000
40
3.0000000000
1
5
72
5
11
77.5970591429
21
70.0932490000
100
AcDbText
0
TEXT
5
6E2
100
AcDbEntity
8
SCHRAFFIERT
100
AcDbText
62
4
6
CONTINUOUS
10
100.3542020000
20
64.9932490000
40
3.0000000000
1
3
72
5
11
102.4970591429
21
64.9932490000
100
AcDbText
0
TEXT
5
6E3
100
AcDbEntity
8
SCHRAFFIERT
100
AcDbText
62
4
6
CONTINUOUS
10
74.2542020000
20
81.7932490000
40
3.0000000000
1
6
72
5
11
76.6113448571
21
81.7932490000
100
AcDbText
0
TEXT
5
6E4
100
AcDbEntity
8
SCHRAFFIERT
100
AcDbText
62
4
6
CONTINUOUS
10
86.3373220000
20
83.0548020000
40
3.0000000000
1
7
72
5
11
88.6944648571
21
83.0548020000
100
AcDbText
0
TEXT
5
6E5
100
AcDbEntity
8
SCHRAFFIERT
100
AcDbText
62
4
6
CONTINUOUS
10
107.2756305714
20
75.7932490000
40
3.0000000000
1
2
72
5
11
109.6327734286
21
75.7932490000
100
AcDbText
0
TEXT
5
6E6
100
AcDbEntity
8
SCHRAFFIERT
100
AcDbText
62
4
6
CONTINUOUS
10
105.7970591429
20
87.7932490000
40
3.0000000000
1
1
72
5
11
107.5113448571
21
87.7932490000
100
AcDbText
0
TEXT
5
6E7
100
AcDbEntity
8
025
100
AcDbText
62
4
6
CONTINUOUS
10
100.1284590000
20
92.6934070000
40
2.6250000000
1
G
72
5
11
102.1909590000
21
92.6934070000
100
AcDbText
0
TEXT
5
6E8
100
AcDbEntity
8
035
100
AcDbText
62
3
6
CONTINUOUS
10
52.7584210000
20
260.7310870000
40
3.0000000000
1
Panel cut out (rear side)
72
5
11
102.9727067143
21
260.7310870000
100
AcDbText
0
TEXT
5
6E9
100
AcDbEntity
8
035
100
AcDbText
62
3
6
CONTINUOUS
10
52.7584210000
20
267.7310870000
40
3.5000000000
1
Frontplattenausschnitt (Rückseite)
72
5
11
131.4250876667
21
267.7310870000
100
AcDbText
0
TEXT
5
6EA
100
AcDbEntity
8
035
100
AcDbText
62
3
6
CONTINUOUS
10
187.5376530000
20
114.3386810000
40
4.5000000000
1
NEUTRIK
72
5
11
211.6447958571
21
114.3386810000
100
AcDbText
0
TEXT
5
6EB
100
AcDbEntity
8
0
100
AcDbText
62
3
6
CONTINUOUS
10
76.5959386242
20
182.5272063197
40
3.5000000000
1
%%c23.80 [0.937"]
50
40.6163774841
72
5
11
105.5676926513
21
207.3733712760
100
AcDbText
0
TEXT
5
6EC
100
AcDbEntity
8
0
100
AcDbText
62
3
6
CONTINUOUS
10
57.1513766667
20
146.3486420000
40
3.5000000000
1
%%c3.10 [0.122"]
72
5
11
91.3180433333
21
146.3486420000
100
AcDbText
0
TEXT
5
6ED
100
AcDbEntity
8
0
100
AcDbText
62
3
6
CONTINUOUS
10
344.2498060000
20
101.4792610000
40
3.5000000000
1
2.00 [0.079"]
72
5
11
375.4998060000
21
101.4792610000
100
AcDbText
0
TEXT
5
6EE
100
AcDbEntity
8
0
100
AcDbText
62
3
6
CONTINUOUS
10
371.4407250000
20
91.6774260000
40
3.5000000000
1
2.70 [0.106"]
72
5
11
401.9407250000
21
91.6774260000
100
AcDbText
0
TEXT
5
6EF
100
AcDbEntity
8
0
100
AcDbText
62
3
6
CONTINUOUS
10
333.8141160000
20
222.5193440000
40
3.5000000000
1
21.00 [0.827"]
72
5
11
367.0641160000
21
222.5193440000
100
AcDbText
0
TEXT
5
6F0
100
AcDbEntity
8
0
100
AcDbText
62
3
6
CONTINUOUS
10
201.4265600000
20
223.2639380000
40
3.5000000000
1
26.00 [1.024"]
72
5
11
234.6765600000
21
223.2639380000
100
AcDbText
0
TEXT
5
6F1
100
AcDbEntity
8
0
100
AcDbText
62
3
6
CONTINUOUS
10
273.2273200000
20
140.9636810000
40
3.5000000000
1
31.00 [1.220"]
50
90.0000000000
72
5
11
273.2273200000
21
173.2136810000
100
AcDbText
0
TEXT
5
6F2
100
AcDbEntity
8
0
100
AcDbText
62
3
6
CONTINUOUS
10
138.3358970000
20
176.6823300000
40
3.5000000000
1
24.00 [0.945"]
50
90.0000000000
72
5
11
138.3358970000
21
210.4323300000
100
AcDbText
0
TEXT
5
6F3
100
AcDbEntity
8
0
100
AcDbText
62
3
6
CONTINUOUS
10
74.6654960000
20
243.5175100000
40
3.5000000000
1
19.00 [0.748"]
72
5
11
107.9154960000
21
243.5175100000
100
AcDbText
0
TEXT
5
6F4
100
AcDbEntity
8
0
100
AcDbText
62
3
6
CONTINUOUS
10
56.6899156667
20
23.5474940000
40
3.5000000000
1
%%c3.50 [0.138"]
72
5
11
91.1065823333
21
23.5474940000
100
AcDbText
0
ENDSEC
0
SECTION
2
OBJECTS
0
DICTIONARY
5
6F5
100
AcDbDictionary
3
ACAD_GROUP
350
6F6
3
ACAD_MLINESTYLE
350
6F7
0
DICTIONARY
5
6F6
102
{ACAD_REACTORS
330
6F5
102
}
100
AcDbDictionary
0
DICTIONARY
5
6F7
102
{ACAD_REACTORS
330
6F5
102
}
100
AcDbDictionary
3
STANDARD
350
6F8
0
MLINESTYLE
5
6F8
102
{ACAD_REACTORS
330
6F7
102
}
100
AcDbMlineStyle
2
STANDARD
70
0
3

62
256
51
90.0
52
90.0
71
2
49
0.5
62
256
6
BYLAYER
49
-0.5
62
256
6
BYLAYER
0
ENDSEC
0
EOF
