  0
SECTION
  2
HEADER
  9
$ACADVER
  1
AC1009
  9
$INSBASE
 10
0.0
 20
0.0
 30
0.0
  9
$EXTMIN
 10
-0.006404
 20
-0.004529
 30
0.0
  9
$EXTMAX
 10
420.00641
 20
297.004533
 30
0.0
  9
$LIMMIN
 10
0.0
 20
0.0
  9
$LIMMAX
 10
410.0
 20
287.0
  9
$ORTHOMODE
 70
     1
  9
$REGENMODE
 70
     1
  9
$FILLMODE
 70
     1
  9
$QTEXTMODE
 70
     0
  9
$MIRRTEXT
 70
     1
  9
$DRAGMODE
 70
     2
  9
$LTSCALE
 40
5.0
  9
$OSMODE
 70
    32
  9
$ATTMODE
 70
     1
  9
$TEXTSIZE
 40
3.5
  9
$TRACEWID
 40
26.0
  9
$TEXTSTYLE
  7
ARIAL
  9
$CLAYER
  8
BEM1
  9
$CELTYPE
  6
BYLAYER
  9
$CECOLOR
 62
   256
  9
$DIMSCALE
 40
1.0
  9
$DIMASZ
 40
3.5
  9
$DIMEXO
 40
0.8
  9
$DIMDLI
 40
8.0
  9
$DIMRND
 40
0.0
  9
$DIMDLE
 40
7.0
  9
$DIMEXE
 40
0.8
  9
$DIMTP
 40
0.0
  9
$DIMTM
 40
0.0
  9
$DIMTXT
 40
3.5
  9
$DIMCEN
 40
1.5
  9
$DIMTSZ
 40
0.0
  9
$DIMTOL
 70
     0
  9
$DIMLIM
 70
     0
  9
$DIMTIH
 70
     0
  9
$DIMTOH
 70
     0
  9
$DIMSE1
 70
     0
  9
$DIMSE2
 70
     0
  9
$DIMTAD
 70
     1
  9
$DIMZIN
 70
     0
  9
$DIMBLK
  1

  9
$DIMASO
 70
     0
  9
$DIMSHO
 70
     0
  9
$DIMPOST
  1

  9
$DIMAPOST
  1
"
  9
$DIMALT
 70
     1
  9
$DIMALTD
 70
     3
  9
$DIMALTF
 40
0.03937
  9
$DIMLFAC
 40
0.333333
  9
$DIMTOFL
 70
     0
  9
$DIMTVP
 40
0.0
  9
$DIMTIX
 70
     0
  9
$DIMSOXD
 70
     0
  9
$DIMSAH
 70
     0
  9
$DIMBLK1
  1

  9
$DIMBLK2
  1

  9
$DIMSTYLE
  2
NEUTRIK
  9
$DIMCLRD
 70
   256
  9
$DIMCLRE
 70
   256
  9
$DIMCLRT
 70
     3
  9
$DIMTFAC
 40
1.0
  9
$DIMGAP
 40
1.0
  9
$LUNITS
 70
     2
  9
$LUPREC
 70
     2
  9
$SKETCHINC
 40
1.0
  9
$FILLETRAD
 40
0.0
  9
$AUNITS
 70
     0
  9
$AUPREC
 70
     0
  9
$MENU
  1
acad
  9
$ELEVATION
 40
0.0
  9
$PELEVATION
 40
0.0
  9
$THICKNESS
 40
0.0
  9
$LIMCHECK
 70
     0
  9
$BLIPMODE
 70
     0
  9
$CHAMFERA
 40
0.0
  9
$CHAMFERB
 40
0.0
  9
$SKPOLY
 70
     0
  9
$TDCREATE
 40
2450540.466801
  9
$TDUPDATE
 40
2452934.353113
  9
$TDINDWG
 40
0.024603
  9
$TDUSRTIMER
 40
0.024603
  9
$USRTIMER
 70
     1
  9
$ANGBASE
 50
0.0
  9
$ANGDIR
 70
     0
  9
$PDMODE
 70
     0
  9
$PDSIZE
 40
0.0
  9
$PLINEWID
 40
0.0
  9
$COORDS
 70
     2
  9
$SPLFRAME
 70
     0
  9
$SPLINETYPE
 70
     6
  9
$SPLINESEGS
 70
     8
  9
$ATTDIA
 70
     0
  9
$ATTREQ
 70
     1
  9
$HANDLING
 70
     1
  9
$HANDSEED
  5
341
  9
$SURFTAB1
 70
     6
  9
$SURFTAB2
 70
     6
  9
$SURFTYPE
 70
     6
  9
$SURFU
 70
     6
  9
$SURFV
 70
     6
  9
$UCSNAME
  2

  9
$UCSORG
 10
0.0
 20
0.0
 30
0.0
  9
$UCSXDIR
 10
1.0
 20
0.0
 30
0.0
  9
$UCSYDIR
 10
0.0
 20
1.0
 30
0.0
  9
$PUCSNAME
  2

  9
$PUCSORG
 10
0.0
 20
0.0
 30
0.0
  9
$PUCSXDIR
 10
1.0
 20
0.0
 30
0.0
  9
$PUCSYDIR
 10
0.0
 20
1.0
 30
0.0
  9
$USERI1
 70
     0
  9
$USERI2
 70
     0
  9
$USERI3
 70
     0
  9
$USERI4
 70
     0
  9
$USERI5
 70
     0
  9
$USERR1
 40
0.0
  9
$USERR2
 40
0.0
  9
$USERR3
 40
0.0
  9
$USERR4
 40
0.0
  9
$USERR5
 40
0.0
  9
$WORLDVIEW
 70
     1
  9
$SHADEDGE
 70
     3
  9
$SHADEDIF
 70
    70
  9
$TILEMODE
 70
     1
  9
$MAXACTVP
 70
    16
  9
$PLIMCHECK
 70
     0
  9
$PEXTMIN
 10
1.000000E+020
 20
1.000000E+020
 30
1.000000E+020
  9
$PEXTMAX
 10
-1.000000E+020
 20
-1.000000E+020
 30
-1.000000E+020
  9
$PLIMMIN
 10
0.0
 20
0.0
  9
$PLIMMAX
 10
12.0
 20
9.0
  9
$UNITMODE
 70
     0
  9
$VISRETAIN
 70
     0
  9
$PLINEGEN
 70
     0
  9
$PSLTSCALE
 70
     0
  0
ENDSEC
  0
SECTION
  2
TABLES
  0
TABLE
  2
VPORT
 70
     2
  0
VPORT
  2
*ACTIVE
 70
     0
 10
0.0
 20
0.0
 11
1.0
 21
1.0
 12
210.000003
 22
148.500002
 13
0.0
 23
0.0
 14
0.001
 24
0.001
 15
1.0
 25
1.0
 16
0.0
 26
0.0
 36
1.0
 17
0.0
 27
0.0
 37
0.0
 40
299.233848
 41
1.525
 42
50.0
 43
0.0
 44
0.0
 50
0.0
 51
0.0
 71
     0
 72
   500
 73
     1
 74
     0
 75
     0
 76
     0
 77
     0
 78
     0
  0
ENDTAB
  0
TABLE
  2
LTYPE
 70
     2
  0
LTYPE
  2
AUSGEZOGEN
 70
     0
  3
Ausgezogene Linie
 72
    65
 73
     0
 40
0.0
  0
LTYPE
  2
CENTER
 70
     0
  3
____ _ ____ _ ____ _ ____ _ ____ _ ____ _ ____
 72
    65
 73
     4
 40
2.0
 49
1.25
 49
-0.25
 49
0.25
 49
-0.25
  0
ENDTAB
  0
TABLE
  2
LAYER
 70
     7
  0
LAYER
  2
0
 70
     0
 62
     8
  6
AUSGEZOGEN
  0
LAYER
  2
05
 70
     0
 62
     2
  6
AUSGEZOGEN
  0
LAYER
  2
BEM1
 70
     0
 62
     4
  6
AUSGEZOGEN
  0
LAYER
  2
MITTE
 70
     0
 62
     4
  6
CENTER
  0
LAYER
  2
035
 70
     0
 62
     3
  6
AUSGEZOGEN
  0
LAYER
  2
025
 70
     0
 62
     4
  6
AUSGEZOGEN
  0
LAYER
  2
RAHMEN
 70
     0
 62
     2
  6
AUSGEZOGEN
  0
ENDTAB
  0
TABLE
  2
STYLE
 70
     5
  0
STYLE
  2
STANDARD
 70
     0
 40
0.0
 41
0.7
 50
15.0
 71
     0
 42
3.5
  3
txt
  4

  0
STYLE
  2
HELV
 70
     0
 40
0.0
 41
1.0
 50
0.0
 71
     0
 42
2.0
  3
helv
  4

  0
STYLE
  2
UNIV
 70
     0
 40
0.0
 41
1.0
 50
0.0
 71
     0
 42
2.5
  3
univ
  4

  0
STYLE
  2
SCRIPTS
 70
     0
 40
0.0
 41
1.0
 50
0.0
 71
     0
 42
5.0
  3
scripts
  4

  0
STYLE
  2
ARIAL
 70
     0
 40
0.0
 41
1.0
 50
0.0
 71
     0
 42
3.5
  3
txt
  4

  0
ENDTAB
  0
TABLE
  2
VIEW
 70
     0
  0
ENDTAB
  0
TABLE
  2
UCS
 70
     0
  0
ENDTAB
  0
TABLE
  2
APPID
 70
     1
  0
APPID
  2
ACAD
 70
     0
  0
ENDTAB
  0
TABLE
  2
DIMSTYLE
 70
     1
  0
DIMSTYLE
  2
NEUTRIK
 70
     0
  3

  4
"
  5

  6

  7

 40
1.0
 41
3.5
 42
0.8
 43
8.0
 44
0.8
 45
0.0
 46
7.0
 47
0.0
 48
0.0
140
3.5
141
1.5
142
0.0
143
0.03937
144
0.333333
145
0.0
146
1.0
147
1.0
 71
     0
 72
     0
 73
     0
 74
     0
 75
     0
 76
     0
 77
     1
 78
     0
170
     1
171
     3
172
     0
173
     0
174
     0
175
     0
176
   256
177
   256
178
     3
  0
ENDTAB
  0
ENDSEC
  0
SECTION
  2
BLOCKS
  0
BLOCK
  8
0
  2
$MODEL_SPACE
 70
     0
 10
0.0
 20
0.0
 30
0.0
  3
$MODEL_SPACE
  1

  0
ENDBLK
  5
6
  8
0
  0
BLOCK
 67
     1
  8
0
  2
$PAPER_SPACE
 70
     0
 10
0.0
 20
0.0
 30
0.0
  3
$PAPER_SPACE
  1

  0
ENDBLK
  5
9
 67
     1
  8
0
  0
BLOCK
  8
0
  2
ZKOPF
 70
     2
 10
0.0
 20
0.0
 30
0.0
  3
ZKOPF
  1

  0
ATTDEF
  5
4E
  8
0
 62
     4
 10
-13.321429
 20
37.0
 30
0.0
 40
2.5
  1
Dobler
  7
SCRIPTS
 72
     1
 11
-8.5
 21
37.0
 31
0.0
  3
Name des Konstrukteurs ?
  2
NAME
 70
     0
  0
POLYLINE
  5
4F
  8
0
 62
     2
 66
     1
 10
0.0
 20
0.0
 30
0.0
  0
VERTEX
  5
24B
  8
0
 62
     2
 10
-51.0
 20
0.0
 30
0.0
  0
VERTEX
  5
24C
  8
0
 62
     2
 10
-51.0
 20
46.0
 30
0.0
  0
SEQEND
  5
24D
  8
0
 62
     2
  0
POLYLINE
  5
50
  8
0
 62
     2
 66
     1
 10
0.0
 20
0.0
 30
0.0
  0
VERTEX
  5
24E
  8
0
 62
     2
 10
-17.0
 20
9.0
 30
0.0
  0
VERTEX
  5
24F
  8
0
 62
     2
 10
-17.0
 20
46.0
 30
0.0
  0
SEQEND
  5
250
  8
0
 62
     2
  0
POLYLINE
  5
51
  8
0
 62
     2
 66
     1
 10
0.0
 20
0.0
 30
0.0
  0
VERTEX
  5
251
  8
0
 62
     2
 10
-32.0
 20
26.0
 30
0.0
  0
VERTEX
  5
252
  8
0
 62
     2
 10
-32.0
 20
46.0
 30
0.0
  0
SEQEND
  5
253
  8
0
 62
     2
  0
POLYLINE
  5
52
  8
0
 62
     2
 66
     1
 10
0.0
 20
0.0
 30
0.0
  0
VERTEX
  5
254
  8
0
 62
     2
 10
-133.0
 20
41.0
 30
0.0
  0
VERTEX
  5
255
  8
0
 62
     2
 10
-92.0
 20
41.0
 30
0.0
  0
SEQEND
  5
256
  8
0
 62
     2
  0
POLYLINE
  5
53
  8
0
 62
     2
 66
     1
 10
0.0
 20
0.0
 30
0.0
  0
VERTEX
  5
257
  8
0
 62
     2
 10
-145.0
 20
0.0
 30
0.0
  0
VERTEX
  5
258
  8
0
 62
     2
 10
-145.0
 20
46.0
 30
0.0
  0
SEQEND
  5
259
  8
0
 62
     2
  0
POLYLINE
  5
54
  8
0
 62
     2
 66
     1
 10
0.0
 20
0.0
 30
0.0
  0
VERTEX
  5
25A
  8
0
 62
     2
 10
-158.0
 20
0.0
 30
0.0
  0
VERTEX
  5
25B
  8
0
 62
     2
 10
-158.0
 20
46.0
 30
0.0
  0
SEQEND
  5
25C
  8
0
 62
     2
  0
LINE
  5
55
  8
0
 62
     2
 10
-200.0
 20
6.0
 30
0.0
 11
-133.0
 21
6.0
 31
0.0
  0
POLYLINE
  5
56
  8
0
 62
     4
 66
     1
 10
0.0
 20
0.0
 30
0.0
  0
VERTEX
  5
25D
  8
0
 62
     4
 10
-200.0
 20
11.0
 30
0.0
  0
VERTEX
  5
25E
  8
0
 62
     4
 10
-133.0
 20
11.0
 30
0.0
  0
SEQEND
  5
25F
  8
0
 62
     4
  0
POLYLINE
  5
57
  8
0
 62
     4
 66
     1
 10
0.0
 20
0.0
 30
0.0
  0
VERTEX
  5
260
  8
0
 62
     4
 10
-200.0
 20
16.0
 30
0.0
  0
VERTEX
  5
261
  8
0
 62
     4
 10
-133.0
 20
16.0
 30
0.0
  0
SEQEND
  5
262
  8
0
 62
     4
  0
POLYLINE
  5
58
  8
0
 62
     4
 66
     1
 10
0.0
 20
0.0
 30
0.0
  0
VERTEX
  5
263
  8
0
 62
     4
 10
-200.0
 20
21.0
 30
0.0
  0
VERTEX
  5
264
  8
0
 62
     4
 10
-133.0
 20
21.0
 30
0.0
  0
SEQEND
  5
265
  8
0
 62
     4
  0
POLYLINE
  5
59
  8
0
 62
     4
 66
     1
 10
0.0
 20
0.0
 30
0.0
  0
VERTEX
  5
266
  8
0
 62
     4
 10
-200.0
 20
26.0
 30
0.0
  0
VERTEX
  5
267
  8
0
 62
     4
 10
-133.0
 20
26.0
 30
0.0
  0
SEQEND
  5
268
  8
0
 62
     4
  0
POLYLINE
  5
5A
  8
0
 62
     4
 66
     1
 10
0.0
 20
0.0
 30
0.0
  0
VERTEX
  5
269
  8
0
 62
     4
 10
-200.0
 20
31.0
 30
0.0
  0
VERTEX
  5
26A
  8
0
 62
     4
 10
-133.0
 20
31.0
 30
0.0
  0
SEQEND
  5
26B
  8
0
 62
     4
  0
POLYLINE
  5
5B
  8
0
 62
     4
 66
     1
 10
0.0
 20
0.0
 30
0.0
  0
VERTEX
  5
26C
  8
0
 62
     4
 10
-200.0
 20
36.0
 30
0.0
  0
VERTEX
  5
26D
  8
0
 62
     4
 10
-133.0
 20
36.0
 30
0.0
  0
SEQEND
  5
26E
  8
0
 62
     4
  0
POLYLINE
  5
5C
  8
0
 62
     4
 66
     1
 10
0.0
 20
0.0
 30
0.0
  0
VERTEX
  5
26F
  8
0
 62
     4
 10
-200.0
 20
41.0
 30
0.0
  0
VERTEX
  5
270
  8
0
 62
     4
 10
-133.0
 20
41.0
 30
0.0
  0
SEQEND
  5
271
  8
0
 62
     4
  0
TEXT
  5
5D
  8
0
 62
     4
 10
-50.0
 20
6.0
 30
0.0
 40
1.5
  1
Zeichn. Nr.
 51
15.0
  0
TEXT
  5
5E
  8
0
 62
     4
 10
-50.0
 20
23.0
 30
0.0
 40
1.5
  1
Ersetzt durch:         Blatt
 51
15.0
  0
TEXT
  5
5F
  8
0
 62
     4
 10
-50.0
 20
38.0
 30
0.0
 40
1.5
  1
Gezeichnet
 51
15.0
  0
TEXT
  5
60
  8
0
 62
     4
 10
-50.0
 20
27.0
 30
0.0
 40
1.5
  1
Gesehen
 51
15.0
  0
TEXT
  5
61
  8
0
 62
     4
 10
-31.0
 20
42.0
 30
0.0
 40
1.5
  1
Datum     Name
 51
15.0
  0
TEXT
  5
62
  8
0
 62
     4
 10
-91.0
 20
42.0
 30
0.0
 40
1.5
  1
Werkstoff:      Massstab:
 51
15.0
  0
TEXT
  5
63
  8
0
 62
     4
 10
-132.0
 20
23.0
 30
0.0
 40
1.5
  1
Benennung:
 51
15.0
  0
LINE
  5
64
  8
0
 62
     2
 10
-133.0
 20
33.0
 30
0.0
 11
-92.0
 21
33.0
 31
0.0
  0
TEXT
  5
65
  8
0
 62
     4
 10
-132.0
 20
39.0
 30
0.0
 40
1.5
  1
*)Lieferant darf ohne 
 51
15.0
  0
TEXT
  5
66
  8
0
 62
     4
 10
-132.0
 20
36.5
 30
0.0
 40
1.5
  1
 Ruecksprache nicht 
 51
15.0
  0
TEXT
  5
67
  8
0
 62
     4
 10
-132.0
 20
34.0
 30
0.0
 40
1.5
  1
 geaendert werden
 51
15.0
  0
TEXT
  5
68
  8
0
 62
     4
 10
-132.0
 20
30.0
 30
0.0
 40
1.5
  1
Zeichnung urheberrechtlich
 51
15.0
  0
TEXT
  5
69
  8
0
 62
     4
 10
-132.0
 20
27.5
 30
0.0
 40
1.5
  1
geschuetzt (DIN 34) (C)
 51
15.0
  0
TEXT
  5
6A
  8
0
 62
     4
 10
-50.0
 20
32.0
 30
0.0
 40
1.5
  1
Geprueft
 51
15.0
  0
TEXT
  5
6B
  8
0
 62
     4
 10
-50.0
 20
15.0
 30
0.0
 40
1.5
  1
Ersatz fuer:           von  Blatt
 51
15.0
  0
TEXT
  5
6C
  8
0
 62
     4
 10
-197.0
 20
1.0
 30
0.0
 40
1.5
  1
Ind.  Aenderung             Datum    Name
 51
15.0
  0
TEXT
  5
6D
  8
0
 62
     4
 10
-128.0
 20
3.0
 30
0.0
 40
3.005964
  1
NEUTRIK AG, FL-9494 SCHAAN
  7
UNIV
 72
     3
 11
-56.0
 21
3.0
 31
0.0
  0
ATTDEF
  5
6F
  8
0
 62
     4
 10
-28.875
 20
37.0
 30
0.0
 40
2.5
  1
01.10.91
 41
0.7
 51
15.0
 72
     1
 11
-24.5
 21
37.0
 31
0.0
  3
Datum der Zeichnung ?
  2
DATE
 70
     0
  0
ATTDEF
  5
70
  8
0
 62
     4
 10
-80.5
 20
36.0
 30
0.0
 40
2.5
  1

 41
0.7
 51
15.0
 72
     1
 11
-80.5
 21
36.0
 31
0.0
  3
Aus welchem Werkstoff ?
  2
WERKSTOFF
 70
     0
  0
ATTDEF
  5
71
  8
0
 62
     2
 10
-92.0
 20
12.5
 30
0.0
 40
5.0
  1

 41
0.7
 51
15.0
 72
     1
 11
-92.0
 21
12.5
 31
0.0
  3
Zeichnungsname ?
  2
BENENNUNG
 70
     0
  0
ATTDEF
  5
72
  8
0
 62
     3
 10
-93.225
 20
21.0
 30
0.0
 40
3.5
  1
()
 41
0.7
 51
15.0
 72
     1
 11
-92.0
 21
21.0
 31
0.0
  3
Zu welchem Produkt ?
  2
TEIL
 70
     0
  0
ATTDEF
  5
73
  8
0
 62
     3
 10
-25.5
 20
2.0
 30
0.0
 40
3.5
  1

 41
0.7
 51
15.0
 72
     1
 11
-25.5
 21
2.0
 31
0.0
  3
Zeichnungsnummer ?
  2
NUMMER
 70
     0
  0
ATTDEF
  5
74
  8
0
 62
     2
 10
-63.860366
 20
34.930682
 30
0.0
 40
5.0
  1
5:1
 41
0.7
 51
15.0
 72
     1
 11
-60.943699
 21
34.930682
 31
0.0
  3
Hauptmassstab:
  2
MASS
 70
     0
  0
ATTDEF
  5
75
  8
0
 62
     3
 10
-60.0
 20
29.0
 30
0.0
 40
3.5
  1

 41
0.7
 51
15.0
 72
     1
 11
-60.0
 21
29.0
 31
0.0
  3
Nebenmassstab:
  2
MASS2
 70
     0
  0
ATTDEF
  5
76
  8
0
 62
     4
 10
-81.0
 20
29.0
 30
0.0
 40
2.5
  1

 41
0.7
 51
15.0
 72
     1
 11
-81.0
 21
29.0
 31
0.0
  3
Werkstoffzusatz:
  2
TEIL
 70
     0
  0
ATTDEF
  5
77
  8
0
 62
     3
 10
-99.549591
 20
59.004319
 30
0.0
 40
3.5
  1
Freimasstoleranzen %%p0.1
 41
0.7
 51
15.0
  3
Freimasstoleranzen:
  2
TOL
 70
     0
  0
ATTDEF
  5
78
  8
0
 62
     3
 10
-99.549591
 20
54.004319
 30
0.0
 40
3.5
  1
nicht bemasste Radien R=0.2
 41
0.7
 51
15.0
  3
Nicht bemasste Radien:
  2
RADIEN
 70
     0
  0
ATTDEF
  5
79
  8
0
 62
     3
 10
-99.549591
 20
49.004319
 30
0.0
 40
3.5
  1
nicht bemasste Facetten 0.5 x 45%%D
 41
0.7
 51
15.0
  3
nicht bemasste Facetten:
  2
FACETTE
 70
     0
  0
POLYLINE
  5
7A
  8
0
 62
     2
 66
     1
 10
0.0
 20
0.0
 30
0.0
  0
VERTEX
  5
272
  8
0
 62
     2
 10
-191.0
 20
0.0
 30
0.0
  0
VERTEX
  5
273
  8
0
 62
     2
 10
-191.0
 20
46.0
 30
0.0
  0
SEQEND
  5
274
  8
0
 62
     2
  0
POLYLINE
  5
7B
  8
0
 62
     2
 66
     1
 10
0.0
 20
0.0
 30
0.0
  0
VERTEX
  5
275
  8
0
 62
     2
 10
-133.0
 20
0.0
 30
0.0
  0
VERTEX
  5
276
  8
0
 62
     2
 10
-133.0
 20
46.0
 30
0.0
  0
SEQEND
  5
277
  8
0
 62
     2
  0
POLYLINE
  5
7C
  8
0
 62
     2
 66
     1
 10
0.0
 20
0.0
 30
0.0
  0
VERTEX
  5
278
  8
0
 62
     2
 10
-92.0
 20
26.0
 30
0.0
  0
VERTEX
  5
279
  8
0
 62
     2
 10
-92.0
 20
46.0
 30
0.0
  0
SEQEND
  5
27A
  8
0
 62
     2
  0
POLYLINE
  5
7D
  8
0
 62
     2
 66
     1
 10
0.0
 20
0.0
 30
0.0
  0
VERTEX
  5
27B
  8
0
 62
     2
 10
-69.0
 20
26.0
 30
0.0
  0
VERTEX
  5
27C
  8
0
 62
     2
 10
-69.0
 20
46.0
 30
0.0
  0
SEQEND
  5
27D
  8
0
 62
     2
  0
ATTDEF
  5
7E
  8
0
 62
     4
 10
-197.186267
 20
7.0
 30
0.0
 40
2.5
  1

 41
0.7
 51
15.0
  3
Index1:
  2
INDEX1
 70
     0
  0
ATTDEF
  5
7F
  8
0
 62
     4
 10
-190.348743
 20
7.0
 30
0.0
 40
2.5
  1

 41
0.7
 51
15.0
  3
Aenderung1:
  2
A1
 70
     0
  0
ATTDEF
  5
80
  8
0
 62
     4
 10
-157.348743
 20
7.0
 30
0.0
 40
2.5
  1

 41
0.7
 51
15.0
  3
Datum1:
  2
DATUM1
 70
     0
  0
ATTDEF
  5
81
  8
0
 62
     4
 10
-144.46499
 20
7.0
 30
0.0
 40
2.5
  1

 41
0.7
 51
15.0
  3
Name1:
  2
NAME1
 70
     0
  0
ATTDEF
  5
82
  8
0
 62
     4
 10
-197.186267
 20
12.0
 30
0.0
 40
2.5
  1

 41
0.7
 51
15.0
  3
Index2:
  2
INDEX2
 70
     0
  0
ATTDEF
  5
83
  8
0
 62
     4
 10
-190.348743
 20
12.0
 30
0.0
 40
2.5
  1

 41
0.7
 51
15.0
  3
Aenderung2:
  2
A2
 70
     0
  0
ATTDEF
  5
84
  8
0
 62
     4
 10
-157.348743
 20
12.0
 30
0.0
 40
2.5
  1

 41
0.7
 51
15.0
  3
Datum2:
  2
DATUM2
 70
     0
  0
ATTDEF
  5
85
  8
0
 62
     4
 10
-144.46499
 20
12.0
 30
0.0
 40
2.5
  1

 41
0.7
 51
15.0
  3
Name2
  2
NAME2
 70
     0
  0
ATTDEF
  5
86
  8
0
 62
     4
 10
-197.186267
 20
17.0
 30
0.0
 40
2.5
  1

 41
0.7
 51
15.0
  3
Index3:
  2
INDEX3
 70
     0
  0
ATTDEF
  5
87
  8
0
 62
     4
 10
-190.348743
 20
17.0
 30
0.0
 40
2.5
  1

 41
0.7
 51
15.0
  3
Aenderung3
  2
A3
 70
     0
  0
ATTDEF
  5
88
  8
0
 62
     4
 10
-157.348743
 20
17.0
 30
0.0
 40
2.5
  1

 41
0.7
 51
15.0
  3
Datum3:
  2
DATUM3
 70
     0
  0
ATTDEF
  5
89
  8
0
 62
     4
 10
-144.46499
 20
17.0
 30
0.0
 40
2.5
  1

 41
0.7
 51
15.0
  3
Name3:
  2
NAME3
 70
     0
  0
ATTDEF
  5
8A
  8
0
 62
     4
 10
-197.186267
 20
22.0
 30
0.0
 40
2.5
  1

 41
0.7
 51
15.0
  3
Index4:
  2
INDEX4
 70
     0
  0
ATTDEF
  5
8B
  8
0
 62
     4
 10
-190.348743
 20
22.0
 30
0.0
 40
2.5
  1

 41
0.7
 51
15.0
  3
Aenderung4:
  2
A4
 70
     0
  0
ATTDEF
  5
8C
  8
0
 62
     4
 10
-157.348743
 20
22.0
 30
0.0
 40
2.5
  1

 41
0.7
 51
15.0
  3
Datum4:
  2
DATUM4
 70
     0
  0
ATTDEF
  5
8D
  8
0
 62
     4
 10
-144.46499
 20
22.0
 30
0.0
 40
2.5
  1

 41
0.7
 51
15.0
  3
Name4:
  2
NAME4
 70
     0
  0
ATTDEF
  5
8E
  8
0
 62
     4
 10
-197.186267
 20
27.0
 30
0.0
 40
2.5
  1

 41
0.7
 51
15.0
  3
Index5:
  2
INDEX5
 70
     0
  0
ATTDEF
  5
8F
  8
0
 62
     4
 10
-190.348743
 20
27.0
 30
0.0
 40
2.5
  1

 41
0.7
 51
15.0
  3
Aenderung5:
  2
A5
 70
     0
  0
ATTDEF
  5
90
  8
0
 62
     4
 10
-157.348743
 20
27.0
 30
0.0
 40
2.5
  1

 41
0.7
 51
15.0
  3
Datum5:
  2
DATUM5
 70
     0
  0
ATTDEF
  5
91
  8
0
 62
     4
 10
-144.46499
 20
27.0
 30
0.0
 40
2.5
  1

 41
0.7
 51
15.0
  3
Name5
  2
NAME5
 70
     0
  0
ATTDEF
  5
92
  8
0
 62
     4
 10
-197.186267
 20
32.0
 30
0.0
 40
2.5
  1

 41
0.7
 51
15.0
  3
Index6:
  2
INDEX6
 70
     0
  0
ATTDEF
  5
93
  8
0
 62
     4
 10
-190.348743
 20
32.0
 30
0.0
 40
2.5
  1

 41
0.7
 51
15.0
  3
Aenderung6:
  2
A6
 70
     0
  0
ATTDEF
  5
94
  8
0
 62
     4
 10
-157.348743
 20
32.0
 30
0.0
 40
2.5
  1

 41
0.7
 51
15.0
  3
Datum6:
  2
DATUM6
 70
     0
  0
ATTDEF
  5
95
  8
0
 62
     4
 10
-144.46499
 20
32.0
 30
0.0
 40
2.5
  1

 41
0.7
 51
15.0
  3
Name6:
  2
NAME6
 70
     0
  0
ATTDEF
  5
96
  8
0
 62
     4
 10
-197.186267
 20
37.0
 30
0.0
 40
2.5
  1

 41
0.7
 51
15.0
  3
Index7:
  2
INDEX7
 70
     0
  0
ATTDEF
  5
97
  8
0
 62
     4
 10
-190.348743
 20
37.0
 30
0.0
 40
2.5
  1

 41
0.7
 51
15.0
  3
Aenderung7:
  2
A7
 70
     0
  0
ATTDEF
  5
98
  8
0
 62
     4
 10
-157.348743
 20
37.0
 30
0.0
 40
2.5
  1

 41
0.7
 51
15.0
  3
Datum7:
  2
DATUM7
 70
     0
  0
ATTDEF
  5
99
  8
0
 62
     4
 10
-144.46499
 20
37.0
 30
0.0
 40
2.5
  1

 41
0.7
 51
15.0
  3
Name7:
  2
NAME7
 70
     0
  0
ATTDEF
  5
9A
  8
0
 62
     4
 10
-197.186267
 20
42.0
 30
0.0
 40
2.5
  1

 41
0.7
 51
15.0
  3
Index8:
  2
INDEX8
 70
     0
  0
ATTDEF
  5
9B
  8
0
 62
     4
 10
-190.348743
 20
42.0
 30
0.0
 40
2.5
  1

 41
0.7
 51
15.0
  3
Aenderung8:
  2
A8
 70
     0
  0
ATTDEF
  5
9C
  8
0
 62
     4
 10
-157.348743
 20
42.0
 30
0.0
 40
2.5
  1

 41
0.7
 51
15.0
  3
Datum8:
  2
DATUM8
 70
     0
  0
ATTDEF
  5
9D
  8
0
 62
     4
 10
-144.46499
 20
42.0
 30
0.0
 40
2.5
  1

 41
0.7
 51
15.0
  3
Name8:
  2
NAME8
 70
     0
  0
POLYLINE
  5
9E
  8
0
 62
     2
 66
     1
 10
0.0
 20
0.0
 30
0.0
  0
VERTEX
  5
27E
  8
0
 62
     2
 10
0.0
 20
0.0
 30
0.0
  0
VERTEX
  5
27F
  8
0
 62
     2
 10
0.0
 20
46.0
 30
0.0
  0
SEQEND
  5
280
  8
0
 62
     2
  0
POLYLINE
  5
9F
  8
0
 62
     2
 66
     1
 10
0.0
 20
0.0
 30
0.0
  0
VERTEX
  5
281
  8
0
 62
     2
 10
-200.0
 20
46.0
 30
0.0
  0
VERTEX
  5
282
  8
0
 62
     2
 10
-200.0
 20
0.0
 30
0.0
  0
SEQEND
  5
283
  8
0
 62
     2
  0
POLYLINE
  5
A0
  8
0
 62
     2
 66
     1
 10
0.0
 20
0.0
 30
0.0
  0
VERTEX
  5
284
  8
0
 62
     2
 10
0.0
 20
9.0
 30
0.0
  0
VERTEX
  5
285
  8
0
 62
     2
 10
-133.0
 20
9.0
 30
0.0
  0
SEQEND
  5
286
  8
0
 62
     2
  0
POLYLINE
  5
A1
  8
0
 62
     2
 66
     1
 10
0.0
 20
0.0
 30
0.0
  0
VERTEX
  5
287
  8
0
 62
     2
 10
0.0
 20
18.0
 30
0.0
  0
VERTEX
  5
288
  8
0
 62
     2
 10
-51.0
 20
18.0
 30
0.0
  0
SEQEND
  5
289
  8
0
 62
     2
  0
POLYLINE
  5
A2
  8
0
 62
     2
 66
     1
 10
0.0
 20
0.0
 30
0.0
  0
VERTEX
  5
28A
  8
0
 62
     2
 10
0.0
 20
26.0
 30
0.0
  0
VERTEX
  5
28B
  8
0
 62
     2
 10
-133.0
 20
26.0
 30
0.0
  0
SEQEND
  5
28C
  8
0
 62
     2
  0
POLYLINE
  5
A3
  8
0
 62
     2
 66
     1
 10
0.0
 20
0.0
 30
0.0
  0
VERTEX
  5
28D
  8
0
 62
     2
 10
0.0
 20
31.0
 30
0.0
  0
VERTEX
  5
28E
  8
0
 62
     2
 10
-51.0
 20
31.0
 30
0.0
  0
SEQEND
  5
28F
  8
0
 62
     2
  0
POLYLINE
  5
A4
  8
0
 62
     2
 66
     1
 10
0.0
 20
0.0
 30
0.0
  0
VERTEX
  5
290
  8
0
 62
     2
 10
0.0
 20
36.0
 30
0.0
  0
VERTEX
  5
291
  8
0
 62
     2
 10
-51.0
 20
36.0
 30
0.0
  0
SEQEND
  5
292
  8
0
 62
     2
  0
POLYLINE
  5
A5
  8
0
 62
     2
 66
     1
 10
0.0
 20
0.0
 30
0.0
  0
VERTEX
  5
293
  8
0
 62
     2
 10
0.0
 20
41.0
 30
0.0
  0
VERTEX
  5
294
  8
0
 62
     2
 10
-51.0
 20
41.0
 30
0.0
  0
SEQEND
  5
295
  8
0
 62
     2
  0
POLYLINE
  5
A6
  8
0
 62
     2
 66
     1
 10
0.0
 20
0.0
 30
0.0
  0
VERTEX
  5
296
  8
0
 62
     2
 10
0.0
 20
46.0
 30
0.0
  0
VERTEX
  5
297
  8
0
 62
     2
 10
-200.0
 20
46.0
 30
0.0
  0
SEQEND
  5
298
  8
0
 62
     2
  0
ENDBLK
  5
A8
  8
0
  0
ENDSEC
  0
SECTION
  2
ENTITIES
  0
INSERT
  5
1F
  8
BEM1
 66
     1
  2
ZKOPF
 10
410.0
 20
10.0
 30
0.0
  0
ATTRIB
  5
20
  8
0
 62
     4
 10
396.678571
 20
47.0
 30
0.0
 40
2.5
  1
Dobler
  7
SCRIPTS
 72
     1
 11
401.5
 21
47.0
 31
0.0
  2
NAME
 70
     0
  0
ATTRIB
  5
22
  8
0
 62
     4
 10
380.541667
 20
47.0
 30
0.0
 40
2.5
  1
01.04.97
 41
0.7
 51
15.0
 72
     1
 11
385.5
 21
47.0
 31
0.0
  2
DATE
 70
     0
  0
ATTRIB
  5
23
  8
0
 62
     4
 10
329.5
 20
46.0
 30
0.0
 40
2.5
  1

 41
0.7
 51
15.0
 72
     1
 11
329.5
 21
46.0
 31
0.0
  2
WERKSTOFF
 70
     0
  0
ATTRIB
  5
24
  8
0
 62
     2
 10
299.916667
 20
22.5
 30
0.0
 40
5.0
  1
NC5MDM3-L-1
 41
0.7
 51
15.0
 72
     1
 11
318.0
 21
22.5
 31
0.0
  2
BENENNUNG
 70
     0
  0
ATTRIB
  5
25
  8
0
 62
     3
 10
318.0
 20
31.0
 30
0.0
 40
3.5
  1

 41
0.7
 51
15.0
 72
     1
 11
318.0
 21
31.0
 31
0.0
  2
TEIL
 70
     0
  0
ATTRIB
  5
26
  8
0
 62
     3
 10
362.858333
 20
12.0
 30
0.0
 40
3.5
  1
   3102 ST 10 47
 41
0.7
 51
15.0
 72
     1
 11
384.5
 21
12.0
 31
0.0
  2
NUMMER
 70
     0
  0
ATTRIB
  5
27
  8
0
 62
     2
 10
346.139634
 20
44.930682
 30
0.0
 40
5.0
  1
3:1
 41
0.7
 51
15.0
 72
     1
 11
349.056301
 21
44.930682
 31
0.0
  2
MASS
 70
     0
  0
ATTRIB
  5
28
  8
0
 62
     3
 10
350.0
 20
39.0
 30
0.0
 40
3.5
  1

 41
0.7
 51
15.0
 72
     1
 11
350.0
 21
39.0
 31
0.0
  2
MASS2
 70
     0
  0
ATTRIB
  5
29
  8
0
 62
     4
 10
329.0
 20
39.0
 30
0.0
 40
2.5
  1

 41
0.7
 51
15.0
 72
     1
 11
329.0
 21
39.0
 31
0.0
  2
TEIL
 70
     0
  0
ATTRIB
  5
2A
  8
0
 62
     3
 10
310.450409
 20
69.004319
 30
0.0
 40
3.5
  1

 41
0.7
 51
15.0
  2
TOL
 70
     0
  0
ATTRIB
  5
2B
  8
0
 62
     3
 10
310.450409
 20
64.004319
 30
0.0
 40
3.5
  1

 41
0.7
 51
15.0
  2
RADIEN
 70
     0
  0
ATTRIB
  5
2C
  8
0
 62
     3
 10
310.450409
 20
59.004319
 30
0.0
 40
3.5
  1

 41
0.7
 51
15.0
  2
FACETTE
 70
     0
  0
ATTRIB
  5
2D
  8
0
 62
     4
 10
212.813733
 20
17.0
 30
0.0
 40
2.5
  1
A
 41
0.7
 51
15.0
  2
INDEX1
 70
     0
  0
ATTRIB
  5
2E
  8
0
 62
     4
 10
219.651257
 20
17.0
 30
0.0
 40
2.5
  1
Aktuelle Zeichnung 
 41
0.7
 51
15.0
  2
A1
 70
     0
  0
ATTRIB
  5
2F
  8
0
 62
     4
 10
252.651257
 20
17.0
 30
0.0
 40
2.5
  1
11.03.98
 41
0.7
 51
15.0
  2
DATUM1
 70
     0
  0
ATTRIB
  5
30
  8
0
 62
     4
 10
265.53501
 20
17.0
 30
0.0
 40
2.5
  1
Alinjak
 41
0.7
 51
15.0
  2
NAME1
 70
     0
  0
ATTRIB
  5
31
  8
0
 62
     4
 10
212.813733
 20
22.0
 30
0.0
 40
2.5
  1

 41
0.7
 51
15.0
  2
INDEX2
 70
     0
  0
ATTRIB
  5
32
  8
0
 62
     4
 10
219.651257
 20
22.0
 30
0.0
 40
2.5
  1

 41
0.7
 51
15.0
  2
A2
 70
     0
  0
ATTRIB
  5
33
  8
0
 62
     4
 10
252.651257
 20
22.0
 30
0.0
 40
2.5
  1

 41
0.7
 51
15.0
  2
DATUM2
 70
     0
  0
ATTRIB
  5
34
  8
0
 62
     4
 10
265.53501
 20
22.0
 30
0.0
 40
2.5
  1

 41
0.7
 51
15.0
  2
NAME2
 70
     0
  0
ATTRIB
  5
35
  8
0
 62
     4
 10
212.813733
 20
27.0
 30
0.0
 40
2.5
  1

 41
0.7
 51
15.0
  2
INDEX3
 70
     0
  0
ATTRIB
  5
36
  8
0
 62
     4
 10
219.651257
 20
27.0
 30
0.0
 40
2.5
  1

 41
0.7
 51
15.0
  2
A3
 70
     0
  0
ATTRIB
  5
37
  8
0
 62
     4
 10
252.651257
 20
27.0
 30
0.0
 40
2.5
  1

 41
0.7
 51
15.0
  2
DATUM3
 70
     0
  0
ATTRIB
  5
38
  8
0
 62
     4
 10
265.53501
 20
27.0
 30
0.0
 40
2.5
  1

 41
0.7
 51
15.0
  2
NAME3
 70
     0
  0
ATTRIB
  5
39
  8
0
 62
     4
 10
212.813733
 20
32.0
 30
0.0
 40
2.5
  1

 41
0.7
 51
15.0
  2
INDEX4
 70
     0
  0
ATTRIB
  5
3A
  8
0
 62
     4
 10
219.651257
 20
32.0
 30
0.0
 40
2.5
  1

 41
0.7
 51
15.0
  2
A4
 70
     0
  0
ATTRIB
  5
3B
  8
0
 62
     4
 10
252.651257
 20
32.0
 30
0.0
 40
2.5
  1

 41
0.7
 51
15.0
  2
DATUM4
 70
     0
  0
ATTRIB
  5
3C
  8
0
 62
     4
 10
265.53501
 20
32.0
 30
0.0
 40
2.5
  1

 41
0.7
 51
15.0
  2
NAME4
 70
     0
  0
ATTRIB
  5
3D
  8
0
 62
     4
 10
212.813733
 20
37.0
 30
0.0
 40
2.5
  1

 41
0.7
 51
15.0
  2
INDEX5
 70
     0
  0
ATTRIB
  5
3E
  8
0
 62
     4
 10
219.651257
 20
37.0
 30
0.0
 40
2.5
  1

 41
0.7
 51
15.0
  2
A5
 70
     0
  0
ATTRIB
  5
3F
  8
0
 62
     4
 10
252.651257
 20
37.0
 30
0.0
 40
2.5
  1

 41
0.7
 51
15.0
  2
DATUM5
 70
     0
  0
ATTRIB
  5
40
  8
0
 62
     4
 10
265.53501
 20
37.0
 30
0.0
 40
2.5
  1

 41
0.7
 51
15.0
  2
NAME5
 70
     0
  0
ATTRIB
  5
41
  8
0
 62
     4
 10
212.813733
 20
42.0
 30
0.0
 40
2.5
  1

 41
0.7
 51
15.0
  2
INDEX6
 70
     0
  0
ATTRIB
  5
42
  8
0
 62
     4
 10
219.651257
 20
42.0
 30
0.0
 40
2.5
  1

 41
0.7
 51
15.0
  2
A6
 70
     0
  0
ATTRIB
  5
43
  8
0
 62
     4
 10
252.651257
 20
42.0
 30
0.0
 40
2.5
  1

 41
0.7
 51
15.0
  2
DATUM6
 70
     0
  0
ATTRIB
  5
44
  8
0
 62
     4
 10
265.53501
 20
42.0
 30
0.0
 40
2.5
  1

 41
0.7
 51
15.0
  2
NAME6
 70
     0
  0
ATTRIB
  5
45
  8
0
 62
     4
 10
212.813733
 20
47.0
 30
0.0
 40
2.5
  1

 41
0.7
 51
15.0
  2
INDEX7
 70
     0
  0
ATTRIB
  5
46
  8
0
 62
     4
 10
219.651257
 20
47.0
 30
0.0
 40
2.5
  1

 41
0.7
 51
15.0
  2
A7
 70
     0
  0
ATTRIB
  5
47
  8
0
 62
     4
 10
252.651257
 20
47.0
 30
0.0
 40
2.5
  1

 41
0.7
 51
15.0
  2
DATUM7
 70
     0
  0
ATTRIB
  5
48
  8
0
 62
     4
 10
265.53501
 20
47.0
 30
0.0
 40
2.5
  1

 41
0.7
 51
15.0
  2
NAME7
 70
     0
  0
ATTRIB
  5
49
  8
0
 62
     4
 10
212.813733
 20
52.0
 30
0.0
 40
2.5
  1

 41
0.7
 51
15.0
  2
INDEX8
 70
     0
  0
ATTRIB
  5
4A
  8
0
 62
     4
 10
219.651257
 20
52.0
 30
0.0
 40
2.5
  1

 41
0.7
 51
15.0
  2
A8
 70
     0
  0
ATTRIB
  5
4B
  8
0
 62
     4
 10
252.651257
 20
52.0
 30
0.0
 40
2.5
  1

 41
0.7
 51
15.0
  2
DATUM8
 70
     0
  0
ATTRIB
  5
4C
  8
0
 62
     4
 10
265.53501
 20
52.0
 30
0.0
 40
2.5
  1

 41
0.7
 51
15.0
  2
NAME8
 70
     0
  0
SEQEND
  5
A9
  8
BEM1
  0
LINE
  5
AA
  8
BEM1
 10
263.307541
 20
152.37162
 30
0.0
 11
193.622834
 21
152.37162
 31
0.0
  0
LINE
  5
AB
  8
MITTE
 10
152.444663
 20
209.058858
 30
0.0
 11
239.680716
 21
209.058858
 31
0.0
  0
LINE
  5
AE
  8
BEM1
 10
158.80677
 20
143.760269
 30
0.0
 11
223.20677
 21
143.760269
 31
0.0
  0
TEXT
  5
AF
  8
BEM1
 62
     3
 10
194.07803
 20
154.12162
 30
0.0
 40
3.5
  1
2.00 [0.078"]
 41
0.7
 51
15.0
  0
LINE
  5
B0
  8
05
 10
220.70677
 20
243.220846
 30
0.0
 11
202.40677
 21
243.220846
 31
0.0
  0
LINE
  5
B2
  8
05
 10
220.70677
 20
213.53476
 30
0.0
 11
204.558254
 21
213.53476
 31
0.0
  0
LINE
  5
B3
  8
05
 10
220.70677
 20
204.582957
 30
0.0
 11
204.558254
 21
204.582957
 31
0.0
  0
LINE
  5
B4
  8
05
 10
220.70677
 20
176.165838
 30
0.0
 11
202.40677
 21
176.165838
 31
0.0
  0
LINE
  5
B5
  8
05
 10
220.70677
 20
173.658858
 30
0.0
 11
203.90677
 21
173.658858
 31
0.0
  0
TEXT
  5
B6
  8
BEM1
 62
     3
 10
186.39427
 20
268.830154
 30
0.0
 40
3.5
  1
18.30 [0.720"]
 41
0.7
 51
15.0
 72
     1
 11
199.25677
 21
270.580154
 31
0.0
 73
     2
  0
LINE
  5
B7
  8
BEM1
 10
175.30677
 20
267.080154
 30
0.0
 11
223.20677
 21
267.080154
 31
0.0
  0
LINE
  5
B8
  8
05
 10
220.70677
 20
235.44883
 30
0.0
 11
171.80677
 21
235.44883
 31
0.0
  0
LINE
  5
B9
  8
05
 10
220.70677
 20
241.139318
 30
0.0
 11
180.900036
 21
241.139318
 31
0.0
  0
POLYLINE
  5
BA
  8
RAHMEN
 66
     1
 10
0.0
 20
0.0
 30
0.0
 70
     1
  0
VERTEX
  5
299
  8
RAHMEN
 10
10.0
 20
10.0
 30
0.0
  0
VERTEX
  5
29A
  8
RAHMEN
 10
410.0
 20
10.0
 30
0.0
  0
VERTEX
  5
29B
  8
RAHMEN
 10
410.0
 20
287.0
 30
0.0
  0
VERTEX
  5
29C
  8
RAHMEN
 10
10.0
 20
287.0
 30
0.0
  0
SEQEND
  5
29D
  8
RAHMEN
  0
LINE
  5
BC
  8
BEM1
 10
155.30677
 20
218.732166
 30
0.0
 11
155.30677
 21
142.760269
 31
0.0
  0
TEXT
  5
BD
  8
BEM1
 62
     3
 10
177.53177
 20
145.510269
 30
0.0
 40
3.5
  1
23.80 [0.937"]
 41
0.7
 51
15.0
 72
     1
 11
191.00677
 21
147.260269
 31
0.0
 73
     2
  0
LINE
  5
BE
  8
05
 10
80.415466
 20
91.790725
 30
0.0
 11
77.715466
 21
91.790725
 31
0.0
  0
LINE
  5
BF
  8
05
 10
77.715466
 20
92.990725
 30
0.0
 11
80.415466
 21
92.990725
 31
0.0
  0
ARC
  5
C0
  8
05
 10
74.115466
 20
76.490725
 30
0.0
 40
20.55
 50
54.945918
 51
83.714138
  0
ARC
  5
C1
  8
05
 10
84.015466
 20
68.240725
 30
0.0
 40
4.5
 50
93.586669
 51
186.983579
  0
ARC
  5
C2
  8
05
 10
78.357754
 20
67.547692
 30
0.0
 40
1.2
 50
221.904327
 51
6.983579
  0
ARC
  5
C3
  8
05
 10
74.115466
 20
76.490725
 30
0.0
 40
20.55
 50
280.089278
 51
338.714138
  0
LINE
  5
C4
  8
05
 10
66.165466
 20
106.490725
 30
0.0
 11
82.065466
 21
106.490725
 31
0.0
  0
LINE
  5
C5
  8
05
 10
65.359572
 20
85.490725
 30
0.0
 11
85.416432
 21
85.490725
 31
0.0
  0
TEXT
  5
C6
  8
BEM1
 62
     3
 10
61.252966
 20
136.262021
 30
0.0
 40
3.5
  1
26.00 [1.024"]
 41
0.7
 51
15.0
 72
     1
 11
74.115466
 21
138.012021
 31
0.0
 73
     2
  0
LINE
  5
C7
  8
BEM1
 10
38.615466
 20
134.512021
 30
0.0
 11
109.615466
 21
134.512021
 31
0.0
  0
CIRCLE
  5
C8
  8
05
 10
74.115466
 20
76.490725
 30
0.0
 40
31.8
  0
LINE
  5
C9
  8
05
 10
102.615466
 20
29.990725
 30
0.0
 11
45.615466
 21
29.990725
 31
0.0
  0
ARC
  5
CA
  8
05
 10
74.115466
 20
76.490725
 30
0.0
 40
35.4
 50
64.929772
 51
115.070228
  0
ARC
  5
CB
  8
05
 10
74.115466
 20
76.490725
 30
0.0
 40
27.075
 50
142.328869
 51
37.671131
  0
LINE
  5
CC
  8
05
 10
102.615466
 20
122.990725
 30
0.0
 11
45.615466
 21
122.990725
 31
0.0
  0
LINE
  5
CD
  8
MITTE
 10
31.760571
 20
76.490725
 30
0.0
 11
115.396407
 21
76.490725
 31
0.0
  0
ARC
  5
CE
  8
05
 10
74.115466
 20
76.490725
 30
0.0
 40
27.075
 50
52.328869
 51
90.0
  0
LINE
  5
CF
  8
05
 10
77.715466
 20
54.584562
 30
0.0
 11
77.715466
 21
56.258511
 31
0.0
  0
ARC
  5
D0
  8
05
 10
74.115466
 20
76.490725
 30
0.0
 40
20.55
 50
201.285862
 51
259.910722
  0
LINE
  5
D1
  8
05
 10
35.115466
 20
112.490725
 30
0.0
 11
35.115466
 21
40.490725
 31
0.0
  0
LINE
  5
D2
  8
MITTE
 10
74.115466
 20
128.742976
 30
0.0
 11
74.115466
 21
26.79344
 31
0.0
  0
LINE
  5
D3
  8
05
 10
70.515466
 20
54.584562
 30
0.0
 11
70.515466
 21
56.258511
 31
0.0
  0
TEXT
  5
D4
  8
BEM1
 62
     3
 10
43.312858
 20
19.983849
 30
0.0
 40
3.5
  1
M3
 41
0.7
 51
15.0
 72
     1
 11
45.354525
 21
21.733849
 31
0.0
 73
     2
  0
LINE
  5
D5
  8
BEM1
 10
41.115466
 20
18.309185
 30
0.0
 11
57.115466
 21
18.309185
 31
0.0
  0
CIRCLE
  5
D6
  8
05
 10
45.615466
 20
40.490725
 30
0.0
 40
3.6
  0
ARC
  5
D7
  8
025
 10
45.615466
 20
40.490725
 30
0.0
 40
4.5
 50
78.226333
 51
12.514636
  0
LINE
  5
D9
  8
MITTE
 10
40.365466
 20
40.490725
 30
0.0
 11
50.865466
 21
40.490725
 31
0.0
  0
LINE
  5
DA
  8
BEM1
 10
41.115466
 20
38.004717
 30
0.0
 11
41.115466
 21
17.309185
 31
0.0
  0
ARC
  5
DB
  8
05
 10
45.615466
 20
40.490725
 30
0.0
 40
10.5
 50
180.0
 51
270.0
  0
SOLID
  5
DC
  8
BEM1
 10
37.615466
 20
18.892519
 30
0.0
 11
37.615466
 21
17.725852
 31
0.0
 12
41.115466
 22
18.309185
 32
0.0
 13
41.115466
 23
18.309185
 33
0.0
  0
LINE
  5
DD
  8
BEM1
 10
37.615466
 20
18.309185
 30
0.0
 11
34.115466
 21
18.309185
 31
0.0
  0
LINE
  5
DE
  8
MITTE
 10
45.615466
 20
35.240725
 30
0.0
 11
45.615466
 21
45.740725
 31
0.0
  0
LINE
  5
DF
  8
BEM1
 10
50.115466
 20
37.791322
 30
0.0
 11
50.115466
 21
17.309185
 31
0.0
  0
SOLID
  5
E0
  8
BEM1
 10
53.615466
 20
18.892519
 30
0.0
 11
53.615466
 21
17.725852
 31
0.0
 12
50.115466
 22
18.309185
 32
0.0
 13
50.115466
 23
18.309185
 33
0.0
  0
ARC
  5
E1
  8
05
 10
74.115466
 20
76.490725
 30
0.0
 40
22.2
 50
260.667582
 51
279.332418
  0
ARC
  5
E2
  8
05
 10
74.115466
 20
76.490725
 30
0.0
 40
27.075
 50
90.0
 51
127.671131
  0
ARC
  5
E3
  8
05
 10
43.215466
 20
76.490725
 30
0.0
 40
4.5
 50
97.475203
 51
262.524797
  0
LINE
  5
E4
  8
05
 10
77.115466
 20
85.490725
 30
0.0
 11
77.115466
 21
71.090725
 31
0.0
  0
ARC
  5
E5
  8
05
 10
74.115466
 20
76.490725
 30
0.0
 40
20.55
 50
171.285862
 51
188.714138
  0
LINE
  5
E6
  8
MITTE
 10
61.965466
 20
84.549649
 30
0.0
 11
61.965466
 21
76.168458
 31
0.0
  0
CIRCLE
  5
E7
  8
035
 10
61.965466
 20
80.390725
 30
0.0
 40
2.1
  0
CIRCLE
  5
E9
  8
035
 10
61.965466
 20
80.390725
 30
0.0
 40
3.0
  0
ARC
  5
EA
  8
05
 10
61.965466
 20
80.390725
 30
0.0
 40
4.5
 50
291.772141
 51
51.05754
  0
LINE
  5
EB
  8
05
 10
71.115466
 20
85.490725
 30
0.0
 11
71.115466
 21
71.090725
 31
0.0
  0
ARC
  5
EC
  8
05
 10
64.302238
 20
74.540128
 30
0.0
 40
1.8
 50
111.772141
 51
269.210818
  0
LINE
  5
ED
  8
MITTE
 10
67.965466
 20
68.240725
 30
0.0
 11
60.465466
 21
68.240725
 31
0.0
  0
CIRCLE
  5
EE
  8
035
 10
64.215466
 20
68.240725
 30
0.0
 40
2.1
  0
CIRCLE
  5
EF
  8
035
 10
64.215466
 20
68.240725
 30
0.0
 40
3.0
  0
LINE
  5
F0
  8
05
 10
56.283189
 20
66.277381
 30
0.0
 11
49.818193
 21
64.545091
 31
0.0
  0
LINE
  5
F1
  8
05
 10
56.425719
 20
69.421401
 30
0.0
 11
52.199874
 21
68.289089
 31
0.0
  0
LINE
  5
F2
  8
05
 10
55.261033
 20
73.768067
 30
0.0
 11
51.035188
 21
72.635755
 31
0.0
  0
ARC
  5
F3
  8
05
 10
74.115466
 20
76.490725
 30
0.0
 40
23.4
 50
189.482266
 51
200.517734
  0
ARC
  5
F4
  8
05
 10
74.115466
 20
76.490725
 30
0.0
 40
19.05
 50
188.216949
 51
201.783051
  0
TEXT
  5
F5
  8
0
 62
     4
 10
57.134383
 20
69.832607
 30
0.0
 40
2.52
  1
4
  7
HELV
  0
LINE
  5
F7
  8
035
 10
61.506328
 20
77.426068
 30
0.0
 11
61.64407
 21
78.315465
 31
0.0
  0
ARC
  5
F8
  8
05
 10
69.873177
 20
67.547692
 30
0.0
 40
1.2
 50
173.016409
 51
318.095669
  0
LINE
  5
F9
  8
MITTE
 10
64.215466
 20
71.990725
 30
0.0
 11
64.215466
 21
64.490725
 31
0.0
  0
ARC
  5
FA
  8
05
 10
74.115466
 20
63.740725
 30
0.0
 40
4.5
 50
41.904332
 51
138.095669
  0
LINE
  5
FB
  8
035
 10
65.860896
 20
65.732228
 30
0.0
 11
65.367267
 21
66.484777
 31
0.0
  0
CIRCLE
  5
FC
  8
035
 10
74.115466
 20
63.740725
 30
0.0
 40
3.0
  0
CIRCLE
  5
FD
  8
035
 10
74.115466
 20
63.740725
 30
0.0
 40
2.1
  0
LINE
  5
FE
  8
MITTE
 10
70.611531
 20
63.740725
 30
0.0
 11
77.559873
 21
63.740725
 31
0.0
  0
LINE
  5
FF
  8
035
 10
72.015466
 20
63.740725
 30
0.0
 11
71.115466
 21
63.740725
 31
0.0
  0
LINE
  5
100
  8
035
 10
77.115466
 20
63.740725
 30
0.0
 11
76.215466
 21
63.740725
 31
0.0
  0
ARC
  5
101
  8
05
 10
64.215466
 20
68.240725
 30
0.0
 40
4.5
 50
353.016424
 51
89.210811
  0
LINE
  5
102
  8
035
 10
63.063664
 20
69.996674
 30
0.0
 11
62.570035
 21
70.749223
 31
0.0
  0
LINE
  5
103
  8
05
 10
71.115466
 20
71.090725
 30
0.0
 11
77.115466
 21
71.090725
 31
0.0
  0
LINE
  5
104
  8
035
 10
62.286861
 20
82.465986
 30
0.0
 11
62.424603
 21
83.355383
 31
0.0
  0
ARC
  5
105
  8
05
 10
74.115466
 20
76.490725
 30
0.0
 40
20.55
 50
96.285862
 51
158.714138
  0
LINE
  5
106
  8
MITTE
 10
66.158324
 20
80.390725
 30
0.0
 11
57.861178
 21
80.390725
 31
0.0
  0
LINE
  5
107
  8
05
 10
55.261033
 20
79.213384
 30
0.0
 11
51.035188
 21
80.345696
 31
0.0
  0
LINE
  5
108
  8
05
 10
56.425719
 20
83.56005
 30
0.0
 11
52.199874
 21
84.692362
 31
0.0
  0
LINE
  5
109
  8
05
 10
56.283189
 20
86.70407
 30
0.0
 11
49.818193
 21
88.43636
 31
0.0
  0
ARC
  5
10A
  8
05
 10
74.115466
 20
76.490725
 30
0.0
 40
23.4
 50
159.482266
 51
170.517734
  0
ARC
  5
10B
  8
05
 10
74.115466
 20
76.490725
 30
0.0
 40
19.05
 50
158.216949
 51
171.783051
  0
TEXT
  5
10C
  8
0
 62
     4
 10
57.503446
 20
84.854615
 30
0.0
 40
2.52
  1
5
  7
HELV
  0
LINE
  5
10D
  8
05
 10
55.447846
 20
93.037024
 30
0.0
 11
52.684749
 21
93.037024
 31
0.0
  0
LINE
  5
10E
  8
05
 10
57.569167
 20
95.158344
 30
0.0
 11
57.569167
 21
97.921442
 31
0.0
  0
LINE
  5
10F
  8
05
 10
57.569167
 20
95.158344
 30
0.0
 11
56.508507
 21
94.097684
 31
0.0
  0
LINE
  5
110
  8
05
 10
55.447846
 20
93.037024
 30
0.0
 11
56.508507
 21
94.097684
 31
0.0
  0
LINE
  5
111
  8
05
 10
76.365466
 20
96.917179
 30
0.0
 11
76.365466
 21
90.140725
 31
0.0
  0
LINE
  5
112
  8
05
 10
77.415466
 20
96.774031
 30
0.0
 11
77.415466
 21
89.090725
 31
0.0
  0
LINE
  5
113
  8
05
 10
77.715466
 20
91.790725
 30
0.0
 11
77.715466
 21
88.490725
 31
0.0
  0
LINE
  5
114
  8
05
 10
71.865466
 20
96.917179
 30
0.0
 11
71.865466
 21
90.140725
 31
0.0
  0
LINE
  5
115
  8
05
 10
70.815466
 20
96.774031
 30
0.0
 11
70.815466
 21
89.090725
 31
0.0
  0
LINE
  5
116
  8
05
 10
70.515466
 20
91.790725
 30
0.0
 11
70.515466
 21
88.490725
 31
0.0
  0
LINE
  5
117
  8
05
 10
70.515466
 20
88.490725
 30
0.0
 11
74.115466
 21
88.490725
 31
0.0
  0
ARC
  5
118
  8
05
 10
65.359578
 20
84.590725
 30
0.0
 40
0.9
 50
89.999607
 51
231.057651
  0
LINE
  5
119
  8
05
 10
77.715466
 20
88.490725
 30
0.0
 11
74.115466
 21
88.490725
 31
0.0
  0
LINE
  5
11A
  8
05
 10
71.865466
 20
90.140725
 30
0.0
 11
76.365466
 21
90.140725
 31
0.0
  0
LINE
  5
11B
  8
05
 10
70.815466
 20
89.090725
 30
0.0
 11
77.415466
 21
89.090725
 31
0.0
  0
LINE
  5
11C
  8
05
 10
70.815466
 20
89.090725
 30
0.0
 11
71.865466
 21
90.140725
 31
0.0
  0
LINE
  5
11D
  8
05
 10
76.365466
 20
90.140725
 30
0.0
 11
77.415466
 21
89.090725
 31
0.0
  0
LINE
  5
11E
  8
05
 10
70.515466
 20
96.72294
 30
0.0
 11
70.515466
 21
92.990725
 31
0.0
  0
LINE
  5
11F
  8
05
 10
67.815466
 20
91.790725
 30
0.0
 11
70.515466
 21
91.790725
 31
0.0
  0
LINE
  5
120
  8
05
 10
70.515466
 20
92.990725
 30
0.0
 11
67.815466
 21
92.990725
 31
0.0
  0
LINE
  5
121
  8
05
 10
67.815466
 20
92.990725
 30
0.0
 11
67.815466
 21
91.790725
 31
0.0
  0
LINE
  5
122
  8
05
 10
77.715466
 20
96.72294
 30
0.0
 11
77.715466
 21
92.990725
 31
0.0
  0
LINE
  5
123
  8
BEM1
 10
35.115466
 20
117.866824
 30
0.0
 11
35.115466
 21
136.312021
 31
0.0
  0
ARC
  5
124
  8
05
 10
45.615466
 20
112.490725
 30
0.0
 40
10.5
 50
90.0
 51
180.0
  0
SOLID
  5
125
  8
BEM1
 10
38.615466
 20
135.095355
 30
0.0
 11
38.615466
 21
133.928688
 31
0.0
 12
35.115466
 22
134.512021
 32
0.0
 13
35.115466
 23
134.512021
 33
0.0
  0
LINE
  5
126
  8
05
 10
59.115466
 20
108.55566
 30
0.0
 11
59.115466
 21
104.530697
 31
0.0
  0
LINE
  5
127
  8
05
 10
66.165466
 20
106.490725
 30
0.0
 11
66.165466
 21
102.372246
 31
0.0
  0
LINE
  5
128
  8
BEM1
 10
128.667409
 20
33.490725
 30
0.0
 11
128.667409
 21
119.490725
 31
0.0
  0
LINE
  5
129
  8
05
 10
113.115466
 20
112.490725
 30
0.0
 11
113.115466
 21
40.490725
 31
0.0
  0
ARC
  5
12A
  8
05
 10
102.615466
 20
40.490725
 30
0.0
 40
10.5
 50
270.0
 51
0.0
  0
LINE
  5
12B
  8
BEM1
 10
106.703533
 20
29.990725
 30
0.0
 11
129.719938
 21
29.990725
 31
0.0
  0
SOLID
  5
12C
  8
BEM1
 10
128.084076
 20
33.490725
 30
0.0
 11
129.250743
 21
33.490725
 31
0.0
 12
128.667409
 22
29.990725
 32
0.0
 13
128.667409
 23
29.990725
 33
0.0
  0
CIRCLE
  5
12D
  8
035
 10
86.715466
 20
78.740725
 30
0.0
 40
2.1
  0
CIRCLE
  5
12E
  8
035
 10
86.715466
 20
78.740725
 30
0.0
 40
3.0
  0
ARC
  5
12F
  8
05
 10
86.715466
 20
78.740725
 30
0.0
 40
4.5
 50
103.173522
 51
237.571785
  0
ARC
  5
130
  8
05
 10
74.115466
 20
76.490725
 30
0.0
 40
20.55
 50
351.285862
 51
8.714138
  0
LINE
  5
131
  8
MITTE
 10
86.715466
 20
82.808164
 30
0.0
 11
86.715466
 21
74.990725
 31
0.0
  0
ARC
  5
132
  8
05
 10
105.015466
 20
76.490725
 30
0.0
 40
4.5
 50
277.475203
 51
82.524797
  0
LINE
  5
133
  8
05
 10
91.805212
 20
69.421401
 30
0.0
 11
96.031057
 21
68.289089
 31
0.0
  0
LINE
  5
134
  8
05
 10
92.969898
 20
73.768067
 30
0.0
 11
97.195743
 21
72.635755
 31
0.0
  0
LINE
  5
135
  8
05
 10
91.947742
 20
66.277381
 30
0.0
 11
98.412738
 21
64.545091
 31
0.0
  0
CIRCLE
  5
136
  8
035
 10
84.015466
 20
68.240725
 30
0.0
 40
3.0
  0
LINE
  5
137
  8
MITTE
 10
84.015466
 20
71.990725
 30
0.0
 11
84.015466
 21
64.490725
 31
0.0
  0
CIRCLE
  5
138
  8
035
 10
84.015466
 20
68.240725
 30
0.0
 40
2.1
  0
TEXT
  5
139
  8
0
 62
     4
 10
78.763955
 20
60.787782
 30
0.0
 40
2.52
  1
3
  7
HELV
  0
LINE
  5
13A
  8
035
 10
82.370035
 20
65.732228
 30
0.0
 11
82.863664
 21
66.484777
 31
0.0
  0
LINE
  5
13B
  8
MITTE
 10
90.465466
 20
78.740725
 30
0.0
 11
82.965466
 21
78.740725
 31
0.0
  0
LINE
  5
13C
  8
MITTE
 10
87.765466
 20
68.240725
 30
0.0
 11
80.265466
 21
68.240725
 31
0.0
  0
ARC
  5
13D
  8
05
 10
83.658883
 20
73.929561
 30
0.0
 40
1.2
 50
273.586672
 51
57.571782
  0
LINE
  5
13E
  8
035
 10
85.167267
 20
69.996674
 30
0.0
 11
85.660896
 21
70.749223
 31
0.0
  0
LINE
  5
13F
  8
035
 10
86.1895
 20
75.787192
 30
0.0
 11
86.347289
 21
76.673252
 31
0.0
  0
ARC
  5
140
  8
05
 10
74.115466
 20
76.490725
 30
0.0
 40
19.05
 50
338.216949
 51
351.783051
  0
TEXT
  5
141
  8
0
 62
     4
 10
89.259018
 20
69.961325
 30
0.0
 40
2.52
  1
2
  7
HELV
  0
ARC
  5
142
  8
05
 10
74.115466
 20
76.490725
 30
0.0
 40
23.4
 50
339.482266
 51
350.517734
  0
LINE
  5
143
  8
05
 10
92.783085
 20
93.037024
 30
0.0
 11
95.546182
 21
93.037024
 31
0.0
  0
LINE
  5
144
  8
05
 10
91.947742
 20
86.70407
 30
0.0
 11
98.412738
 21
88.43636
 31
0.0
  0
LINE
  5
145
  8
035
 10
94.904405
 20
88.794383
 30
0.0
 11
95.965065
 21
89.855044
 31
0.0
  0
LINE
  5
146
  8
05
 10
92.969898
 20
79.213384
 30
0.0
 11
97.195743
 21
80.345696
 31
0.0
  0
LINE
  5
147
  8
05
 10
91.805212
 20
83.56005
 30
0.0
 11
96.031057
 21
84.692362
 31
0.0
  0
LINE
  5
148
  8
035
 10
95.965065
 20
89.855044
 30
0.0
 11
87.479784
 21
98.340325
 31
0.0
  0
TEXT
  5
149
  8
0
 62
     4
 10
80.240378
 20
88.5633
 30
0.0
 40
2.52
  1
G
  7
HELV
  0
LINE
  5
14A
  8
035
 10
94.904405
 20
88.794383
 30
0.0
 11
86.419124
 21
97.279665
 31
0.0
  0
ARC
  5
14B
  8
05
 10
74.115466
 20
76.490725
 30
0.0
 40
22.2
 50
35.667582
 51
54.332418
  0
ARC
  5
14C
  8
05
 10
85.416427
 20
84.290725
 30
0.0
 40
1.2
 50
283.173659
 51
89.99978
  0
ARC
  5
14D
  8
05
 10
74.115466
 20
76.490725
 30
0.0
 40
20.55
 50
21.285862
 51
34.785502
  0
TEXT
  5
14E
  8
0
 62
     4
 10
90.428606
 20
81.824847
 30
0.0
 40
2.52
  1
1
  7
HELV
  0
LINE
  5
14F
  8
035
 10
87.083642
 20
80.808199
 30
0.0
 11
87.241431
 21
81.694259
 31
0.0
  0
ARC
  5
150
  8
05
 10
74.115466
 20
76.490725
 30
0.0
 40
19.05
 50
8.216949
 51
21.783051
  0
LINE
  5
151
  8
05
 10
92.151047
 20
89.435138
 30
0.0
 11
90.993049
 21
88.214619
 31
0.0
  0
LINE
  5
152
  8
035
 10
86.419124
 20
97.279665
 30
0.0
 11
87.479784
 21
98.340325
 31
0.0
  0
LINE
  5
153
  8
05
 10
85.918345
 20
93.313167
 30
0.0
 11
87.059878
 21
94.526307
 31
0.0
  0
LINE
  5
154
  8
05
 10
80.415466
 20
92.990725
 30
0.0
 11
80.415466
 21
91.790725
 31
0.0
  0
LINE
  5
155
  8
05
 10
90.661764
 20
95.158344
 30
0.0
 11
90.661764
 21
97.921442
 31
0.0
  0
ARC
  5
156
  8
05
 10
74.115466
 20
76.490725
 30
0.0
 40
23.4
 50
9.482266
 51
20.517734
  0
TEXT
  5
157
  8
BEM1
 62
     3
 10
126.917409
 20
64.036559
 30
0.0
 40
3.5
  1
31.00 [1.220"]
 50
90.0
 41
0.7
 51
15.0
 72
     1
 11
125.167409
 21
76.490725
 31
0.0
 73
     2
  0
SOLID
  5
158
  8
BEM1
 10
109.615466
 20
135.095355
 30
0.0
 11
109.615466
 21
133.928688
 31
0.0
 12
113.115466
 22
134.512021
 32
0.0
 13
113.115466
 23
134.512021
 33
0.0
  0
ARC
  5
159
  8
05
 10
102.615466
 20
112.490725
 30
0.0
 40
10.5
 50
0.0
 51
90.0
  0
LINE
  5
15A
  8
BEM1
 10
106.371323
 20
122.990725
 30
0.0
 11
129.719938
 21
122.990725
 31
0.0
  0
LINE
  5
15B
  8
05
 10
82.065466
 20
106.490725
 30
0.0
 11
82.065466
 21
102.372246
 31
0.0
  0
LINE
  5
15C
  8
05
 10
89.115466
 20
108.55566
 30
0.0
 11
89.115466
 21
104.530697
 31
0.0
  0
CIRCLE
  5
15D
  8
05
 10
102.615466
 20
112.490725
 30
0.0
 40
3.6
  0
ARC
  5
15E
  8
025
 10
102.615466
 20
112.490725
 30
0.0
 40
4.5
 50
68.589908
 51
337.981343
  0
LINE
  5
15F
  8
MITTE
 10
102.615466
 20
107.240725
 30
0.0
 11
102.615466
 21
117.740725
 31
0.0
  0
LINE
  5
160
  8
MITTE
 10
97.365466
 20
112.490725
 30
0.0
 11
107.865466
 21
112.490725
 31
0.0
  0
LINE
  5
161
  8
BEM1
 10
113.115466
 20
123.884209
 30
0.0
 11
113.115466
 21
136.312021
 31
0.0
  0
LINE
  5
162
  8
BEM1
 10
113.115466
 20
116.538556
 30
0.0
 11
113.115466
 21
121.972687
 31
0.0
  0
SOLID
  5
163
  8
BEM1
 10
128.084076
 20
119.490725
 30
0.0
 11
129.250743
 21
119.490725
 31
0.0
 12
128.667409
 22
122.990725
 32
0.0
 13
128.667409
 23
122.990725
 33
0.0
  0
SOLID
  5
164
  8
BEM1
 10
158.80677
 20
144.343602
 30
0.0
 11
158.80677
 21
143.176936
 31
0.0
 12
155.30677
 22
143.760269
 32
0.0
 13
155.30677
 23
143.760269
 33
0.0
  0
LINE
  5
165
  8
05
 10
77.776287
 20
224.358858
 30
0.0
 11
80.476287
 21
224.358858
 31
0.0
  0
LINE
  5
166
  8
05
 10
77.776287
 20
225.558858
 30
0.0
 11
80.476287
 21
225.558858
 31
0.0
  0
TEXT
  5
167
  8
BEM1
 62
     3
 10
60.952785
 20
268.830154
 30
0.0
 40
3.5
  1
19.00 [0.748"]
 41
0.7
 51
15.0
  0
LINE
  5
168
  8
BEM1
 10
45.676287
 20
267.080154
 30
0.0
 11
99.176287
 21
267.080154
 31
0.0
  0
CIRCLE
  5
169
  8
05
 10
74.176287
 20
209.058858
 30
0.0
 40
29.25
  0
ARC
  5
16A
  8
05
 10
74.176287
 20
209.058858
 30
0.0
 40
24.3
 50
51.880413
 51
38.119587
  0
ARC
  5
16B
  8
05
 10
74.176287
 20
209.058858
 30
0.0
 40
19.35
 50
99.819371
 51
80.180629
  0
ARC
  5
16C
  8
05
 10
74.176287
 20
209.058858
 30
0.0
 40
35.4
 50
108.903975
 51
71.096025
  0
LINE
  5
16D
  8
05
 10
102.676287
 20
162.558858
 30
0.0
 11
45.676287
 21
162.558858
 31
0.0
  0
LINE
  5
16E
  8
MITTE
 10
33.669299
 20
209.058858
 30
0.0
 11
114.683275
 21
209.058858
 31
0.0
  0
LINE
  5
16F
  8
05
 10
85.645287
 20
240.258858
 30
0.0
 11
62.707287
 21
240.258858
 31
0.0
  0
ARC
  5
170
  8
05
 10
74.176287
 20
209.058858
 30
0.0
 40
27.075
 50
250.584884
 51
289.415116
  0
LINE
  5
171
  8
05
 10
67.876287
 20
221.058858
 30
0.0
 11
80.476287
 21
221.058858
 31
0.0
  0
LINE
  5
172
  8
05
 10
102.676287
 20
255.558858
 30
0.0
 11
74.176287
 21
255.558858
 31
0.0
  0
LINE
  5
173
  8
05
 10
83.315215
 20
243.258858
 30
0.0
 11
74.176287
 21
243.258858
 31
0.0
  0
LINE
  5
174
  8
BEM1
 10
53.467651
 20
245.058858
 30
0.0
 11
129.419938
 21
245.058858
 31
0.0
  0
LINE
  5
175
  8
05
 10
62.707287
 20
240.258858
 30
0.0
 11
62.707287
 21
242.549484
 31
0.0
  0
LINE
  5
176
  8
05
 10
64.876287
 20
240.258858
 30
0.0
 11
64.876287
 21
243.21541
 31
0.0
  0
ARC
  5
177
  8
025
 10
45.676287
 20
245.058858
 30
0.0
 40
4.5
 50
68.589908
 51
337.981343
  0
LINE
  5
178
  8
MITTE
 10
45.676287
 20
239.808858
 30
0.0
 11
45.676287
 21
250.308858
 31
0.0
  0
LINE
  5
179
  8
05
 10
35.176287
 20
173.058858
 30
0.0
 11
35.176287
 21
245.058858
 31
0.0
  0
LINE
  5
17A
  8
MITTE
 10
74.176287
 20
257.126404
 30
0.0
 11
74.176287
 21
160.442823
 31
0.0
  0
CIRCLE
  5
17B
  8
035
 10
74.176287
 20
196.308858
 30
0.0
 40
1.92
  0
LINE
  5
17C
  8
05
 10
45.226287
 20
172.308858
 30
0.0
 11
67.098472
 21
172.308858
 31
0.0
  0
LINE
  5
17D
  8
05
 10
45.226287
 20
164.808858
 30
0.0
 11
67.098472
 21
164.808858
 31
0.0
  0
TEXT
  5
17E
  8
035
 10
44.16238
 20
166.308858
 30
0.0
 40
4.5
  1
NEUTRIK
 41
0.903226
  7
HELV
 72
     5
 11
68.16238
 21
166.308858
 31
0.0
  0
ARC
  5
17F
  8
05
 10
45.226287
 20
168.558858
 30
0.0
 40
3.75
 50
90.0
 51
270.0
  0
ARC
  5
180
  8
05
 10
45.676287
 20
173.058858
 30
0.0
 40
10.5
 50
180.0
 51
270.0
  0
ARC
  5
181
  8
05
 10
67.098468
 20
168.558858
 30
0.0
 40
3.75
 50
270.000011
 51
89.999989
  0
LINE
  5
182
  8
05
 10
65.176287
 20
183.523478
 30
0.0
 11
65.176287
 21
181.227895
 31
0.0
  0
CIRCLE
  5
183
  8
035
 10
61.576287
 20
211.308858
 30
0.0
 40
1.92
  0
LINE
  5
184
  8
MITTE
 10
60.526287
 20
200.808858
 30
0.0
 11
68.026287
 21
200.808858
 31
0.0
  0
LINE
  5
185
  8
MITTE
 10
57.826287
 20
211.308858
 30
0.0
 11
65.326287
 21
211.308858
 31
0.0
  0
ARC
  5
186
  8
05
 10
74.176287
 20
209.058858
 30
0.0
 40
27.075
 50
160.584884
 51
199.415116
  0
LINE
  5
187
  8
05
 10
48.640907
 20
200.058858
 30
0.0
 11
46.345324
 21
200.058858
 31
0.0
  0
LINE
  5
188
  8
05
 10
48.640907
 20
218.058858
 30
0.0
 11
46.345324
 21
218.058858
 31
0.0
  0
LINE
  5
189
  8
MITTE
 10
61.576287
 20
215.058858
 30
0.0
 11
61.576287
 21
207.558858
 31
0.0
  0
TEXT
  5
18A
  8
0
 62
     4
 10
61.238188
 20
214.887523
 30
0.0
 40
2.52
  1
1
  7
HELV
  0
TEXT
  5
18B
  8
0
 62
     4
 10
63.265464
 20
204.013075
 30
0.0
 40
2.52
  1
2
  7
HELV
  0
LINE
  5
18C
  8
MITTE
 10
70.426287
 20
196.308858
 30
0.0
 11
77.926287
 21
196.308858
 31
0.0
  0
CIRCLE
  5
18D
  8
035
 10
64.276287
 20
200.808858
 30
0.0
 40
1.92
  0
LINE
  5
18E
  8
MITTE
 10
64.276287
 20
203.361358
 30
0.0
 11
64.276287
 21
197.058858
 31
0.0
  0
TEXT
  5
18F
  8
0
 62
     4
 10
73.301196
 20
198.88651
 30
0.0
 40
2.52
  1
3
  7
HELV
  0
LINE
  5
190
  8
035
 10
56.993592
 20
221.998912
 30
0.0
 11
55.003721
 21
223.988784
 31
0.0
  0
LINE
  5
191
  8
035
 10
61.236233
 20
226.241553
 30
0.0
 11
56.993592
 21
221.998912
 31
0.0
  0
LINE
  5
192
  8
035
 10
61.236233
 20
226.241553
 30
0.0
 11
59.246361
 21
228.231425
 31
0.0
  0
LINE
  5
193
  8
05
 10
67.876287
 20
224.358858
 30
0.0
 11
70.576287
 21
224.358858
 31
0.0
  0
LINE
  5
194
  8
05
 10
67.876287
 20
225.558858
 30
0.0
 11
70.576287
 21
225.558858
 31
0.0
  0
LINE
  5
195
  8
05
 10
67.876287
 20
225.558858
 30
0.0
 11
67.876287
 21
221.058858
 31
0.0
  0
LINE
  5
196
  8
05
 10
77.776287
 20
224.358858
 30
0.0
 11
77.776287
 21
221.058858
 31
0.0
  0
LINE
  5
197
  8
05
 10
77.476287
 20
228.125387
 30
0.0
 11
77.476287
 21
221.658858
 31
0.0
  0
LINE
  5
198
  8
05
 10
70.576287
 20
224.358858
 30
0.0
 11
70.576287
 21
221.058858
 31
0.0
  0
LINE
  5
199
  8
05
 10
70.876287
 20
228.125387
 30
0.0
 11
70.876287
 21
221.658858
 31
0.0
  0
LINE
  5
19A
  8
05
 10
70.876287
 20
221.658858
 30
0.0
 11
77.476287
 21
221.658858
 31
0.0
  0
LINE
  5
19B
  8
05
 10
70.576287
 20
228.071026
 30
0.0
 11
70.576287
 21
225.558858
 31
0.0
  0
LINE
  5
19C
  8
05
 10
77.776287
 20
228.071026
 30
0.0
 11
77.776287
 21
225.558858
 31
0.0
  0
LINE
  5
19D
  8
05
 10
66.676287
 20
237.330974
 30
0.0
 11
66.676287
 21
240.258858
 31
0.0
  0
SOLID
  5
19E
  8
BEM1
 10
49.176287
 20
266.496821
 30
0.0
 11
49.176287
 21
267.663487
 31
0.0
 12
45.676287
 22
267.080154
 32
0.0
 13
45.676287
 23
267.080154
 33
0.0
  0
LINE
  5
19F
  8
05
 10
74.176287
 20
255.558858
 30
0.0
 11
45.676287
 21
255.558858
 31
0.0
  0
LINE
  5
1A0
  8
MITTE
 10
40.426287
 20
245.058858
 30
0.0
 11
50.926287
 21
245.058858
 31
0.0
  0
CIRCLE
  5
1A1
  8
05
 10
45.676287
 20
245.058858
 30
0.0
 40
3.6
  0
LINE
  5
1A2
  8
BEM1
 10
45.676287
 20
252.676821
 30
0.0
 11
45.676287
 21
268.580154
 31
0.0
  0
ARC
  5
1A3
  8
05
 10
45.676287
 20
245.058858
 30
0.0
 40
10.5
 50
90.0
 51
180.0
  0
LINE
  5
1A4
  8
05
 10
74.176287
 20
243.258858
 30
0.0
 11
65.037359
 21
243.258858
 31
0.0
  0
ARC
  5
1A5
  8
05
 10
74.176287
 20
209.058858
 30
0.0
 40
35.4
 50
104.961018
 51
108.903975
  0
LINE
  5
1A6
  8
BEM1
 10
128.667409
 20
245.058858
 30
0.0
 11
128.667409
 21
176.558858
 31
0.0
  0
LINE
  5
1A7
  8
05
 10
85.645287
 20
240.258858
 30
0.0
 11
85.645287
 21
242.549484
 31
0.0
  0
LINE
  5
1A8
  8
05
 10
83.476287
 20
240.258858
 30
0.0
 11
83.476287
 21
243.21541
 31
0.0
  0
LINE
  5
1A9
  8
BEM1
 10
102.676287
 20
179.975695
 30
0.0
 11
102.676287
 21
243.3142
 31
0.0
  0
LINE
  5
1AA
  8
05
 10
113.176287
 20
245.058858
 30
0.0
 11
113.176287
 21
173.058858
 31
0.0
  0
LINE
  5
1AB
  8
05
 10
171.80677
 20
239.208858
 30
0.0
 11
180.900036
 21
244.458858
 31
0.0
  0
LINE
  5
1AC
  8
05
 10
180.900036
 20
244.458858
 30
0.0
 11
180.900036
 21
241.139318
 31
0.0
  0
LINE
  5
1AD
  8
BEM1
 10
109.941572
 20
173.058858
 30
0.0
 11
129.419938
 21
173.058858
 31
0.0
  0
ARC
  5
1AE
  8
05
 10
102.676287
 20
173.058858
 30
0.0
 40
10.5
 50
270.0
 51
0.0
  0
CIRCLE
  5
1AF
  8
05
 10
102.676287
 20
173.058858
 30
0.0
 40
3.6
  0
ARC
  5
1B0
  8
025
 10
102.676287
 20
173.058858
 30
0.0
 40
4.5
 50
68.589908
 51
337.981343
  0
LINE
  5
1B1
  8
MITTE
 10
102.676287
 20
167.808858
 30
0.0
 11
102.676287
 21
178.308858
 31
0.0
  0
LINE
  5
1B2
  8
05
 10
83.176287
 20
183.523478
 30
0.0
 11
83.176287
 21
181.227895
 31
0.0
  0
LINE
  5
1B3
  8
MITTE
 10
97.426287
 20
173.058858
 30
0.0
 11
107.926287
 21
173.058858
 31
0.0
  0
SOLID
  5
1B4
  8
BEM1
 10
129.250743
 20
176.558858
 30
0.0
 11
128.084076
 21
176.558858
 31
0.0
 12
128.667409
 22
173.058858
 32
0.0
 13
128.667409
 23
173.058858
 33
0.0
  0
TEXT
  5
1B5
  8
0
 62
     4
 10
85.69832
 20
216.435046
 30
0.0
 40
2.52
  1
5
  7
HELV
  0
TEXT
  5
1B6
  8
0
 62
     4
 10
83.109521
 20
204.033701
 30
0.0
 40
2.52
  1
4
  7
HELV
  0
LINE
  5
1B7
  8
MITTE
 10
79.126287
 20
200.808858
 30
0.0
 11
87.826287
 21
200.808858
 31
0.0
  0
LINE
  5
1B8
  8
MITTE
 10
84.076287
 20
203.55367
 30
0.0
 11
84.076287
 21
197.058858
 31
0.0
  0
CIRCLE
  5
1B9
  8
035
 10
84.076287
 20
200.808858
 30
0.0
 40
1.92
  0
CIRCLE
  5
1BA
  8
035
 10
86.326287
 20
212.958858
 30
0.0
 40
1.92
  0
LINE
  5
1BB
  8
MITTE
 10
82.576287
 20
212.958858
 30
0.0
 11
90.076287
 21
212.958858
 31
0.0
  0
LINE
  5
1BC
  8
MITTE
 10
86.326287
 20
216.041712
 30
0.0
 11
86.326287
 21
209.208858
 31
0.0
  0
ARC
  5
1BD
  8
05
 10
74.176287
 20
209.058858
 30
0.0
 40
27.075
 50
340.584884
 51
19.415116
  0
LINE
  5
1BE
  8
05
 10
99.711667
 20
200.058858
 30
0.0
 11
102.00725
 21
200.058858
 31
0.0
  0
LINE
  5
1BF
  8
05
 10
99.711667
 20
218.058858
 30
0.0
 11
102.00725
 21
218.058858
 31
0.0
  0
ARC
  5
1C0
  8
05
 10
90.722586
 20
225.605157
 30
0.0
 40
3.0
 50
328.984929
 51
121.015071
  0
LINE
  5
1C1
  8
05
 10
80.476287
 20
225.558858
 30
0.0
 11
80.476287
 21
221.058858
 31
0.0
  0
LINE
  5
1C2
  8
05
 10
81.676287
 20
237.330974
 30
0.0
 11
81.676287
 21
240.258858
 31
0.0
  0
TEXT
  5
1C3
  8
BEM1
 62
     3
 10
126.169938
 20
195.663843
 30
0.0
 40
3.5
  1
24.00 [0.945"]
 50
90.0
 41
0.7
 51
15.0
  0
LINE
  5
1C4
  8
05
 10
171.80677
 20
239.208858
 30
0.0
 11
171.80677
 21
175.908858
 31
0.0
  0
ARC
  5
1C5
  8
035
 10
161.30677
 20
193.308858
 30
0.0
 40
3.0
 50
0.0
 51
90.0
  0
LINE
  5
1C6
  8
05
 10
171.80677
 20
175.908858
 30
0.0
 11
183.80677
 21
175.908858
 31
0.0
  0
LINE
  5
1C7
  8
035
 10
171.80677
 20
193.308858
 30
0.0
 11
164.30677
 21
193.308858
 31
0.0
  0
LINE
  5
1C8
  8
05
 10
183.80677
 20
176.207787
 30
0.0
 11
193.70677
 21
175.908858
 31
0.0
  0
LINE
  5
1C9
  8
05
 10
183.80677
 20
176.207787
 30
0.0
 11
193.70677
 21
175.908858
 31
0.0
  0
LINE
  5
1CA
  8
05
 10
183.80677
 20
176.207787
 30
0.0
 11
183.80677
 21
175.908858
 31
0.0
  0
LINE
  5
1CB
  8
05
 10
183.80677
 20
176.207787
 30
0.0
 11
183.80677
 21
175.908858
 31
0.0
  0
ARC
  5
1CC
  8
05
 10
203.90677
 20
178.158858
 30
0.0
 40
4.5
 50
210.0
 51
270.0
  0
POLYLINE
  5
1CD
  8
05
 66
     1
 10
0.0
 20
0.0
 30
0.0
  0
VERTEX
  5
29E
  8
05
 10
202.40677
 20
176.165838
 30
0.0
 42
0.011094
  0
VERTEX
  5
29F
  8
05
 10
201.415029
 20
176.14383
 30
0.0
 42
0.015606
  0
VERTEX
  5
2A0
  8
05
 10
200.711754
 20
176.09057
 30
0.0
 42
0.036631
  0
VERTEX
  5
2A1
  8
05
 10
200.058254
 20
175.971636
 30
0.0
  0
VERTEX
  5
2A2
  8
05
 10
200.009655
 20
175.908858
 30
0.0
  0
SEQEND
  5
2A3
  8
05
  0
LINE
  5
1CE
  8
05
 10
193.70677
 20
175.908858
 30
0.0
 11
200.009655
 21
175.908858
 31
0.0
  0
LINE
  5
1CF
  8
05
 10
171.80677
 20
235.44883
 30
0.0
 11
180.900036
 21
241.139318
 31
0.0
  0
LINE
  5
1D0
  8
035
 10
161.30677
 20
213.376332
 30
0.0
 11
158.30677
 21
213.376332
 31
0.0
  0
LINE
  5
1D1
  8
035
 10
161.30677
 20
214.262392
 30
0.0
 11
158.30677
 21
214.262392
 31
0.0
  0
LINE
  5
1D2
  8
035
 10
161.30677
 20
208.355325
 30
0.0
 11
158.30677
 21
208.355325
 31
0.0
  0
LINE
  5
1D3
  8
035
 10
161.30677
 20
209.241385
 30
0.0
 11
158.30677
 21
209.241385
 31
0.0
  0
LINE
  5
1D4
  8
MITTE
 10
171.80677
 20
211.308858
 30
0.0
 11
157.281518
 21
211.308858
 31
0.0
  0
LINE
  5
1D5
  8
035
 10
170.30677
 20
215.958858
 30
0.0
 11
158.30677
 21
215.958858
 31
0.0
  0
LINE
  5
1D6
  8
035
 10
170.30677
 20
214.308858
 30
0.0
 11
158.30677
 21
214.308858
 31
0.0
  0
LINE
  5
1D7
  8
05
 10
159.80677
 20
218.058858
 30
0.0
 11
171.80677
 21
218.058858
 31
0.0
  0
LINE
  5
1D8
  8
035
 10
161.30677
 20
202.564807
 30
0.0
 11
158.30677
 21
202.564807
 31
0.0
  0
LINE
  5
1D9
  8
035
 10
161.30677
 20
203.317356
 30
0.0
 11
158.30677
 21
203.317356
 31
0.0
  0
LINE
  5
1DA
  8
035
 10
161.30677
 20
196.308858
 30
0.0
 11
158.30677
 21
196.308858
 31
0.0
  0
LINE
  5
1DB
  8
035
 10
161.30677
 20
198.300361
 30
0.0
 11
158.30677
 21
198.300361
 31
0.0
  0
LINE
  5
1DC
  8
035
 10
161.30677
 20
199.05291
 30
0.0
 11
158.30677
 21
199.05291
 31
0.0
  0
LINE
  5
1DD
  8
MITTE
 10
171.80677
 20
200.808858
 30
0.0
 11
157.281518
 21
200.808858
 31
0.0
  0
LINE
  5
1DE
  8
MITTE
 10
171.80677
 20
196.308858
 30
0.0
 11
157.281518
 21
196.308858
 31
0.0
  0
LINE
  5
1DF
  8
035
 10
170.30677
 20
203.808858
 30
0.0
 11
158.30677
 21
203.808858
 31
0.0
  0
LINE
  5
1E0
  8
05
 10
159.80677
 20
208.355325
 30
0.0
 11
159.80677
 21
203.808858
 31
0.0
  0
LINE
  5
1E1
  8
035
 10
158.30677
 20
203.808858
 30
0.0
 11
158.30677
 21
196.308858
 31
0.0
  0
LINE
  5
1E2
  8
035
 10
158.30677
 20
215.958858
 30
0.0
 11
158.30677
 21
208.308858
 31
0.0
  0
LINE
  5
1E3
  8
05
 10
159.80677
 20
218.058858
 30
0.0
 11
159.80677
 21
215.958858
 31
0.0
  0
LINE
  5
1E4
  8
05
 10
164.30677
 20
208.308858
 30
0.0
 11
164.30677
 21
203.808858
 31
0.0
  0
LINE
  5
1E5
  8
035
 10
171.80677
 20
197.808858
 30
0.0
 11
162.36965
 21
197.808858
 31
0.0
  0
POLYLINE
  5
1E6
  8
035
 66
     1
 10
0.0
 20
0.0
 30
0.0
  0
VERTEX
  5
2A4
  8
035
 10
164.30677
 20
200.563107
 30
0.0
 42
0.106355
  0
VERTEX
  5
2A5
  8
035
 10
164.082524
 20
201.605411
 30
0.0
 42
0.101408
  0
VERTEX
  5
2A6
  8
035
 10
163.42809
 20
202.510655
 30
0.0
 42
0.095116
  0
VERTEX
  5
2A7
  8
035
 10
162.46644
 20
203.104298
 30
0.0
 42
0.091099
  0
VERTEX
  5
2A8
  8
035
 10
161.30677
 20
203.317356
 30
0.0
 42
0.091099
  0
SEQEND
  5
2A9
  8
035
  0
POLYLINE
  5
1E7
  8
035
 66
     1
 10
0.0
 20
0.0
 30
0.0
  0
VERTEX
  5
2AA
  8
035
 10
164.054322
 20
200.563107
 30
0.0
 42
0.117963
  0
VERTEX
  5
2AB
  8
035
 10
163.860443
 20
201.262063
 30
0.0
 42
0.106098
  0
VERTEX
  5
2AC
  8
035
 10
163.250286
 20
201.96221
 30
0.0
 42
0.085686
  0
VERTEX
  5
2AD
  8
035
 10
162.390617
 20
202.400636
 30
0.0
 42
0.075306
  0
VERTEX
  5
2AE
  8
035
 10
161.30677
 20
202.564807
 30
0.0
 42
0.075306
  0
SEQEND
  5
2AF
  8
035
  0
POLYLINE
  5
1E8
  8
035
 66
     1
 10
0.0
 20
0.0
 30
0.0
  0
VERTEX
  5
2B0
  8
035
 10
161.30677
 20
198.300361
 30
0.0
  0
VERTEX
  5
2B1
  8
035
 10
161.436735
 20
198.29697
 30
0.0
  0
VERTEX
  5
2B2
  8
035
 10
161.565567
 20
198.230349
 30
0.0
  0
VERTEX
  5
2B3
  8
035
 10
161.694397
 20
198.119314
 30
0.0
  0
VERTEX
  5
2B4
  8
035
 10
161.792131
 20
198.043811
 30
0.0
  0
VERTEX
  5
2B5
  8
035
 10
161.929847
 20
197.91057
 30
0.0
  0
VERTEX
  5
2B6
  8
035
 10
162.04535
 20
197.84395
 30
0.0
  0
VERTEX
  5
2B7
  8
035
 10
162.227492
 20
197.821743
 30
0.0
  0
VERTEX
  5
2B8
  8
035
 10
162.36965
 20
197.808858
 30
0.0
  0
VERTEX
  5
2B9
  8
035
 10
162.578444
 20
197.826184
 30
0.0
  0
VERTEX
  5
2BA
  8
035
 10
162.836107
 20
197.883923
 30
0.0
  0
VERTEX
  5
2BB
  8
035
 10
163.124864
 20
198.034929
 30
0.0
  0
VERTEX
  5
2BC
  8
035
 10
163.418066
 20
198.305851
 30
0.0
  0
VERTEX
  5
2BD
  8
035
 10
163.666844
 20
198.5901
 30
0.0
  0
VERTEX
  5
2BE
  8
035
 10
163.902294
 20
198.994264
 30
0.0
  0
VERTEX
  5
2BF
  8
035
 10
164.097762
 20
199.433958
 30
0.0
  0
VERTEX
  5
2C0
  8
035
 10
164.231035
 20
199.918068
 30
0.0
  0
VERTEX
  5
2C1
  8
035
 10
164.30677
 20
200.563107
 30
0.0
  0
VERTEX
  5
2C2
  8
035
 10
164.30677
 20
200.563107
 30
0.0
  0
SEQEND
  5
2C3
  8
035
  0
POLYLINE
  5
1E9
  8
035
 66
     1
 10
0.0
 20
0.0
 30
0.0
  0
VERTEX
  5
2C4
  8
035
 10
161.30677
 20
199.05291
 30
0.0
  0
VERTEX
  5
2C5
  8
035
 10
161.427851
 20
199.034235
 30
0.0
  0
VERTEX
  5
2C6
  8
035
 10
161.601106
 20
198.972057
 30
0.0
  0
VERTEX
  5
2C7
  8
035
 10
161.734379
 20
198.856581
 30
0.0
  0
VERTEX
  5
2C8
  8
035
 10
161.894308
 20
198.701134
 30
0.0
  0
VERTEX
  5
2C9
  8
035
 10
162.067563
 20
198.554568
 30
0.0
  0
VERTEX
  5
2CA
  8
035
 10
162.276359
 20
198.474624
 30
0.0
  0
VERTEX
  5
2CB
  8
035
 10
162.467382
 20
198.452417
 30
0.0
  0
VERTEX
  5
2CC
  8
035
 10
162.658408
 20
198.487948
 30
0.0
  0
VERTEX
  5
2CD
  8
035
 10
162.960495
 20
198.603424
 30
0.0
  0
VERTEX
  5
2CE
  8
035
 10
163.213715
 20
198.78552
 30
0.0
  0
VERTEX
  5
2CF
  8
035
 10
163.538013
 20
199.171918
 30
0.0
  0
VERTEX
  5
2D0
  8
035
 10
163.755693
 20
199.500579
 30
0.0
  0
VERTEX
  5
2D1
  8
035
 10
163.973372
 20
199.895861
 30
0.0
  0
VERTEX
  5
2D2
  8
035
 10
164.035567
 20
200.220079
 30
0.0
  0
VERTEX
  5
2D3
  8
035
 10
164.054322
 20
200.563107
 30
0.0
  0
SEQEND
  5
2D4
  8
035
  0
LINE
  5
1EA
  8
05
 10
170.30677
 20
200.857222
 30
0.0
 11
170.30677
 21
206.3362
 31
0.0
  0
LINE
  5
1EB
  8
05
 10
171.80677
 20
200.857222
 30
0.0
 11
170.30677
 21
200.857222
 31
0.0
  0
LINE
  5
1EC
  8
05
 10
171.80677
 20
205.203888
 30
0.0
 11
170.30677
 21
205.203888
 31
0.0
  0
LINE
  5
1ED
  8
05
 10
171.80677
 20
206.3362
 30
0.0
 11
170.30677
 21
206.3362
 31
0.0
  0
LINE
  5
1EE
  8
035
 10
171.80677
 20
208.308858
 30
0.0
 11
162.225262
 21
208.308858
 31
0.0
  0
POLYLINE
  5
1EF
  8
035
 66
     1
 10
0.0
 20
0.0
 30
0.0
  0
VERTEX
  5
2D5
  8
035
 10
164.30677
 20
211.308858
 30
0.0
 42
0.099892
  0
VERTEX
  5
2D6
  8
035
 10
164.079129
 20
212.436918
 30
0.0
 42
0.099061
  0
VERTEX
  5
2D7
  8
035
 10
163.42809
 20
213.397322
 30
0.0
 42
0.097907
  0
VERTEX
  5
2D8
  8
035
 10
162.457026
 20
214.036871
 30
0.0
 42
0.097106
  0
VERTEX
  5
2D9
  8
035
 10
161.30677
 20
214.262392
 30
0.0
 42
0.097106
  0
SEQEND
  5
2DA
  8
035
  0
POLYLINE
  5
1F0
  8
035
 66
     1
 10
0.0
 20
0.0
 30
0.0
  0
VERTEX
  5
2DB
  8
035
 10
163.988974
 20
211.308858
 30
0.0
 42
0.123903
  0
VERTEX
  5
2DC
  8
035
 10
163.797188
 20
212.070916
 30
0.0
 42
0.105643
  0
VERTEX
  5
2DD
  8
035
 10
163.203374
 20
212.770783
 30
0.0
 42
0.087129
  0
VERTEX
  5
2DE
  8
035
 10
162.361789
 20
213.211995
 30
0.0
 42
0.077417
  0
VERTEX
  5
2DF
  8
035
 10
161.30677
 20
213.376332
 30
0.0
 42
0.077417
  0
SEQEND
  5
2E0
  8
035
  0
POLYLINE
  5
1F1
  8
035
 66
     1
 10
0.0
 20
0.0
 30
0.0
  0
VERTEX
  5
2E1
  8
035
 10
161.30677
 20
208.355325
 30
0.0
  0
VERTEX
  5
2E2
  8
035
 10
161.578229
 20
208.350983
 30
0.0
  0
VERTEX
  5
2E3
  8
035
 10
161.787804
 20
208.326807
 30
0.0
  0
VERTEX
  5
2E4
  8
035
 10
162.037682
 20
208.314719
 30
0.0
  0
VERTEX
  5
2E5
  8
035
 10
162.295621
 20
208.30666
 30
0.0
  0
VERTEX
  5
2E6
  8
035
 10
162.593861
 20
208.318749
 30
0.0
  0
VERTEX
  5
2E7
  8
035
 10
162.8518
 20
208.3671
 30
0.0
  0
VERTEX
  5
2E8
  8
035
 10
163.222588
 20
208.492009
 30
0.0
  0
VERTEX
  5
2E9
  8
035
 10
163.561131
 20
208.786148
 30
0.0
  0
VERTEX
  5
2EA
  8
035
 10
163.831161
 20
209.0682
 30
0.0
  0
VERTEX
  5
2EB
  8
035
 10
164.012524
 20
209.426809
 30
0.0
  0
VERTEX
  5
2EC
  8
035
 10
164.161646
 20
210.015087
 30
0.0
  0
VERTEX
  5
2ED
  8
035
 10
164.23822
 20
210.555015
 30
0.0
  0
VERTEX
  5
2EE
  8
035
 10
164.30677
 20
211.308858
 30
0.0
  0
SEQEND
  5
2EF
  8
035
  0
POLYLINE
  5
1F2
  8
035
 66
     1
 10
0.0
 20
0.0
 30
0.0
  0
VERTEX
  5
2F0
  8
035
 10
161.30677
 20
209.241385
 30
0.0
  0
VERTEX
  5
2F1
  8
035
 10
161.554047
 20
209.225343
 30
0.0
  0
VERTEX
  5
2F2
  8
035
 10
161.953046
 20
209.205196
 30
0.0
  0
VERTEX
  5
2F3
  8
035
 10
162.267409
 20
209.193109
 30
0.0
  0
VERTEX
  5
2F4
  8
035
 10
162.56162
 20
209.18505
 30
0.0
  0
VERTEX
  5
2F5
  8
035
 10
162.831648
 20
209.237431
 30
0.0
  0
VERTEX
  5
2F6
  8
035
 10
163.101678
 20
209.313988
 30
0.0
  0
VERTEX
  5
2F7
  8
035
 10
163.238708
 20
209.446955
 30
0.0
  0
VERTEX
  5
2F8
  8
035
 10
163.468436
 20
209.668567
 30
0.0
  0
VERTEX
  5
2F9
  8
035
 10
163.669949
 20
209.918385
 30
0.0
  0
VERTEX
  5
2FA
  8
035
 10
163.750555
 20
210.107762
 30
0.0
  0
VERTEX
  5
2FB
  8
035
 10
163.815041
 20
210.272963
 30
0.0
  0
VERTEX
  5
2FC
  8
035
 10
163.899677
 20
210.506663
 30
0.0
  0
VERTEX
  5
2FD
  8
035
 10
163.952071
 20
210.812891
 30
0.0
  0
VERTEX
  5
2FE
  8
035
 10
163.992374
 20
211.086885
 30
0.0
  0
VERTEX
  5
2FF
  8
035
 10
163.988974
 20
211.308858
 30
0.0
  0
SEQEND
  5
300
  8
035
  0
LINE
  5
1F3
  8
05
 10
164.30677
 20
218.058858
 30
0.0
 11
164.30677
 21
215.958858
 31
0.0
  0
LINE
  5
1F4
  8
05
 10
170.30677
 20
217.260495
 30
0.0
 11
170.30677
 21
211.781517
 31
0.0
  0
LINE
  5
1F5
  8
05
 10
171.80677
 20
211.781517
 30
0.0
 11
170.30677
 21
211.781517
 31
0.0
  0
LINE
  5
1F6
  8
05
 10
171.80677
 20
212.913829
 30
0.0
 11
170.30677
 21
212.913829
 31
0.0
  0
LINE
  5
1F7
  8
05
 10
171.80677
 20
217.260495
 30
0.0
 11
170.30677
 21
217.260495
 31
0.0
  0
LINE
  5
1F8
  8
035
 10
168.80677
 20
230.908458
 30
0.0
 11
158.30677
 21
230.908458
 31
0.0
  0
POLYLINE
  5
1F9
  8
035
 66
     1
 10
0.0
 20
0.0
 30
0.0
 70
     1
  0
VERTEX
  5
301
  8
035
 10
158.30677
 20
226.665817
 30
0.0
 42
0.133256
  0
VERTEX
  5
302
  8
035
 10
158.515821
 20
225.89535
 30
0.0
 42
0.106756
  0
VERTEX
  5
303
  8
035
 10
159.185449
 20
225.165817
 30
0.0
 42
0.082828
  0
VERTEX
  5
304
  8
035
 10
160.118309
 20
224.714962
 30
0.0
 42
0.071352
  0
VERTEX
  5
305
  8
035
 10
161.30677
 20
224.544497
 30
0.0
 42
0.071352
  0
VERTEX
  5
306
  8
035
 10
162.49523
 20
224.714962
 30
0.0
 42
0.082828
  0
VERTEX
  5
307
  8
035
 10
163.42809
 20
225.165817
 30
0.0
 42
0.106756
  0
VERTEX
  5
308
  8
035
 10
164.097719
 20
225.89535
 30
0.0
 42
0.133256
  0
VERTEX
  5
309
  8
035
 10
164.30677
 20
226.665817
 30
0.0
 42
0.133256
  0
VERTEX
  5
30A
  8
035
 10
164.097719
 20
227.436284
 30
0.0
 42
0.106756
  0
VERTEX
  5
30B
  8
035
 10
163.42809
 20
228.165817
 30
0.0
 42
0.082828
  0
VERTEX
  5
30C
  8
035
 10
162.49523
 20
228.616672
 30
0.0
 42
0.071352
  0
VERTEX
  5
30D
  8
035
 10
161.30677
 20
228.787138
 30
0.0
 42
0.071352
  0
VERTEX
  5
30E
  8
035
 10
160.118309
 20
228.616672
 30
0.0
 42
0.082828
  0
VERTEX
  5
30F
  8
035
 10
159.185449
 20
228.165817
 30
0.0
 42
0.106756
  0
VERTEX
  5
310
  8
035
 10
158.515821
 20
227.436284
 30
0.0
 42
0.133256
  0
SEQEND
  5
311
  8
035
  0
POLYLINE
  5
1FA
  8
035
 66
     1
 10
0.0
 20
0.0
 30
0.0
  0
VERTEX
  5
312
  8
035
 10
164.211541
 20
226.135487
 30
0.0
 42
0.043668
  0
VERTEX
  5
313
  8
035
 10
164.097719
 20
226.375624
 30
0.0
 42
0.106756
  0
VERTEX
  5
314
  8
035
 10
163.42809
 20
227.105157
 30
0.0
 42
0.082828
  0
VERTEX
  5
315
  8
035
 10
162.49523
 20
227.556012
 30
0.0
 42
0.071352
  0
VERTEX
  5
316
  8
035
 10
161.30677
 20
227.726477
 30
0.0
 42
0.071352
  0
VERTEX
  5
317
  8
035
 10
160.118309
 20
227.556012
 30
0.0
 42
0.082828
  0
VERTEX
  5
318
  8
035
 10
159.185449
 20
227.105157
 30
0.0
 42
0.106756
  0
VERTEX
  5
319
  8
035
 10
158.515821
 20
226.375624
 30
0.0
 42
0.043668
  0
VERTEX
  5
31A
  8
035
 10
158.401998
 20
226.135487
 30
0.0
 42
0.133256
  0
SEQEND
  5
31B
  8
035
  0
LINE
  5
1FB
  8
035
 10
168.80677
 20
221.362516
 30
0.0
 11
158.30677
 21
221.362516
 31
0.0
  0
LINE
  5
1FC
  8
035
 10
168.80677
 20
222.423177
 30
0.0
 11
158.30677
 21
222.423177
 31
0.0
  0
POLYLINE
  5
1FD
  8
035
 66
     1
 10
0.0
 20
0.0
 30
0.0
  0
VERTEX
  5
31C
  8
035
 10
158.30677
 20
230.908458
 30
0.0
 42
0.071352
  0
VERTEX
  5
31D
  8
035
 10
157.118309
 20
230.737993
 30
0.0
 42
0.082828
  0
VERTEX
  5
31E
  8
035
 10
156.185449
 20
230.287138
 30
0.0
 42
0.106756
  0
VERTEX
  5
31F
  8
035
 10
155.515821
 20
229.557604
 30
0.0
 42
0.133256
  0
VERTEX
  5
320
  8
035
 10
155.30677
 20
228.787138
 30
0.0
 42
0.133256
  0
SEQEND
  5
321
  8
035
  0
LINE
  5
1FE
  8
035
 10
155.30677
 20
228.787138
 30
0.0
 11
155.30677
 21
223.483837
 31
0.0
  0
POLYLINE
  5
1FF
  8
035
 66
     1
 10
0.0
 20
0.0
 30
0.0
  0
VERTEX
  5
322
  8
035
 10
155.30677
 20
224.544497
 30
0.0
 42
0.133256
  0
VERTEX
  5
323
  8
035
 10
155.515821
 20
223.77403
 30
0.0
 42
0.106756
  0
VERTEX
  5
324
  8
035
 10
156.185449
 20
223.044497
 30
0.0
 42
0.082828
  0
VERTEX
  5
325
  8
035
 10
157.118309
 20
222.593642
 30
0.0
 42
0.071352
  0
VERTEX
  5
326
  8
035
 10
158.30677
 20
222.423177
 30
0.0
 42
0.071352
  0
SEQEND
  5
327
  8
035
  0
POLYLINE
  5
200
  8
035
 66
     1
 10
0.0
 20
0.0
 30
0.0
  0
VERTEX
  5
328
  8
035
 10
155.30677
 20
223.483837
 30
0.0
 42
0.133256
  0
VERTEX
  5
329
  8
035
 10
155.515821
 20
222.71337
 30
0.0
 42
0.106756
  0
VERTEX
  5
32A
  8
035
 10
156.185449
 20
221.983837
 30
0.0
 42
0.082828
  0
VERTEX
  5
32B
  8
035
 10
157.118309
 20
221.532982
 30
0.0
 42
0.071352
  0
VERTEX
  5
32C
  8
035
 10
158.30677
 20
221.362516
 30
0.0
 42
0.071352
  0
SEQEND
  5
32D
  8
035
  0
POLYLINE
  5
201
  8
035
 66
     1
 10
0.0
 20
0.0
 30
0.0
  0
VERTEX
  5
32E
  8
035
 10
168.80677
 20
230.908458
 30
0.0
 42
-0.071352
  0
VERTEX
  5
32F
  8
035
 10
169.99523
 20
230.737993
 30
0.0
 42
-0.082828
  0
VERTEX
  5
330
  8
035
 10
170.92809
 20
230.287138
 30
0.0
 42
-0.106756
  0
VERTEX
  5
331
  8
035
 10
171.597719
 20
229.557604
 30
0.0
 42
-0.133256
  0
VERTEX
  5
332
  8
035
 10
171.80677
 20
228.787138
 30
0.0
 42
-0.133256
  0
SEQEND
  5
333
  8
035
  0
POLYLINE
  5
202
  8
035
 66
     1
 10
0.0
 20
0.0
 30
0.0
  0
VERTEX
  5
334
  8
035
 10
171.80677
 20
223.483837
 30
0.0
 42
-0.133256
  0
VERTEX
  5
335
  8
035
 10
171.597719
 20
222.71337
 30
0.0
 42
-0.106756
  0
VERTEX
  5
336
  8
035
 10
170.92809
 20
221.983837
 30
0.0
 42
-0.082828
  0
VERTEX
  5
337
  8
035
 10
169.99523
 20
221.532982
 30
0.0
 42
-0.071352
  0
VERTEX
  5
338
  8
035
 10
168.80677
 20
221.362516
 30
0.0
 42
-0.071352
  0
SEQEND
  5
339
  8
035
  0
POLYLINE
  5
203
  8
035
 66
     1
 10
0.0
 20
0.0
 30
0.0
  0
VERTEX
  5
33A
  8
035
 10
171.80677
 20
224.544497
 30
0.0
 42
-0.133256
  0
VERTEX
  5
33B
  8
035
 10
171.597719
 20
223.77403
 30
0.0
 42
-0.106756
  0
VERTEX
  5
33C
  8
035
 10
170.92809
 20
223.044497
 30
0.0
 42
-0.082828
  0
VERTEX
  5
33D
  8
035
 10
169.99523
 20
222.593642
 30
0.0
 42
-0.071352
  0
VERTEX
  5
33E
  8
035
 10
168.80677
 20
222.423177
 30
0.0
 42
-0.071352
  0
SEQEND
  5
33F
  8
035
  0
LINE
  5
204
  8
05
 10
184.70677
 20
222.558858
 30
0.0
 11
184.70677
 21
195.558858
 31
0.0
  0
ARC
  5
205
  8
025
 10
165.110341
 20
209.058858
 30
0.0
 40
23.796429
 50
325.437003
 51
34.562997
  0
ARC
  5
206
  8
05
 10
204.558254
 20
209.058858
 30
0.0
 40
4.475901
 50
90.0
 51
270.0
  0
ARC
  5
207
  8
05
 10
102.676287
 20
245.058858
 30
0.0
 40
10.5
 50
0.0
 51
90.0
  0
LINE
  5
208
  8
BEM1
 10
102.676287
 20
246.41603
 30
0.0
 11
102.676287
 21
268.580154
 31
0.0
  0
ARC
  5
209
  8
05
 10
74.176287
 20
209.058858
 30
0.0
 40
35.4
 50
71.096025
 51
75.038982
  0
SOLID
  5
20A
  8
BEM1
 10
99.176287
 20
266.496821
 30
0.0
 11
99.176287
 21
267.663487
 31
0.0
 12
102.676287
 22
267.080154
 32
0.0
 13
102.676287
 23
267.080154
 33
0.0
  0
SOLID
  5
20B
  8
BEM1
 10
129.250743
 20
241.558858
 30
0.0
 11
128.084076
 21
241.558858
 31
0.0
 12
128.667409
 22
245.058858
 32
0.0
 13
128.667409
 23
245.058858
 33
0.0
  0
LINE
  5
20C
  8
BEM1
 10
171.80677
 20
241.893838
 30
0.0
 11
171.80677
 21
268.080154
 31
0.0
  0
SOLID
  5
20D
  8
BEM1
 10
175.30677
 20
267.663487
 30
0.0
 11
175.30677
 21
266.496821
 31
0.0
 12
171.80677
 22
267.080154
 32
0.0
 13
171.80677
 23
267.080154
 33
0.0
  0
LINE
  5
20E
  8
05
 10
202.40677
 20
243.558534
 30
0.0
 11
184.70677
 21
243.558534
 31
0.0
  0
LINE
  5
20F
  8
05
 10
184.70677
 20
244.458858
 30
0.0
 11
180.900036
 21
244.458858
 31
0.0
  0
LINE
  5
210
  8
05
 10
184.70677
 20
244.458858
 30
0.0
 11
184.70677
 21
243.558534
 31
0.0
  0
LINE
  5
211
  8
05
 10
202.40677
 20
243.558534
 30
0.0
 11
202.40677
 21
243.220846
 31
0.0
  0
LINE
  5
212
  8
BEM1
 10
226.70677
 20
151.37162
 30
0.0
 11
226.70677
 21
142.760269
 31
0.0
  0
SOLID
  5
213
  8
BEM1
 10
223.20677
 20
144.343602
 30
0.0
 11
223.20677
 21
143.176936
 31
0.0
 12
226.70677
 22
143.760269
 32
0.0
 13
226.70677
 23
143.760269
 33
0.0
  0
LINE
  5
214
  8
BEM1
 10
300.113159
 20
168.801568
 30
0.0
 11
353.948194
 21
214.784489
 31
0.0
  0
LINE
  5
215
  8
BEM1
 10
298.530677
 20
243.939862
 30
0.0
 11
352.030677
 21
243.939862
 31
0.0
  0
TEXT
  5
216
  8
BEM1
 62
     3
 10
314.965209
 20
245.689862
 30
0.0
 40
3.5
  1
19.00 [0.748"]
 41
0.7
 51
15.0
  0
TEXT
  5
217
  8
035
 62
     3
 10
292.421113
 20
267.731087
 30
0.0
 40
3.5
  1
Frontplattenausschnitt (Rückseite)
  7
ARIAL
  0
LINE
  5
218
  8
MITTE
 10
324.912618
 20
191.793028
 30
0.0
 11
363.934602
 21
191.793028
 31
0.0
  0
CIRCLE
  5
219
  8
05
 10
327.030677
 20
191.793028
 30
0.0
 40
35.4
  0
LINE
  5
21A
  8
BEM1
 10
304.680677
 20
155.793028
 30
0.0
 11
377.453964
 21
155.793028
 31
0.0
  0
LINE
  5
21B
  8
BEM1
 10
298.530677
 20
161.943028
 30
0.0
 11
298.530677
 21
245.439862
 31
0.0
  0
LINE
  5
21C
  8
05
 10
234.80677
 20
243.258858
 30
0.0
 11
234.80677
 21
173.658858
 31
0.0
  0
LINE
  5
21D
  8
05
 10
220.70677
 20
255.558858
 30
0.0
 11
220.70677
 21
162.558858
 31
0.0
  0
LINE
  5
21E
  8
05
 10
226.70677
 20
254.358858
 30
0.0
 11
226.70677
 21
163.758858
 31
0.0
  0
TEXT
  5
21F
  8
BEM1
 62
     3
 10
239.584021
 20
154.12162
 30
0.0
 40
3.5
  1
2.70 [0.106"]
 41
0.7
 51
15.0
  0
CIRCLE
  5
220
  8
BEM1
 10
226.70677
 20
152.37162
 30
0.0
 40
0.7
  0
ARC
  5
221
  8
05
 10
225.50677
 20
163.758858
 30
0.0
 40
1.2
 50
270.0
 51
0.0
  0
SOLID
  5
222
  8
BEM1
 10
217.20677
 20
151.788287
 30
0.0
 11
217.20677
 21
152.954953
 31
0.0
 12
220.70677
 22
152.37162
 32
0.0
 13
220.70677
 23
152.37162
 33
0.0
  0
LINE
  5
223
  8
BEM1
 10
220.70677
 20
160.080837
 30
0.0
 11
220.70677
 21
150.87162
 31
0.0
  0
LINE
  5
224
  8
05
 10
225.50677
 20
162.558858
 30
0.0
 11
220.70677
 21
162.558858
 31
0.0
  0
LINE
  5
225
  8
BEM1
 10
226.70677
 20
160.454413
 30
0.0
 11
226.70677
 21
150.798151
 31
0.0
  0
LINE
  5
226
  8
BEM1
 10
234.80677
 20
170.914523
 30
0.0
 11
234.80677
 21
150.798151
 31
0.0
  0
SOLID
  5
227
  8
BEM1
 10
238.30677
 20
151.788287
 30
0.0
 11
238.30677
 21
152.954953
 31
0.0
 12
234.80677
 22
152.37162
 32
0.0
 13
234.80677
 23
152.37162
 33
0.0
  0
LINE
  5
228
  8
05
 10
234.80677
 20
173.658858
 30
0.0
 11
226.70677
 21
173.658858
 31
0.0
  0
TEXT
  5
229
  8
BEM1
 62
     3
 10
313.185041
 20
182.120854
 30
0.0
 40
3.5
  1
 %%c23.80 [0.937"]
 50
40.223105
 41
0.7
 51
15.0
  0
LINE
  5
22A
  8
MITTE
 10
290.252367
 20
191.793028
 30
0.0
 11
316.900925
 21
191.793028
 31
0.0
  0
CIRCLE
  5
22B
  8
05
 10
298.530677
 20
155.793028
 30
0.0
 40
4.65
  0
LINE
  5
22C
  8
MITTE
 10
298.530677
 20
150.543028
 30
0.0
 11
298.530677
 21
161.043028
 31
0.0
  0
LINE
  5
22D
  8
MITTE
 10
293.280677
 20
155.793028
 30
0.0
 11
303.780677
 21
155.793028
 31
0.0
  0
SOLID
  5
22E
  8
BEM1
 10
303.316192
 20
170.770263
 30
0.0
 11
302.55847
 21
171.657376
 31
0.0
 12
300.275994
 22
168.940653
 32
0.0
 13
300.275994
 23
168.940653
 33
0.0
  0
LINE
  5
22F
  8
MITTE
 10
327.030677
 20
192.66316
 30
0.0
 11
327.030677
 21
154.38473
 31
0.0
  0
LINE
  5
230
  8
035
 10
313.357253
 20
184.547685
 30
0.0
 11
312.40199
 21
182.821155
 31
0.0
  0
LINE
  5
231
  8
035
 10
313.794752
 20
184.305623
 30
0.0
 11
312.839489
 21
182.579093
 31
0.0
  0
LINE
  5
232
  8
035
 10
311.306961
 20
184.728188
 30
0.0
 11
313.357253
 21
184.547685
 31
0.0
  0
LINE
  5
233
  8
MITTE
 10
327.030677
 20
228.699088
 30
0.0
 11
327.030677
 21
200.543124
 31
0.0
  0
LINE
  5
234
  8
BEM1
 10
226.70677
 20
257.210427
 30
0.0
 11
226.70677
 21
268.080154
 31
0.0
  0
ARC
  5
235
  8
05
 10
225.50677
 20
254.358858
 30
0.0
 40
1.2
 50
0.0
 51
90.0
  0
LINE
  5
236
  8
05
 10
220.70677
 20
244.458858
 30
0.0
 11
220.70677
 21
243.220846
 31
0.0
  0
LINE
  5
237
  8
05
 10
225.50677
 20
255.558858
 30
0.0
 11
220.70677
 21
255.558858
 31
0.0
  0
LINE
  5
238
  8
05
 10
234.80677
 20
243.258858
 30
0.0
 11
226.70677
 21
243.258858
 31
0.0
  0
SOLID
  5
239
  8
BEM1
 10
223.20677
 20
267.663487
 30
0.0
 11
223.20677
 21
266.496821
 31
0.0
 12
226.70677
 22
267.080154
 32
0.0
 13
226.70677
 23
267.080154
 33
0.0
  0
TEXT
  5
23A
  8
035
 62
     3
 10
292.421113
 20
261.478238
 30
0.0
 40
3.0
  1
Panel cut out (rear side)
  7
ARIAL
  0
SOLID
  5
23B
  8
BEM1
 10
302.030677
 20
243.356528
 30
0.0
 11
302.030677
 21
244.523195
 31
0.0
 12
298.530677
 22
243.939862
 32
0.0
 13
298.530677
 23
243.939862
 33
0.0
  0
LINE
  5
23C
  8
BEM1
 10
355.530677
 20
233.943028
 30
0.0
 11
355.530677
 21
245.439862
 31
0.0
  0
LINE
  5
23D
  8
BEM1
 10
358.92965
 20
230.966273
 30
0.0
 11
375.281297
 21
243.478014
 31
0.0
  0
TEXT
  5
23E
  8
BEM1
 62
     3
 10
375.372226
 20
176.525805
 30
0.0
 40
3.5
  1
24.00 [0.945"]
 50
90.0
 41
0.7
 51
15.0
  0
LINE
  5
23F
  8
BEM1
 10
376.701435
 20
224.293028
 30
0.0
 11
376.701435
 21
155.793028
 31
0.0
  0
SOLID
  5
240
  8
BEM1
 10
377.284768
 20
159.293028
 30
0.0
 11
376.118102
 21
159.293028
 31
0.0
 12
376.701435
 22
155.793028
 32
0.0
 13
376.701435
 23
155.793028
 33
0.0
  0
LINE
  5
241
  8
BEM1
 10
361.680677
 20
227.793028
 30
0.0
 11
377.453964
 21
227.793028
 31
0.0
  0
SOLID
  5
242
  8
BEM1
 10
351.665719
 20
212.067766
 30
0.0
 11
350.907997
 21
212.954878
 31
0.0
 12
353.948194
 22
214.784489
 32
0.0
 13
353.948194
 23
214.784489
 33
0.0
  0
CIRCLE
  5
243
  8
05
 10
355.530677
 20
227.793028
 30
0.0
 40
4.65
  0
LINE
  5
244
  8
MITTE
 10
350.280677
 20
227.793028
 30
0.0
 11
360.780677
 21
227.793028
 31
0.0
  0
LINE
  5
245
  8
MITTE
 10
355.530677
 20
222.543028
 30
0.0
 11
355.530677
 21
233.043028
 31
0.0
  0
SOLID
  5
246
  8
BEM1
 10
362.063764
 20
232.629885
 30
0.0
 11
361.354803
 21
233.55643
 31
0.0
 12
358.92965
 22
230.966273
 32
0.0
 13
358.92965
 23
230.966273
 33
0.0
  0
SOLID
  5
247
  8
BEM1
 10
377.284768
 20
224.293028
 30
0.0
 11
376.118102
 21
224.293028
 31
0.0
 12
376.701435
 22
227.793028
 32
0.0
 13
376.701435
 23
227.793028
 33
0.0
  0
SOLID
  5
248
  8
BEM1
 10
352.030677
 20
243.356528
 30
0.0
 11
352.030677
 21
244.523195
 31
0.0
 12
355.530677
 22
243.939862
 32
0.0
 13
355.530677
 23
243.939862
 33
0.0
  0
LINE
  5
249
  8
BEM1
 10
375.281297
 20
243.478014
 30
0.0
 11
402.577331
 21
243.478014
 31
0.0
  0
TEXT
  5
24A
  8
BEM1
 62
     3
 10
375.814441
 20
244.840641
 30
0.0
 40
3.5
  1
%%c3.20 [0.126"]
 41
0.7
 51
15.0
  0
ENDSEC
  0
EOF
