  0
SECTION
  2
HEADER
  9
$ACADVER
  1
AC1009
  9
$INSBASE
 10
0.0
 20
0.0
 30
0.0
  9
$EXTMIN
 10
0.0
 20
0.0
 30
0.0
  9
$EXTMAX
 10
420.0
 20
297.0
 30
0.0
  9
$LIMMIN
 10
0.0
 20
0.0
  9
$LIMMAX
 10
410.0
 20
287.0
  9
$ORTHOMODE
 70
     1
  9
$REGENMODE
 70
     1
  9
$FILLMODE
 70
     1
  9
$QTEXTMODE
 70
     0
  9
$MIRRTEXT
 70
     1
  9
$DRAGMODE
 70
     2
  9
$LTSCALE
 40
5.0
  9
$OSMODE
 70
    32
  9
$ATTMODE
 70
     1
  9
$TEXTSIZE
 40
3.5
  9
$TRACEWID
 40
26.0
  9
$TEXTSTYLE
  7
STANDARD
  9
$CLAYER
  8
HILI
  9
$CELTYPE
  6
BYLAYER
  9
$CECOLOR
 62
   256
  9
$DIMSCALE
 40
1.0
  9
$DIMASZ
 40
3.5
  9
$DIMEXO
 40
0.8
  9
$DIMDLI
 40
8.0
  9
$DIMRND
 40
0.0
  9
$DIMDLE
 40
0.0
  9
$DIMEXE
 40
1.8
  9
$DIMTP
 40
0.0
  9
$DIMTM
 40
0.0
  9
$DIMTXT
 40
3.5
  9
$DIMCEN
 40
1.5
  9
$DIMTSZ
 40
0.0
  9
$DIMTOL
 70
     0
  9
$DIMLIM
 70
     0
  9
$DIMTIH
 70
     0
  9
$DIMTOH
 70
     0
  9
$DIMSE1
 70
     0
  9
$DIMSE2
 70
     0
  9
$DIMTAD
 70
     1
  9
$DIMZIN
 70
     0
  9
$DIMBLK
  1

  9
$DIMASO
 70
     1
  9
$DIMSHO
 70
     0
  9
$DIMPOST
  1

  9
$DIMAPOST
  1
"
  9
$DIMALT
 70
     0
  9
$DIMALTD
 70
     3
  9
$DIMALTF
 40
0.03937
  9
$DIMLFAC
 40
1.0
  9
$DIMTOFL
 70
     0
  9
$DIMTVP
 40
0.0
  9
$DIMTIX
 70
     0
  9
$DIMSOXD
 70
     0
  9
$DIMSAH
 70
     0
  9
$DIMBLK1
  1

  9
$DIMBLK2
  1

  9
$DIMSTYLE
  2
STANDARD
  9
$DIMCLRD
 70
     0
  9
$DIMCLRE
 70
     0
  9
$DIMCLRT
 70
     3
  9
$DIMTFAC
 40
1.0
  9
$DIMGAP
 40
0.09
  9
$LUNITS
 70
     2
  9
$LUPREC
 70
     2
  9
$SKETCHINC
 40
1.0
  9
$FILLETRAD
 40
0.0
  9
$AUNITS
 70
     0
  9
$AUPREC
 70
     0
  9
$MENU
  1
acad
  9
$ELEVATION
 40
0.0
  9
$PELEVATION
 40
0.0
  9
$THICKNESS
 40
0.0
  9
$LIMCHECK
 70
     0
  9
$BLIPMODE
 70
     0
  9
$CHAMFERA
 40
0.0
  9
$CHAMFERB
 40
0.0
  9
$SKPOLY
 70
     0
  9
$TDCREATE
 40
2449757.349143
  9
$TDUPDATE
 40
2451192.582264
  9
$TDINDWG
 40
0.115805
  9
$TDUSRTIMER
 40
0.115805
  9
$USRTIMER
 70
     1
  9
$ANGBASE
 50
0.0
  9
$ANGDIR
 70
     0
  9
$PDMODE
 70
     0
  9
$PDSIZE
 40
0.0
  9
$PLINEWID
 40
0.0
  9
$COORDS
 70
     2
  9
$SPLFRAME
 70
     0
  9
$SPLINETYPE
 70
     6
  9
$SPLINESEGS
 70
     8
  9
$ATTDIA
 70
     1
  9
$ATTREQ
 70
     1
  9
$HANDLING
 70
     1
  9
$HANDSEED
  5
A5B
  9
$SURFTAB1
 70
     6
  9
$SURFTAB2
 70
     6
  9
$SURFTYPE
 70
     6
  9
$SURFU
 70
     6
  9
$SURFV
 70
     6
  9
$UCSNAME
  2

  9
$UCSORG
 10
0.0
 20
0.0
 30
0.0
  9
$UCSXDIR
 10
1.0
 20
0.0
 30
0.0
  9
$UCSYDIR
 10
0.0
 20
1.0
 30
0.0
  9
$PUCSNAME
  2

  9
$PUCSORG
 10
0.0
 20
0.0
 30
0.0
  9
$PUCSXDIR
 10
1.0
 20
0.0
 30
0.0
  9
$PUCSYDIR
 10
0.0
 20
1.0
 30
0.0
  9
$USERI1
 70
     0
  9
$USERI2
 70
     0
  9
$USERI3
 70
     0
  9
$USERI4
 70
     0
  9
$USERI5
 70
     0
  9
$USERR1
 40
0.0
  9
$USERR2
 40
0.0
  9
$USERR3
 40
0.0
  9
$USERR4
 40
0.0
  9
$USERR5
 40
0.0
  9
$WORLDVIEW
 70
     1
  9
$SHADEDGE
 70
     3
  9
$SHADEDIF
 70
    70
  9
$TILEMODE
 70
     1
  9
$MAXACTVP
 70
    16
  9
$PLIMCHECK
 70
     0
  9
$PEXTMIN
 10
1.000000E+020
 20
1.000000E+020
 30
1.000000E+020
  9
$PEXTMAX
 10
-1.000000E+020
 20
-1.000000E+020
 30
-1.000000E+020
  9
$PLIMMIN
 10
0.0
 20
0.0
  9
$PLIMMAX
 10
12.0
 20
9.0
  9
$UNITMODE
 70
     0
  9
$VISRETAIN
 70
     0
  9
$PLINEGEN
 70
     0
  9
$PSLTSCALE
 70
     0
  0
ENDSEC
  0
SECTION
  2
TABLES
  0
TABLE
  2
VPORT
 70
     2
  0
VPORT
  2
*ACTIVE
 70
     0
 10
0.0
 20
0.0
 11
1.0
 21
1.0
 12
232.392071
 22
148.498862
 13
0.0
 23
0.0
 14
1.0
 24
1.0
 15
2.0
 25
2.0
 16
0.0
 26
0.0
 36
1.0
 17
0.0
 27
0.0
 37
0.0
 40
306.297232
 41
1.525
 42
50.0
 43
0.0
 44
0.0
 50
0.0
 51
0.0
 71
     0
 72
   500
 73
     1
 74
     0
 75
     0
 76
     0
 77
     0
 78
     0
  0
ENDTAB
  0
TABLE
  2
LTYPE
 70
     2
  0
LTYPE
  2
AUSGEZOGEN
 70
     0
  3
Ausgezogene Linie
 72
    65
 73
     0
 40
0.0
  0
LTYPE
  2
CENTER
 70
     0
  3
____ _ ____ _ ____ _ ____ _ ____ _ ____ _ ____
 72
    65
 73
     4
 40
2.0
 49
1.25
 49
-0.25
 49
0.25
 49
-0.25
  0
ENDTAB
  0
TABLE
  2
LAYER
 70
    10
  0
LAYER
  2
0
 70
     0
 62
     8
  6
AUSGEZOGEN
  0
LAYER
  2
05
 70
     0
 62
     2
  6
AUSGEZOGEN
  0
LAYER
  2
035
 70
     0
 62
     3
  6
AUSGEZOGEN
  0
LAYER
  2
RAHMEN
 70
     0
 62
     2
  6
AUSGEZOGEN
  0
LAYER
  2
BEM1
 70
     0
 62
     4
  6
AUSGEZOGEN
  0
LAYER
  2
MITTE
 70
     0
 62
     4
  6
CENTER
  0
LAYER
  2
SCHRAFFIERT
 70
     0
 62
     4
  6
AUSGEZOGEN
  0
LAYER
  2
025
 70
     0
 62
     4
  6
AUSGEZOGEN
  0
LAYER
  2
07
 70
     0
 62
     1
  6
AUSGEZOGEN
  0
LAYER
  2
HILI
 70
     0
 62
     7
  6
AUSGEZOGEN
  0
ENDTAB
  0
TABLE
  2
STYLE
 70
     5
  0
STYLE
  2
STANDARD
 70
     0
 40
0.0
 41
0.7
 50
15.0
 71
     0
 42
3.5
  3
txt
  4

  0
STYLE
  2
SCRIPTS
 70
     0
 40
0.0
 41
1.0
 50
0.0
 71
     0
 42
5.0
  3
scripts
  4

  0
STYLE
  2
HELV
 70
     0
 40
0.0
 41
0.8
 50
10.0
 71
     0
 42
2.0
  3
HELV.SHX
  4

  0
STYLE
  2
ARIAL
 70
     0
 40
0.0
 41
1.0
 50
0.0
 71
     0
 42
2.5
  3
txt
  4

  0
STYLE
  2
UNIV
 70
     0
 40
0.0
 41
1.0
 50
0.0
 71
     0
 42
6.0
  3
univ
  4

  0
ENDTAB
  0
TABLE
  2
VIEW
 70
     0
  0
ENDTAB
  0
TABLE
  2
UCS
 70
     0
  0
ENDTAB
  0
TABLE
  2
APPID
 70
     1
  0
APPID
  2
ACAD
 70
     0
  0
ENDTAB
  0
TABLE
  2
DIMSTYLE
 70
     1
  0
DIMSTYLE
  2
STANDARD
 70
     0
  3

  4

  5

  6

  7

 40
1.0
 41
0.18
 42
0.0625
 43
0.38
 44
0.18
 45
0.0
 46
0.0
 47
0.0
 48
0.0
140
0.18
141
0.09
142
0.0
143
25.4
144
1.0
145
0.0
146
1.0
147
0.09
 71
     0
 72
     0
 73
     1
 74
     1
 75
     0
 76
     0
 77
     0
 78
     0
170
     0
171
     2
172
     0
173
     0
174
     0
175
     0
176
     0
177
     0
178
     0
  0
ENDTAB
  0
ENDSEC
  0
SECTION
  2
BLOCKS
  0
BLOCK
  8
0
  2
$MODEL_SPACE
 70
     0
 10
0.0
 20
0.0
 30
0.0
  3
$MODEL_SPACE
  1

  0
ENDBLK
  5
6
  8
0
  0
BLOCK
 67
     1
  8
0
  2
$PAPER_SPACE
 70
     0
 10
0.0
 20
0.0
 30
0.0
  3
$PAPER_SPACE
  1

  0
ENDBLK
  5
9
 67
     1
  8
0
  0
BLOCK
  8
0
  2
ZKOPF
 70
     2
 10
0.0
 20
0.0
 30
0.0
  3
ZKOPF
  1

  0
ATTDEF
  5
299
  8
0
 62
     4
 10
-13.321429
 20
37.0
 30
0.0
 40
2.5
  1
Dobler
  7
SCRIPTS
 72
     1
 11
-8.5
 21
37.0
 31
0.0
  3
Name des Konstrukteurs ?
  2
NAME
 70
     0
  0
POLYLINE
  5
29A
  8
0
 62
     2
 66
     1
 10
0.0
 20
0.0
 30
0.0
  0
VERTEX
  5
915
  8
0
 62
     2
 10
-51.0
 20
0.0
 30
0.0
  0
VERTEX
  5
916
  8
0
 62
     2
 10
-51.0
 20
46.0
 30
0.0
  0
SEQEND
  5
917
  8
0
 62
     2
  0
POLYLINE
  5
29B
  8
0
 62
     2
 66
     1
 10
0.0
 20
0.0
 30
0.0
  0
VERTEX
  5
918
  8
0
 62
     2
 10
-17.0
 20
9.0
 30
0.0
  0
VERTEX
  5
919
  8
0
 62
     2
 10
-17.0
 20
46.0
 30
0.0
  0
SEQEND
  5
91A
  8
0
 62
     2
  0
POLYLINE
  5
29C
  8
0
 62
     2
 66
     1
 10
0.0
 20
0.0
 30
0.0
  0
VERTEX
  5
91B
  8
0
 62
     2
 10
-32.0
 20
26.0
 30
0.0
  0
VERTEX
  5
91C
  8
0
 62
     2
 10
-32.0
 20
46.0
 30
0.0
  0
SEQEND
  5
91D
  8
0
 62
     2
  0
POLYLINE
  5
29D
  8
0
 62
     2
 66
     1
 10
0.0
 20
0.0
 30
0.0
  0
VERTEX
  5
91E
  8
0
 62
     2
 10
-133.0
 20
41.0
 30
0.0
  0
VERTEX
  5
91F
  8
0
 62
     2
 10
-92.0
 20
41.0
 30
0.0
  0
SEQEND
  5
920
  8
0
 62
     2
  0
POLYLINE
  5
29E
  8
0
 62
     2
 66
     1
 10
0.0
 20
0.0
 30
0.0
  0
VERTEX
  5
921
  8
0
 62
     2
 10
-145.0
 20
0.0
 30
0.0
  0
VERTEX
  5
922
  8
0
 62
     2
 10
-145.0
 20
46.0
 30
0.0
  0
SEQEND
  5
923
  8
0
 62
     2
  0
POLYLINE
  5
29F
  8
0
 62
     2
 66
     1
 10
0.0
 20
0.0
 30
0.0
  0
VERTEX
  5
924
  8
0
 62
     2
 10
-158.0
 20
0.0
 30
0.0
  0
VERTEX
  5
925
  8
0
 62
     2
 10
-158.0
 20
46.0
 30
0.0
  0
SEQEND
  5
926
  8
0
 62
     2
  0
LINE
  5
2A0
  8
0
 62
     2
 10
-200.0
 20
6.0
 30
0.0
 11
-133.0
 21
6.0
 31
0.0
  0
POLYLINE
  5
2A1
  8
0
 62
     4
 66
     1
 10
0.0
 20
0.0
 30
0.0
  0
VERTEX
  5
927
  8
0
 62
     4
 10
-200.0
 20
11.0
 30
0.0
  0
VERTEX
  5
928
  8
0
 62
     4
 10
-133.0
 20
11.0
 30
0.0
  0
SEQEND
  5
929
  8
0
 62
     4
  0
POLYLINE
  5
2A2
  8
0
 62
     4
 66
     1
 10
0.0
 20
0.0
 30
0.0
  0
VERTEX
  5
92A
  8
0
 62
     4
 10
-200.0
 20
16.0
 30
0.0
  0
VERTEX
  5
92B
  8
0
 62
     4
 10
-133.0
 20
16.0
 30
0.0
  0
SEQEND
  5
92C
  8
0
 62
     4
  0
POLYLINE
  5
2A3
  8
0
 62
     4
 66
     1
 10
0.0
 20
0.0
 30
0.0
  0
VERTEX
  5
92D
  8
0
 62
     4
 10
-200.0
 20
21.0
 30
0.0
  0
VERTEX
  5
92E
  8
0
 62
     4
 10
-133.0
 20
21.0
 30
0.0
  0
SEQEND
  5
92F
  8
0
 62
     4
  0
POLYLINE
  5
2A4
  8
0
 62
     4
 66
     1
 10
0.0
 20
0.0
 30
0.0
  0
VERTEX
  5
930
  8
0
 62
     4
 10
-200.0
 20
26.0
 30
0.0
  0
VERTEX
  5
931
  8
0
 62
     4
 10
-133.0
 20
26.0
 30
0.0
  0
SEQEND
  5
932
  8
0
 62
     4
  0
POLYLINE
  5
2A5
  8
0
 62
     4
 66
     1
 10
0.0
 20
0.0
 30
0.0
  0
VERTEX
  5
933
  8
0
 62
     4
 10
-200.0
 20
31.0
 30
0.0
  0
VERTEX
  5
934
  8
0
 62
     4
 10
-133.0
 20
31.0
 30
0.0
  0
SEQEND
  5
935
  8
0
 62
     4
  0
POLYLINE
  5
2A6
  8
0
 62
     4
 66
     1
 10
0.0
 20
0.0
 30
0.0
  0
VERTEX
  5
936
  8
0
 62
     4
 10
-200.0
 20
36.0
 30
0.0
  0
VERTEX
  5
937
  8
0
 62
     4
 10
-133.0
 20
36.0
 30
0.0
  0
SEQEND
  5
938
  8
0
 62
     4
  0
POLYLINE
  5
2A7
  8
0
 62
     4
 66
     1
 10
0.0
 20
0.0
 30
0.0
  0
VERTEX
  5
939
  8
0
 62
     4
 10
-200.0
 20
41.0
 30
0.0
  0
VERTEX
  5
93A
  8
0
 62
     4
 10
-133.0
 20
41.0
 30
0.0
  0
SEQEND
  5
93B
  8
0
 62
     4
  0
TEXT
  5
2A8
  8
0
 62
     4
 10
-50.0
 20
6.0
 30
0.0
 40
1.5
  1
Zeichn. Nr.
 51
15.0
  0
TEXT
  5
2A9
  8
0
 62
     4
 10
-50.0
 20
23.0
 30
0.0
 40
1.5
  1
Ersetzt durch:         Blatt
 51
15.0
  0
TEXT
  5
2AA
  8
0
 62
     4
 10
-50.0
 20
38.0
 30
0.0
 40
1.5
  1
Gezeichnet
 51
15.0
  0
TEXT
  5
2AB
  8
0
 62
     4
 10
-50.0
 20
27.0
 30
0.0
 40
1.5
  1
Gesehen
 51
15.0
  0
TEXT
  5
2AC
  8
0
 62
     4
 10
-31.0
 20
42.0
 30
0.0
 40
1.5
  1
Datum     Name
 51
15.0
  0
TEXT
  5
2AD
  8
0
 62
     4
 10
-91.0
 20
42.0
 30
0.0
 40
1.5
  1
Werkstoff:      Massstab:
 51
15.0
  0
TEXT
  5
2AE
  8
0
 62
     4
 10
-132.0
 20
23.0
 30
0.0
 40
1.5
  1
Benennung:
 51
15.0
  0
LINE
  5
2AF
  8
0
 62
     2
 10
-133.0
 20
33.0
 30
0.0
 11
-92.0
 21
33.0
 31
0.0
  0
TEXT
  5
2B0
  8
0
 62
     4
 10
-132.0
 20
39.0
 30
0.0
 40
1.5
  1
*)Lieferant darf ohne 
 51
15.0
  0
TEXT
  5
2B1
  8
0
 62
     4
 10
-132.0
 20
36.5
 30
0.0
 40
1.5
  1
 Ruecksprache nicht 
 51
15.0
  0
TEXT
  5
2B2
  8
0
 62
     4
 10
-132.0
 20
34.0
 30
0.0
 40
1.5
  1
 geaendert werden
 51
15.0
  0
TEXT
  5
2B3
  8
0
 62
     4
 10
-132.0
 20
30.0
 30
0.0
 40
1.5
  1
Zeichnung urheberrechtlich
 51
15.0
  0
TEXT
  5
2B4
  8
0
 62
     4
 10
-132.0
 20
27.5
 30
0.0
 40
1.5
  1
geschuetzt (DIN 34) (C)
 51
15.0
  0
TEXT
  5
2B5
  8
0
 62
     4
 10
-50.0
 20
32.0
 30
0.0
 40
1.5
  1
Geprueft
 51
15.0
  0
TEXT
  5
2B6
  8
0
 62
     4
 10
-50.0
 20
15.0
 30
0.0
 40
1.5
  1
Ersatz fuer:           von  Blatt
 51
15.0
  0
TEXT
  5
2B7
  8
0
 62
     4
 10
-197.0
 20
1.0
 30
0.0
 40
1.5
  1
Ind.  Aenderung             Datum    Name
 51
15.0
  0
ATTDEF
  5
2B8
  8
0
 62
     4
 10
-28.875
 20
37.0
 30
0.0
 40
2.5
  1
01.10.91
 41
0.7
 51
15.0
 72
     1
 11
-24.5
 21
37.0
 31
0.0
  3
Datum der Zeichnung ?
  2
DATE
 70
     0
  0
ATTDEF
  5
2B9
  8
0
 62
     4
 10
-80.5
 20
36.0
 30
0.0
 40
2.5
  1

 41
0.7
 51
15.0
 72
     1
 11
-80.5
 21
36.0
 31
0.0
  3
Aus welchem Werkstoff ?
  2
WERKSTOFF
 70
     0
  0
ATTDEF
  5
2BA
  8
0
 62
     2
 10
-92.0
 20
12.5
 30
0.0
 40
5.0
  1

 41
0.7
 51
15.0
 72
     1
 11
-92.0
 21
12.5
 31
0.0
  3
Zeichnungsname ?
  2
BENENNUNG
 70
     0
  0
ATTDEF
  5
2BB
  8
0
 62
     3
 10
-90.265457
 20
21.082191
 30
0.0
 40
3.5
  1
()
 41
0.7
 51
15.0
 72
     1
 11
-89.040457
 21
21.082191
 31
0.0
  3
Zu welchem Produkt ?
  2
TEIL
 70
     0
  0
ATTDEF
  5
2BC
  8
0
 62
     3
 10
-20.550219
 20
1.976541
 30
0.0
 40
3.5
  1

 41
0.7
 51
15.0
 72
     1
 11
-20.550219
 21
1.976541
 31
0.0
  3
Zeichnungsnummer ?
  2
NUMMER
 70
     0
  0
ATTDEF
  5
2BD
  8
0
 62
     2
 10
-63.482672
 20
34.656056
 30
0.0
 40
5.0
  1
5:1
 41
0.7
 51
15.0
 72
     1
 11
-60.566005
 21
34.656056
 31
0.0
  3
Hauptmassstab:
  2
MASS
 70
     0
  0
ATTDEF
  5
2BE
  8
0
 62
     3
 10
-60.480701
 20
28.210451
 30
0.0
 40
3.5
  1

 41
0.7
 51
15.0
 72
     1
 11
-60.480701
 21
28.210451
 31
0.0
  3
Nebenmassstab:
  2
MASS2
 70
     0
  0
ATTDEF
  5
2BF
  8
0
 62
     4
 10
-81.0
 20
29.0
 30
0.0
 40
2.5
  1

 41
0.7
 51
15.0
 72
     1
 11
-81.0
 21
29.0
 31
0.0
  3
Werkstoffzusatz:
  2
TEIL
 70
     0
  0
ATTDEF
  5
2C0
  8
0
 62
     3
 10
-107.711452
 20
59.004319
 30
0.0
 40
3.5
  1
Freimasstoleranzen %%p0.1
 41
0.7
 51
15.0
  3
Freimasstoleranzen:
  2
TOL
 70
     0
  0
ATTDEF
  5
2C1
  8
0
 62
     3
 10
-107.711452
 20
54.004319
 30
0.0
 40
3.5
  1
nicht bemasste Radien R=0.2
 41
0.7
 51
15.0
  3
Nicht bemasste Radien:
  2
RADIEN
 70
     0
  0
ATTDEF
  5
2C2
  8
0
 62
     3
 10
-107.711452
 20
49.004319
 30
0.0
 40
3.5
  1
nicht bemasste Facetten 0.5 x 45%%D
 41
0.7
 51
15.0
  3
nicht bemasste Facetten:
  2
FACETTE
 70
     0
  0
POLYLINE
  5
2C3
  8
0
 62
     2
 66
     1
 10
0.0
 20
0.0
 30
0.0
  0
VERTEX
  5
93C
  8
0
 62
     2
 10
-191.0
 20
0.0
 30
0.0
  0
VERTEX
  5
93D
  8
0
 62
     2
 10
-191.0
 20
46.0
 30
0.0
  0
SEQEND
  5
93E
  8
0
 62
     2
  0
POLYLINE
  5
2C4
  8
0
 62
     2
 66
     1
 10
0.0
 20
0.0
 30
0.0
  0
VERTEX
  5
93F
  8
0
 62
     2
 10
-133.0
 20
0.0
 30
0.0
  0
VERTEX
  5
940
  8
0
 62
     2
 10
-133.0
 20
46.0
 30
0.0
  0
SEQEND
  5
941
  8
0
 62
     2
  0
POLYLINE
  5
2C5
  8
0
 62
     2
 66
     1
 10
0.0
 20
0.0
 30
0.0
  0
VERTEX
  5
942
  8
0
 62
     2
 10
-92.0
 20
26.0
 30
0.0
  0
VERTEX
  5
943
  8
0
 62
     2
 10
-92.0
 20
46.0
 30
0.0
  0
SEQEND
  5
944
  8
0
 62
     2
  0
POLYLINE
  5
2C6
  8
0
 62
     2
 66
     1
 10
0.0
 20
0.0
 30
0.0
  0
VERTEX
  5
945
  8
0
 62
     2
 10
-69.0
 20
26.0
 30
0.0
  0
VERTEX
  5
946
  8
0
 62
     2
 10
-69.0
 20
46.0
 30
0.0
  0
SEQEND
  5
947
  8
0
 62
     2
  0
ATTDEF
  5
2C7
  8
0
 62
     4
 10
-197.186267
 20
7.0
 30
0.0
 40
2.5
  1

 41
0.7
 51
15.0
  3
Index1:
  2
INDEX1
 70
     0
  0
ATTDEF
  5
2C8
  8
0
 62
     4
 10
-190.348743
 20
7.0
 30
0.0
 40
2.5
  1

 41
0.7
 51
15.0
  3
Aenderung1:
  2
A1
 70
     0
  0
ATTDEF
  5
2C9
  8
0
 62
     4
 10
-157.348743
 20
7.0
 30
0.0
 40
2.5
  1

 41
0.7
 51
15.0
  3
Datum1:
  2
DATUM1
 70
     0
  0
ATTDEF
  5
2CA
  8
0
 62
     4
 10
-144.46499
 20
7.0
 30
0.0
 40
2.5
  1

 41
0.7
 51
15.0
  3
Name1:
  2
NAME1
 70
     0
  0
ATTDEF
  5
2CB
  8
0
 62
     4
 10
-197.186267
 20
12.0
 30
0.0
 40
2.5
  1

 41
0.7
 51
15.0
  3
Index2:
  2
INDEX2
 70
     0
  0
ATTDEF
  5
2CC
  8
0
 62
     4
 10
-190.348743
 20
12.0
 30
0.0
 40
2.5
  1

 41
0.7
 51
15.0
  3
Aenderung2:
  2
A2
 70
     0
  0
ATTDEF
  5
2CD
  8
0
 62
     4
 10
-157.348743
 20
12.0
 30
0.0
 40
2.5
  1

 41
0.7
 51
15.0
  3
Datum2:
  2
DATUM2
 70
     0
  0
ATTDEF
  5
2CE
  8
0
 62
     4
 10
-144.46499
 20
12.0
 30
0.0
 40
2.5
  1

 41
0.7
 51
15.0
  3
Name2
  2
NAME2
 70
     0
  0
ATTDEF
  5
2CF
  8
0
 62
     4
 10
-197.186267
 20
17.0
 30
0.0
 40
2.5
  1

 41
0.7
 51
15.0
  3
Index3:
  2
INDEX3
 70
     0
  0
ATTDEF
  5
2D0
  8
0
 62
     4
 10
-190.348743
 20
17.0
 30
0.0
 40
2.5
  1

 41
0.7
 51
15.0
  3
Aenderung3
  2
A3
 70
     0
  0
ATTDEF
  5
2D1
  8
0
 62
     4
 10
-157.348743
 20
17.0
 30
0.0
 40
2.5
  1

 41
0.7
 51
15.0
  3
Datum3:
  2
DATUM3
 70
     0
  0
ATTDEF
  5
2D2
  8
0
 62
     4
 10
-144.46499
 20
17.0
 30
0.0
 40
2.5
  1

 41
0.7
 51
15.0
  3
Name3:
  2
NAME3
 70
     0
  0
ATTDEF
  5
2D3
  8
0
 62
     4
 10
-197.186267
 20
22.0
 30
0.0
 40
2.5
  1

 41
0.7
 51
15.0
  3
Index4:
  2
INDEX4
 70
     0
  0
ATTDEF
  5
2D4
  8
0
 62
     4
 10
-190.348743
 20
22.0
 30
0.0
 40
2.5
  1

 41
0.7
 51
15.0
  3
Aenderung4:
  2
A4
 70
     0
  0
ATTDEF
  5
2D5
  8
0
 62
     4
 10
-157.348743
 20
22.0
 30
0.0
 40
2.5
  1

 41
0.7
 51
15.0
  3
Datum4:
  2
DATUM4
 70
     0
  0
ATTDEF
  5
2D6
  8
0
 62
     4
 10
-144.46499
 20
22.0
 30
0.0
 40
2.5
  1

 41
0.7
 51
15.0
  3
Name4:
  2
NAME4
 70
     0
  0
ATTDEF
  5
2D7
  8
0
 62
     4
 10
-197.186267
 20
27.0
 30
0.0
 40
2.5
  1

 41
0.7
 51
15.0
  3
Index5:
  2
INDEX5
 70
     0
  0
ATTDEF
  5
2D8
  8
0
 62
     4
 10
-190.348743
 20
27.0
 30
0.0
 40
2.5
  1

 41
0.7
 51
15.0
  3
Aenderung5:
  2
A5
 70
     0
  0
ATTDEF
  5
2D9
  8
0
 62
     4
 10
-157.348743
 20
27.0
 30
0.0
 40
2.5
  1

 41
0.7
 51
15.0
  3
Datum5:
  2
DATUM5
 70
     0
  0
ATTDEF
  5
2DA
  8
0
 62
     4
 10
-144.46499
 20
27.0
 30
0.0
 40
2.5
  1

 41
0.7
 51
15.0
  3
Name5
  2
NAME5
 70
     0
  0
ATTDEF
  5
2DB
  8
0
 62
     4
 10
-197.186267
 20
32.0
 30
0.0
 40
2.5
  1

 41
0.7
 51
15.0
  3
Index6:
  2
INDEX6
 70
     0
  0
ATTDEF
  5
2DC
  8
0
 62
     4
 10
-190.348743
 20
32.0
 30
0.0
 40
2.5
  1

 41
0.7
 51
15.0
  3
Aenderung6:
  2
A6
 70
     0
  0
ATTDEF
  5
2DD
  8
0
 62
     4
 10
-157.348743
 20
32.0
 30
0.0
 40
2.5
  1

 41
0.7
 51
15.0
  3
Datum6:
  2
DATUM6
 70
     0
  0
ATTDEF
  5
2DE
  8
0
 62
     4
 10
-144.46499
 20
32.0
 30
0.0
 40
2.5
  1

 41
0.7
 51
15.0
  3
Name6:
  2
NAME6
 70
     0
  0
ATTDEF
  5
2DF
  8
0
 62
     4
 10
-197.186267
 20
37.0
 30
0.0
 40
2.5
  1

 41
0.7
 51
15.0
  3
Index7:
  2
INDEX7
 70
     0
  0
ATTDEF
  5
2E0
  8
0
 62
     4
 10
-190.348743
 20
37.0
 30
0.0
 40
2.5
  1

 41
0.7
 51
15.0
  3
Aenderung7:
  2
A7
 70
     0
  0
ATTDEF
  5
2E1
  8
0
 62
     4
 10
-157.348743
 20
37.0
 30
0.0
 40
2.5
  1

 41
0.7
 51
15.0
  3
Datum7:
  2
DATUM7
 70
     0
  0
ATTDEF
  5
2E2
  8
0
 62
     4
 10
-144.46499
 20
37.0
 30
0.0
 40
2.5
  1

 41
0.7
 51
15.0
  3
Name7:
  2
NAME7
 70
     0
  0
ATTDEF
  5
2E3
  8
0
 62
     4
 10
-197.186267
 20
42.0
 30
0.0
 40
2.5
  1

 41
0.7
 51
15.0
  3
Index8:
  2
INDEX8
 70
     0
  0
ATTDEF
  5
2E4
  8
0
 62
     4
 10
-190.348743
 20
42.0
 30
0.0
 40
2.5
  1

 41
0.7
 51
15.0
  3
Aenderung8:
  2
A8
 70
     0
  0
ATTDEF
  5
2E5
  8
0
 62
     4
 10
-157.348743
 20
42.0
 30
0.0
 40
2.5
  1

 41
0.7
 51
15.0
  3
Datum8:
  2
DATUM8
 70
     0
  0
ATTDEF
  5
2E6
  8
0
 62
     4
 10
-144.46499
 20
42.0
 30
0.0
 40
2.5
  1

 41
0.7
 51
15.0
  3
Name8:
  2
NAME8
 70
     0
  0
POLYLINE
  5
2E7
  8
0
 62
     2
 66
     1
 10
0.0
 20
0.0
 30
0.0
  0
VERTEX
  5
948
  8
0
 62
     2
 10
0.0
 20
0.0
 30
0.0
  0
VERTEX
  5
949
  8
0
 62
     2
 10
0.0
 20
46.0
 30
0.0
  0
SEQEND
  5
94A
  8
0
 62
     2
  0
POLYLINE
  5
2E8
  8
0
 62
     2
 66
     1
 10
0.0
 20
0.0
 30
0.0
  0
VERTEX
  5
94B
  8
0
 62
     2
 10
-200.0
 20
46.0
 30
0.0
  0
VERTEX
  5
94C
  8
0
 62
     2
 10
-200.0
 20
0.0
 30
0.0
  0
SEQEND
  5
94D
  8
0
 62
     2
  0
POLYLINE
  5
2E9
  8
0
 62
     2
 66
     1
 10
0.0
 20
0.0
 30
0.0
  0
VERTEX
  5
94E
  8
0
 62
     2
 10
0.0
 20
9.0
 30
0.0
  0
VERTEX
  5
94F
  8
0
 62
     2
 10
-133.0
 20
9.0
 30
0.0
  0
SEQEND
  5
950
  8
0
 62
     2
  0
POLYLINE
  5
2EA
  8
0
 62
     2
 66
     1
 10
0.0
 20
0.0
 30
0.0
  0
VERTEX
  5
951
  8
0
 62
     2
 10
0.0
 20
18.0
 30
0.0
  0
VERTEX
  5
952
  8
0
 62
     2
 10
-51.0
 20
18.0
 30
0.0
  0
SEQEND
  5
953
  8
0
 62
     2
  0
POLYLINE
  5
2EB
  8
0
 62
     2
 66
     1
 10
0.0
 20
0.0
 30
0.0
  0
VERTEX
  5
954
  8
0
 62
     2
 10
0.0
 20
26.0
 30
0.0
  0
VERTEX
  5
955
  8
0
 62
     2
 10
-133.0
 20
26.0
 30
0.0
  0
SEQEND
  5
956
  8
0
 62
     2
  0
POLYLINE
  5
2EC
  8
0
 62
     2
 66
     1
 10
0.0
 20
0.0
 30
0.0
  0
VERTEX
  5
957
  8
0
 62
     2
 10
0.0
 20
31.0
 30
0.0
  0
VERTEX
  5
958
  8
0
 62
     2
 10
-51.0
 20
31.0
 30
0.0
  0
SEQEND
  5
959
  8
0
 62
     2
  0
POLYLINE
  5
2ED
  8
0
 62
     2
 66
     1
 10
0.0
 20
0.0
 30
0.0
  0
VERTEX
  5
95A
  8
0
 62
     2
 10
0.0
 20
36.0
 30
0.0
  0
VERTEX
  5
95B
  8
0
 62
     2
 10
-51.0
 20
36.0
 30
0.0
  0
SEQEND
  5
95C
  8
0
 62
     2
  0
POLYLINE
  5
2EE
  8
0
 62
     2
 66
     1
 10
0.0
 20
0.0
 30
0.0
  0
VERTEX
  5
95D
  8
0
 62
     2
 10
0.0
 20
41.0
 30
0.0
  0
VERTEX
  5
95E
  8
0
 62
     2
 10
-51.0
 20
41.0
 30
0.0
  0
SEQEND
  5
95F
  8
0
 62
     2
  0
POLYLINE
  5
2EF
  8
0
 62
     2
 66
     1
 10
0.0
 20
0.0
 30
0.0
  0
VERTEX
  5
960
  8
0
 62
     2
 10
0.0
 20
46.0
 30
0.0
  0
VERTEX
  5
961
  8
0
 62
     2
 10
-200.0
 20
46.0
 30
0.0
  0
SEQEND
  5
962
  8
0
 62
     2
  0
TEXT
  5
2F0
  8
035
 10
517.653158
 20
512.84859
 30
0.0
 40
3.5
  1
  
 41
0.7
 51
15.0
  0
LINE
  5
2F1
  8
035
 10
-131.889278
 20
3.208952
 30
0.0
 11
-130.181445
 21
3.208952
 31
0.0
  0
LINE
  5
2F2
  8
035
 10
-131.338562
 20
5.693072
 30
0.0
 11
-129.320214
 21
5.693072
 31
0.0
  0
LINE
  5
2F3
  8
035
 10
-131.889278
 20
3.208952
 30
0.0
 11
-131.338562
 21
5.693072
 31
0.0
  0
LINE
  5
2F4
  8
035
 10
-130.181445
 20
3.208952
 30
0.0
 11
-129.871668
 21
4.60627
 31
0.0
  0
LINE
  5
2F5
  8
035
 10
-126.377637
 20
3.208952
 30
0.0
 11
-125.826921
 21
5.693072
 31
0.0
  0
LINE
  5
2F6
  8
035
 10
-127.775692
 20
4.60627
 30
0.0
 11
-127.534753
 21
5.693072
 31
0.0
  0
LINE
  5
2F7
  8
035
 10
-129.871668
 20
4.60627
 30
0.0
 11
-128.318356
 21
3.208952
 31
0.0
  0
LINE
  5
2F8
  8
035
 10
-129.320214
 20
5.693072
 30
0.0
 11
-127.775692
 21
4.60627
 31
0.0
  0
LINE
  5
2F9
  8
035
 10
-127.534753
 20
5.693072
 30
0.0
 11
-125.826921
 21
5.693072
 31
0.0
  0
LINE
  5
2FA
  8
035
 10
-128.318356
 20
3.208952
 30
0.0
 11
-126.377637
 21
3.208952
 31
0.0
  0
LINE
  5
2FB
  8
035
 10
-125.523721
 20
3.208952
 30
0.0
 11
-124.973005
 21
5.693072
 31
0.0
  0
LINE
  5
2FC
  8
035
 10
-123.718348
 20
3.648931
 30
0.0
 11
-123.572674
 21
4.306023
 31
0.0
  0
LINE
  5
2FD
  8
035
 10
-120.855668
 20
4.306023
 30
0.0
 11
-120.791381
 21
4.596001
 31
0.0
  0
LINE
  5
2FE
  8
035
 10
-120.865996
 20
3.208952
 30
0.0
 11
-120.768456
 21
3.648931
 31
0.0
  0
LINE
  5
2FF
  8
035
 10
-125.523721
 20
3.208952
 30
0.0
 11
-120.865996
 21
3.208952
 31
0.0
  0
LINE
  5
300
  8
035
 10
-124.973005
 20
5.693072
 30
0.0
 11
-120.31528
 21
5.693072
 31
0.0
  0
LINE
  5
301
  8
035
 10
-123.508387
 20
4.596001
 30
0.0
 11
-123.362713
 21
5.253094
 31
0.0
  0
LINE
  5
302
  8
035
 10
-120.412821
 20
5.253094
 30
0.0
 11
-120.31528
 21
5.693072
 31
0.0
  0
LINE
  5
303
  8
035
 10
-119.921488
 20
3.967747
 30
0.0
 11
-119.538993
 21
5.693072
 31
0.0
  0
LINE
  5
304
  8
035
 10
-118.170584
 20
4.181432
 30
0.0
 11
-117.835462
 21
5.693072
 31
0.0
  0
LINE
  5
305
  8
035
 10
-116.302927
 20
4.100887
 30
0.0
 11
-115.949949
 21
5.693072
 31
0.0
  0
LINE
  5
306
  8
035
 10
-114.655674
 20
3.847099
 30
0.0
 11
-114.246432
 21
5.693072
 31
0.0
  0
LINE
  5
307
  8
035
 10
-119.538993
 20
5.693072
 30
0.0
 11
-117.835462
 21
5.693072
 31
0.0
  0
POLYLINE
  5
308
  8
035
 66
     1
 10
0.0
 20
0.0
 30
0.0
  0
VERTEX
  5
963
  8
035
 10
-119.921488
 20
3.967747
 30
0.0
 42
0.053304
  0
VERTEX
  5
964
  8
035
 10
-119.927918
 20
3.907611
 30
0.0
 42
0.242955
  0
SEQEND
  5
965
  8
035
  0
POLYLINE
  5
309
  8
035
 66
     1
 10
0.0
 20
0.0
 30
0.0
  0
VERTEX
  5
966
  8
035
 10
-119.927918
 20
3.907611
 30
0.0
 42
0.242955
  0
VERTEX
  5
967
  8
035
 10
-119.808149
 20
3.675677
 30
0.0
 42
0.083039
  0
VERTEX
  5
968
  8
035
 10
-119.154862
 20
3.358693
 30
0.0
 42
0.041229
  0
VERTEX
  5
969
  8
035
 10
-118.372334
 20
3.197098
 30
0.0
 42
0.030317
  0
VERTEX
  5
96A
  8
035
 10
-117.28854
 20
3.131323
 30
0.0
 42
0.030317
  0
VERTEX
  5
96B
  8
035
 10
-116.204747
 20
3.197098
 30
0.0
 42
0.041229
  0
VERTEX
  5
96C
  8
035
 10
-115.422219
 20
3.358693
 30
0.0
 42
0.083039
  0
VERTEX
  5
96D
  8
035
 10
-114.768932
 20
3.675677
 30
0.0
 42
0.186877
  0
VERTEX
  5
96E
  8
035
 10
-114.655674
 20
3.847099
 30
0.0
 42
0.242955
  0
SEQEND
  5
96F
  8
035
  0
POLYLINE
  5
30A
  8
035
 66
     1
 10
0.0
 20
0.0
 30
0.0
  0
VERTEX
  5
970
  8
035
 10
-118.175358
 20
4.140497
 30
0.0
 42
0.199105
  0
VERTEX
  5
971
  8
035
 10
-118.123163
 20
4.014618
 30
0.0
 42
0.098437
  0
VERTEX
  5
972
  8
035
 10
-117.900493
 20
3.866038
 30
0.0
 42
0.055684
  0
VERTEX
  5
973
  8
035
 10
-117.619171
 20
3.784861
 30
0.0
 42
0.042444
  0
VERTEX
  5
974
  8
035
 10
-117.23691
 20
3.752353
 30
0.0
 42
0.042444
  0
VERTEX
  5
975
  8
035
 10
-116.854649
 20
3.784861
 30
0.0
 42
0.055684
  0
VERTEX
  5
976
  8
035
 10
-116.573327
 20
3.866038
 30
0.0
 42
0.098437
  0
VERTEX
  5
977
  8
035
 10
-116.350657
 20
4.014618
 30
0.0
 42
0.141327
  0
VERTEX
  5
978
  8
035
 10
-116.302927
 20
4.100887
 30
0.0
 42
0.199105
  0
SEQEND
  5
979
  8
035
  0
POLYLINE
  5
30B
  8
035
 66
     1
 10
0.0
 20
0.0
 30
0.0
  0
VERTEX
  5
97A
  8
035
 10
-118.170584
 20
4.181432
 30
0.0
 42
0.058115
  0
VERTEX
  5
97B
  8
035
 10
-118.175358
 20
4.140497
 30
0.0
 42
0.199105
  0
SEQEND
  5
97C
  8
035
  0
LINE
  5
30C
  8
035
 10
-115.949949
 20
5.693072
 30
0.0
 11
-114.246432
 21
5.693072
 31
0.0
  0
LINE
  5
30D
  8
035
 10
-113.932145
 20
5.072042
 30
0.0
 11
-113.794466
 21
5.693072
 31
0.0
  0
LINE
  5
30E
  8
035
 10
-112.792607
 20
3.208952
 30
0.0
 11
-112.37957
 21
5.072042
 31
0.0
  0
LINE
  5
30F
  8
035
 10
-111.084775
 20
3.208952
 30
0.0
 11
-110.671738
 21
5.072042
 31
0.0
  0
LINE
  5
310
  8
035
 10
-109.041534
 20
5.072042
 30
0.0
 11
-108.903855
 21
5.693072
 31
0.0
  0
LINE
  5
311
  8
035
 10
-113.932145
 20
5.072042
 30
0.0
 11
-112.37957
 21
5.072042
 31
0.0
  0
LINE
  5
312
  8
035
 10
-112.792607
 20
3.208952
 30
0.0
 11
-111.084775
 21
3.208952
 31
0.0
  0
LINE
  5
313
  8
035
 10
-113.794466
 20
5.693072
 30
0.0
 11
-108.903855
 21
5.693072
 31
0.0
  0
LINE
  5
314
  8
035
 10
-110.671738
 20
5.072042
 30
0.0
 11
-109.041534
 21
5.072042
 31
0.0
  0
LINE
  5
315
  8
035
 10
-108.91117
 20
3.208952
 30
0.0
 11
-108.360454
 21
5.693072
 31
0.0
  0
LINE
  5
316
  8
035
 10
-107.203338
 20
3.208952
 30
0.0
 11
-106.997985
 21
4.13524
 31
0.0
  0
LINE
  5
317
  8
035
 10
-108.91117
 20
3.208952
 30
0.0
 11
-107.203338
 21
3.208952
 31
0.0
  0
LINE
  5
318
  8
035
 10
-108.360454
 20
5.693072
 30
0.0
 11
-104.002078
 21
5.693072
 31
0.0
  0
LINE
  5
319
  8
035
 10
-103.691866
 20
3.468914
 30
0.0
 11
-103.651414
 21
4.047405
 31
0.0
  0
LINE
  5
31A
  8
035
 10
-105.404037
 20
3.406868
 30
0.0
 11
-105.372771
 21
3.861921
 31
0.0
  0
LINE
  5
31B
  8
035
 10
-106.933698
 20
4.425218
 30
0.0
 11
-106.750163
 21
5.253094
 31
0.0
  0
ARC
  5
31C
  8
035
 10
-103.304668
 20
3.441838
 30
0.0
 40
0.388144
 50
176.0
 51
216.869898
  0
ARC
  5
31D
  8
035
 10
-105.030247
 20
3.411905
 30
0.0
 40
0.373824
 50
180.772005
 51
212.881875
  0
LINE
  5
31E
  8
035
 10
-105.344182
 20
3.208952
 30
0.0
 11
-103.615183
 21
3.208952
 31
0.0
  0
POLYLINE
  5
31F
  8
035
 66
     1
 10
0.0
 20
0.0
 30
0.0
  0
VERTEX
  5
97D
  8
035
 10
-103.651414
 20
4.047405
 30
0.0
 42
0.084831
  0
VERTEX
  5
97E
  8
035
 10
-103.660284
 20
4.142982
 30
0.0
 42
0.153048
  0
VERTEX
  5
97F
  8
035
 10
-103.751613
 20
4.286875
 30
0.0
 42
0.025315
  0
VERTEX
  5
980
  8
035
 10
-103.797537
 20
4.321852
 30
0.0
 42
0.067948
  0
SEQEND
  5
981
  8
035
  0
POLYLINE
  5
320
  8
035
 66
     1
 10
0.0
 20
0.0
 30
0.0
  0
VERTEX
  5
982
  8
035
 10
-103.797537
 20
4.321852
 30
0.0
 42
0.015369
  0
VERTEX
  5
983
  8
035
 10
-103.68387
 20
4.380025
 30
0.0
 42
0.073981
  0
VERTEX
  5
984
  8
035
 10
-103.356816
 20
4.629409
 30
0.0
 42
0.106894
  0
VERTEX
  5
985
  8
035
 10
-103.152297
 20
4.956595
 30
0.0
 42
0.153048
  0
VERTEX
  5
986
  8
035
 10
-103.140863
 20
5.229042
 30
0.0
 42
0.153048
  0
VERTEX
  5
987
  8
035
 10
-103.286988
 20
5.459272
 30
0.0
 42
0.106894
  0
VERTEX
  5
988
  8
035
 10
-103.627701
 20
5.640364
 30
0.0
 42
0.067948
  0
VERTEX
  5
989
  8
035
 10
-104.002078
 20
5.693072
 30
0.0
 42
0.060566
  0
SEQEND
  5
98A
  8
035
  0
LINE
  5
321
  8
035
 10
-102.856129
 20
3.208952
 30
0.0
 11
-102.305412
 21
5.693072
 31
0.0
  0
LINE
  5
322
  8
035
 10
-101.148296
 20
3.208952
 30
0.0
 11
-100.59758
 21
5.693072
 31
0.0
  0
LINE
  5
323
  8
035
 10
-102.856129
 20
3.208952
 30
0.0
 11
-101.148296
 21
3.208952
 31
0.0
  0
LINE
  5
324
  8
035
 10
-102.305412
 20
5.693072
 30
0.0
 11
-100.59758
 21
5.693072
 31
0.0
  0
LINE
  5
325
  8
035
 10
-100.139123
 20
3.208952
 30
0.0
 11
-99.588406
 21
5.693072
 31
0.0
  0
LINE
  5
326
  8
035
 10
-98.508919
 20
3.208952
 30
0.0
 11
-98.37124
 21
3.829982
 31
0.0
  0
LINE
  5
327
  8
035
 10
-99.588406
 20
5.693072
 30
0.0
 11
-97.958203
 21
5.693072
 31
0.0
  0
LINE
  5
328
  8
035
 10
-100.139123
 20
3.208952
 30
0.0
 11
-98.508919
 21
3.208952
 31
0.0
  0
LINE
  5
329
  8
035
 10
-98.37124
 20
3.829982
 30
0.0
 11
-97.642556
 21
4.140497
 31
0.0
  0
LINE
  5
32A
  8
035
 10
-98.144475
 20
4.852855
 30
0.0
 11
-96.172742
 21
5.693072
 31
0.0
  0
LINE
  5
32B
  8
035
 10
-96.172742
 20
5.693072
 30
0.0
 11
-93.999137
 21
5.693072
 31
0.0
  0
LINE
  5
32C
  8
035
 10
-97.642556
 20
4.140497
 30
0.0
 11
-96.723458
 21
3.208952
 31
0.0
  0
LINE
  5
32D
  8
035
 10
-96.003018
 20
4.839156
 30
0.0
 11
-94.394596
 21
3.208952
 31
0.0
  0
LINE
  5
32E
  8
035
 10
-96.003018
 20
4.839156
 30
0.0
 11
-93.999137
 21
5.693072
 31
0.0
  0
LINE
  5
32F
  8
035
 10
-98.144475
 20
4.852855
 30
0.0
 11
-97.958203
 21
5.693072
 31
0.0
  0
LINE
  5
330
  8
035
 10
-96.723458
 20
3.208952
 30
0.0
 11
-94.394596
 21
3.208952
 31
0.0
  0
LINE
  5
331
  8
035
 10
-91.535849
 20
3.208952
 30
0.0
 11
-89.859713
 21
3.208952
 31
0.0
  0
LINE
  5
332
  8
035
 10
-89.672213
 20
5.693801
 30
0.0
 11
-86.717509
 21
5.693801
 31
0.0
  0
LINE
  5
333
  8
035
 10
-91.535849
 20
3.208952
 30
0.0
 11
-89.672213
 21
5.693801
 31
0.0
  0
LINE
  5
334
  8
035
 10
-86.717509
 20
5.693801
 30
0.0
 11
-86.096297
 21
3.208952
 31
0.0
  0
LINE
  5
335
  8
035
 10
-89.499689
 20
3.688984
 30
0.0
 11
-87.773968
 21
3.688984
 31
0.0
  0
LINE
  5
336
  8
035
 10
-89.219798
 20
4.062171
 30
0.0
 11
-87.867265
 21
4.062171
 31
0.0
  0
LINE
  5
337
  8
035
 10
-85.384981
 20
3.719952
 30
0.0
 11
-85.11662
 21
5.241907
 31
0.0
  0
LINE
  5
338
  8
035
 10
-80.632927
 20
3.208952
 30
0.0
 11
-80.440303
 21
4.301376
 31
0.0
  0
LINE
  5
339
  8
035
 10
-83.773875
 20
4.049318
 30
0.0
 11
-83.613979
 21
4.956134
 31
0.0
  0
LINE
  5
33A
  8
035
 10
-82.185958
 20
3.208952
 30
0.0
 11
-82.180952
 21
3.237338
 31
0.0
  0
LINE
  5
33B
  8
035
 10
-82.653819
 20
4.078649
 30
0.0
 11
-82.614546
 21
4.301376
 31
0.0
  0
LINE
  5
33C
  8
035
 10
-82.653819
 20
4.078649
 30
0.0
 11
-82.032607
 21
4.078649
 31
0.0
  0
ARC
  5
33D
  8
035
 10
-82.531573
 20
-8.003128
 30
0.0
 40
13.697153
 50
81.659895
 51
99.80279
  0
ARC
  5
33E
  8
035
 10
-83.091534
 20
16.90419
 30
0.0
 40
13.697153
 50
261.461473
 51
273.811815
  0
ARC
  5
33F
  8
035
 10
-84.810733
 20
5.187971
 30
0.0
 40
0.310606
 50
99.80279
 51
170.0
  0
ARC
  5
340
  8
035
 10
-85.079094
 20
3.666016
 30
0.0
 40
0.310606
 50
170.0
 51
261.461473
  0
ARC
  5
341
  8
035
 10
-80.58987
 20
5.24185
 30
0.0
 40
0.310606
 50
350.0
 51
81.659895
  0
LINE
  5
342
  8
035
 10
-81.898429
 20
4.963993
 30
0.0
 11
-80.323466
 21
4.963993
 31
0.0
  0
LINE
  5
343
  8
035
 10
-80.323466
 20
4.963993
 30
0.0
 11
-80.283983
 21
5.187914
 31
0.0
  0
LINE
  5
344
  8
035
 10
-82.052147
 20
3.967832
 30
0.0
 11
-82.032607
 21
4.078649
 31
0.0
  0
ARC
  5
345
  8
035
 10
-82.755724
 20
1.698274
 30
0.0
 40
3.561797
 50
80.208339
 51
99.781825
  0
ARC
  5
346
  8
035
 10
-82.989141
 20
7.211117
 30
0.0
 40
3.561797
 50
261.530468
 51
281.193068
  0
ARC
  5
347
  8
035
 10
-83.308092
 20
4.902198
 30
0.0
 40
0.310606
 50
99.781825
 51
170.0
  0
ARC
  5
348
  8
035
 10
-82.202807
 20
4.902103
 30
0.0
 40
0.310606
 50
11.493425
 51
80.208339
  0
ARC
  5
349
  8
035
 10
-83.467988
 20
3.995382
 30
0.0
 40
0.310606
 50
170.0
 51
261.530468
  0
ARC
  5
34A
  8
035
 10
-82.358034
 20
4.021768
 30
0.0
 40
0.310606
 50
281.193068
 51
350.0
  0
LINE
  5
34B
  8
035
 10
-82.185958
 20
3.208952
 30
0.0
 11
-80.632927
 21
3.208952
 31
0.0
  0
LINE
  5
34C
  8
035
 10
-87.65396
 20
3.208952
 30
0.0
 11
-86.096297
 21
3.208952
 31
0.0
  0
TEXT
  5
34D
  8
035
 62
     4
 10
-77.576926
 20
3.264636
 30
0.0
 40
2.484848
  1
FL-9494 SCHAAN
 41
0.7
 51
15.0
  7
HELV
  0
LINE
  5
34F
  8
035
 10
-123.362713
 20
5.253094
 30
0.0
 11
-120.412821
 21
5.253094
 31
0.0
  0
LINE
  5
350
  8
035
 10
-123.508387
 20
4.596001
 30
0.0
 11
-120.791381
 21
4.596001
 31
0.0
  0
LINE
  5
351
  8
035
 10
-123.572674
 20
4.306023
 30
0.0
 11
-120.855668
 21
4.306023
 31
0.0
  0
LINE
  5
352
  8
035
 10
-123.718348
 20
3.648931
 30
0.0
 11
-120.768456
 21
3.648931
 31
0.0
  0
LINE
  5
353
  8
0
 62
     4
 10
-94.088306
 20
5.655074
 30
0.0
 11
-94.050308
 21
5.693072
 31
0.0
  0
LINE
  5
354
  8
0
 62
     4
 10
-94.413108
 20
3.208952
 30
0.0
 11
-94.40379
 21
3.21827
 31
0.0
  0
LINE
  5
355
  8
035
 10
-106.750163
 20
5.253094
 30
0.0
 11
-105.343603
 21
5.253094
 31
0.0
  0
LINE
  5
356
  8
035
 10
-106.933698
 20
4.425218
 30
0.0
 11
-105.573373
 21
4.425218
 31
0.0
  0
LINE
  5
357
  8
035
 10
-106.997985
 20
4.13524
 30
0.0
 11
-105.5491
 21
4.13524
 31
0.0
  0
LINE
  5
358
  8
035
 10
-105.343603
 20
5.253094
 30
0.0
 11
-105.232586
 21
5.23493
 31
0.0
  0
LINE
  5
359
  8
035
 10
-105.232586
 20
5.23493
 30
0.0
 11
-105.136389
 21
5.186199
 31
0.0
  0
LINE
  5
35A
  8
035
 10
-105.136389
 20
5.186199
 30
0.0
 11
-105.090213
 21
5.111822
 31
0.0
  0
LINE
  5
35B
  8
035
 10
-105.090213
 20
5.111822
 30
0.0
 11
-105.054301
 21
5.022057
 31
0.0
  0
LINE
  5
35C
  8
035
 10
-105.054301
 20
5.022057
 30
0.0
 11
-105.053017
 21
4.9246
 31
0.0
  0
LINE
  5
35D
  8
035
 10
-105.053017
 20
4.9246
 30
0.0
 11
-105.063278
 21
4.783539
 31
0.0
  0
LINE
  5
35E
  8
035
 10
-105.063278
 20
4.783539
 30
0.0
 11
-105.114586
 21
4.697624
 31
0.0
  0
LINE
  5
35F
  8
035
 10
-105.114586
 20
4.697624
 30
0.0
 11
-105.20565
 21
4.591186
 31
0.0
  0
LINE
  5
360
  8
035
 10
-105.20565
 20
4.591186
 30
0.0
 11
-105.342894
 21
4.509116
 31
0.0
  0
LINE
  5
361
  8
035
 10
-105.342894
 20
4.509116
 30
0.0
 11
-105.473724
 21
4.442434
 31
0.0
  0
LINE
  5
362
  8
035
 10
-105.473724
 20
4.442434
 30
0.0
 11
-105.573373
 21
4.425218
 31
0.0
  0
LINE
  5
363
  8
035
 10
-105.5491
 20
4.13524
 30
0.0
 11
-105.466219
 21
4.123579
 31
0.0
  0
LINE
  5
364
  8
035
 10
-105.466219
 20
4.123579
 30
0.0
 11
-105.413019
 21
4.089933
 31
0.0
  0
LINE
  5
365
  8
035
 10
-105.413019
 20
4.089933
 30
0.0
 11
-105.380449
 21
4.036745
 31
0.0
  0
LINE
  5
366
  8
035
 10
-105.380449
 20
4.036745
 30
0.0
 11
-105.365249
 21
3.972704
 31
0.0
  0
LINE
  5
367
  8
035
 10
-105.365249
 20
3.972704
 30
0.0
 11
-105.372771
 21
3.861921
 31
0.0
  0
LINE
  5
368
  8
035
 10
-88.205398
 20
5.414705
 30
0.0
 11
-87.867265
 21
4.062171
 31
0.0
  0
LINE
  5
369
  8
035
 10
-89.219798
 20
4.062171
 30
0.0
 11
-88.205398
 21
5.414705
 31
0.0
  0
LINE
  5
36A
  8
035
 10
-87.773968
 20
3.688984
 30
0.0
 11
-87.65396
 21
3.208952
 31
0.0
  0
LINE
  5
36B
  8
035
 10
-89.859713
 20
3.208952
 30
0.0
 11
-89.499689
 21
3.688984
 31
0.0
  0
LINE
  5
36C
  8
035
 10
-82.614546
 20
4.301376
 30
0.0
 11
-80.440303
 21
4.301376
 31
0.0
  0
INSERT
  5
36D
  8
035
 62
     4
  2
*X1
 10
-280.0
 20
-100.0
 30
0.0
1001
ACAD
1000
HATCH
1002
{
1070
    16
1000
ANSI37,I
1040
1.8
1040
0.0
1002
}
  0
ENDBLK
  5
577
  8
0
  0
BLOCK
  8
0
  2
*X1
 70
     1
 10
0.0
 20
0.0
 30
0.0
  3
*X1
  1

  0
LINE
  5
36F
  8
0
 62
     0
 10
172.576127
 20
103.208952
 30
0.0
 11
172.85948
 21
103.492304
 31
0.0
  0
LINE
  5
370
  8
0
 62
     0
 10
174.620269
 20
105.253094
 30
0.0
 11
175.060247
 21
105.693072
 31
0.0
  0
LINE
  5
371
  8
0
 62
     0
 10
173.502415
 20
104.13524
 30
0.0
 11
173.792393
 21
104.425218
 31
0.0
  0
LINE
  5
372
  8
0
 62
     0
 10
172.257929
 20
103.208952
 30
0.0
 11
172.950116
 21
103.901139
 31
0.0
  0
LINE
  5
373
  8
0
 62
     0
 10
174.302071
 20
105.253094
 30
0.0
 11
174.742049
 21
105.693072
 31
0.0
  0
LINE
  5
374
  8
0
 62
     0
 10
173.184217
 20
104.13524
 30
0.0
 11
173.474195
 21
104.425218
 31
0.0
  0
LINE
  5
375
  8
0
 62
     0
 10
171.939731
 20
103.208952
 30
0.0
 11
173.155997
 21
104.425218
 31
0.0
  0
LINE
  5
376
  8
0
 62
     0
 10
173.983873
 20
105.253094
 30
0.0
 11
174.423851
 21
105.693072
 31
0.0
  0
LINE
  5
377
  8
0
 62
     0
 10
171.621533
 20
103.208952
 30
0.0
 11
173.131389
 21
104.718808
 31
0.0
  0
LINE
  5
378
  8
0
 62
     0
 10
173.665675
 20
105.253094
 30
0.0
 11
174.105653
 21
105.693072
 31
0.0
  0
LINE
  5
379
  8
0
 62
     0
 10
171.303335
 20
103.208952
 30
0.0
 11
173.222025
 21
105.127642
 31
0.0
  0
LINE
  5
37A
  8
0
 62
     0
 10
173.347477
 20
105.253094
 30
0.0
 11
173.787455
 21
105.693072
 31
0.0
  0
LINE
  5
37B
  8
0
 62
     0
 10
171.118366
 20
103.342181
 30
0.0
 11
173.469257
 21
105.693072
 31
0.0
  0
LINE
  5
37C
  8
0
 62
     0
 10
171.209002
 20
103.751015
 30
0.0
 11
173.151059
 21
105.693072
 31
0.0
  0
LINE
  5
37D
  8
0
 62
     0
 10
171.299639
 20
104.15985
 30
0.0
 11
172.832861
 21
105.693072
 31
0.0
  0
LINE
  5
37E
  8
0
 62
     0
 10
171.390275
 20
104.568684
 30
0.0
 11
172.514663
 21
105.693072
 31
0.0
  0
LINE
  5
37F
  8
0
 62
     0
 10
171.480911
 20
104.977519
 30
0.0
 11
172.196465
 21
105.693072
 31
0.0
  0
LINE
  5
380
  8
0
 62
     0
 10
171.571548
 20
105.386353
 30
0.0
 11
171.878267
 21
105.693072
 31
0.0
  0
LINE
  5
381
  8
0
 62
     0
 10
170.939039
 20
105.072042
 30
0.0
 11
170.963999
 21
105.097002
 31
0.0
  0
LINE
  5
382
  8
0
 62
     0
 10
168.757751
 20
103.208952
 30
0.0
 11
168.96008
 21
103.411282
 31
0.0
  0
LINE
  5
383
  8
0
 62
     0
 10
170.620841
 20
105.072042
 30
0.0
 11
171.054636
 21
105.505837
 31
0.0
  0
LINE
  5
384
  8
0
 62
     0
 10
168.439553
 20
103.208952
 30
0.0
 11
169.050717
 21
103.820116
 31
0.0
  0
LINE
  5
385
  8
0
 62
     0
 10
170.302643
 20
105.072042
 30
0.0
 11
170.923673
 21
105.693072
 31
0.0
  0
LINE
  5
386
  8
0
 62
     0
 10
168.121355
 20
103.208952
 30
0.0
 11
169.141353
 21
104.228951
 31
0.0
  0
LINE
  5
387
  8
0
 62
     0
 10
169.984445
 20
105.072042
 30
0.0
 11
170.605474
 21
105.693072
 31
0.0
  0
LINE
  5
388
  8
0
 62
     0
 10
167.803157
 20
103.208952
 30
0.0
 11
169.23199
 21
104.637785
 31
0.0
  0
LINE
  5
389
  8
0
 62
     0
 10
169.666246
 20
105.072042
 30
0.0
 11
170.287276
 21
105.693072
 31
0.0
  0
LINE
  5
38A
  8
0
 62
     0
 10
167.484959
 20
103.208952
 30
0.0
 11
169.322626
 21
105.04662
 31
0.0
  0
LINE
  5
38B
  8
0
 62
     0
 10
169.348048
 20
105.072042
 30
0.0
 11
169.969078
 21
105.693072
 31
0.0
  0
LINE
  5
38C
  8
0
 62
     0
 10
167.218966
 20
103.261158
 30
0.0
 11
169.65088
 21
105.693072
 31
0.0
  0
LINE
  5
38D
  8
0
 62
     0
 10
167.309603
 20
103.669992
 30
0.0
 11
169.332682
 21
105.693072
 31
0.0
  0
LINE
  5
38E
  8
0
 62
     0
 10
167.400239
 20
104.078827
 30
0.0
 11
169.014484
 21
105.693072
 31
0.0
  0
LINE
  5
38F
  8
0
 62
     0
 10
167.490876
 20
104.487661
 30
0.0
 11
168.696286
 21
105.693072
 31
0.0
  0
LINE
  5
390
  8
0
 62
     0
 10
167.581512
 20
104.896496
 30
0.0
 11
168.378088
 21
105.693072
 31
0.0
  0
LINE
  5
391
  8
0
 62
     0
 10
167.43886
 20
105.072042
 30
0.0
 11
168.05989
 21
105.693072
 31
0.0
  0
LINE
  5
392
  8
0
 62
     0
 10
167.120662
 20
105.072042
 30
0.0
 11
167.741692
 21
105.693072
 31
0.0
  0
LINE
  5
393
  8
0
 62
     0
 10
166.802464
 20
105.072042
 30
0.0
 11
167.423494
 21
105.693072
 31
0.0
  0
LINE
  5
394
  8
0
 62
     0
 10
164.888376
 20
103.476152
 30
0.0
 11
165.368539
 21
103.956315
 31
0.0
  0
LINE
  5
395
  8
0
 62
     0
 10
166.484266
 20
105.072042
 30
0.0
 11
167.105296
 21
105.693072
 31
0.0
  0
LINE
  5
396
  8
0
 62
     0
 10
164.405466
 20
103.31144
 30
0.0
 11
165.459175
 21
104.365149
 31
0.0
  0
LINE
  5
397
  8
0
 62
     0
 10
166.166068
 20
105.072042
 30
0.0
 11
166.787098
 21
105.693072
 31
0.0
  0
LINE
  5
398
  8
0
 62
     0
 10
164.002769
 20
103.226941
 30
0.0
 11
165.549811
 21
104.773984
 31
0.0
  0
LINE
  5
399
  8
0
 62
     0
 10
166.130516
 20
105.354688
 30
0.0
 11
166.4689
 21
105.693072
 31
0.0
  0
LINE
  5
39A
  8
0
 62
     0
 10
163.636859
 20
103.17923
 30
0.0
 11
165.640448
 21
105.182818
 31
0.0
  0
LINE
  5
39B
  8
0
 62
     0
 10
163.289411
 20
103.149979
 30
0.0
 11
165.731084
 21
105.591652
 31
0.0
  0
LINE
  5
39C
  8
0
 62
     0
 10
162.955891
 20
103.134657
 30
0.0
 11
165.514306
 21
105.693072
 31
0.0
  0
LINE
  5
39D
  8
0
 62
     0
 10
162.634688
 20
103.131652
 30
0.0
 11
163.335119
 21
103.832084
 31
0.0
  0
LINE
  5
39E
  8
0
 62
     0
 10
163.723606
 20
104.22057
 30
0.0
 11
165.196108
 21
105.693072
 31
0.0
  0
LINE
  5
39F
  8
0
 62
     0
 10
162.324518
 20
103.139681
 30
0.0
 11
162.944469
 21
103.759631
 31
0.0
  0
LINE
  5
3A0
  8
0
 62
     0
 10
163.814242
 20
104.629404
 30
0.0
 11
164.87791
 21
105.693072
 31
0.0
  0
LINE
  5
3A1
  8
0
 62
     0
 10
162.024343
 20
103.157703
 30
0.0
 11
162.623312
 21
103.756673
 31
0.0
  0
LINE
  5
3A2
  8
0
 62
     0
 10
163.904878
 20
105.038239
 30
0.0
 11
164.559711
 21
105.693072
 31
0.0
  0
LINE
  5
3A3
  8
0
 62
     0
 10
161.733306
 20
103.184864
 30
0.0
 11
162.340799
 21
103.792357
 31
0.0
  0
LINE
  5
3A4
  8
0
 62
     0
 10
163.995515
 20
105.447073
 30
0.0
 11
164.241513
 21
105.693072
 31
0.0
  0
LINE
  5
3A5
  8
0
 62
     0
 10
161.452007
 20
103.221764
 30
0.0
 11
162.097229
 21
103.866985
 31
0.0
  0
LINE
  5
3A6
  8
0
 62
     0
 10
161.184171
 20
103.272125
 30
0.0
 11
161.902409
 21
103.990363
 31
0.0
  0
LINE
  5
3A7
  8
0
 62
     0
 10
160.928758
 20
103.33491
 30
0.0
 11
161.844836
 21
104.250989
 31
0.0
  0
LINE
  5
3A8
  8
0
 62
     0
 10
160.687321
 20
103.411671
 30
0.0
 11
161.935473
 21
104.659823
 31
0.0
  0
LINE
  5
3A9
  8
0
 62
     0
 10
160.466718
 20
103.509267
 30
0.0
 11
162.026109
 21
105.068658
 31
0.0
  0
LINE
  5
3AA
  8
0
 62
     0
 10
160.265103
 20
103.62585
 30
0.0
 11
162.116745
 21
105.477492
 31
0.0
  0
LINE
  5
3AB
  8
0
 62
     0
 10
160.101894
 20
103.780839
 30
0.0
 11
162.014127
 21
105.693072
 31
0.0
  0
LINE
  5
3AC
  8
0
 62
     0
 10
160.109248
 20
104.106391
 30
0.0
 11
161.695929
 21
105.693072
 31
0.0
  0
LINE
  5
3AD
  8
0
 62
     0
 10
158.893611
 20
103.208952
 30
0.0
 11
159.202478
 21
103.517819
 31
0.0
  0
LINE
  5
3AE
  8
0
 62
     0
 10
160.199885
 20
104.515226
 30
0.0
 11
161.377731
 21
105.693072
 31
0.0
  0
LINE
  5
3AF
  8
0
 62
     0
 10
158.575413
 20
103.208952
 30
0.0
 11
159.015392
 21
103.648931
 31
0.0
  0
LINE
  5
3B0
  8
0
 62
     0
 10
160.290521
 20
104.92406
 30
0.0
 11
161.059533
 21
105.693072
 31
0.0
  0
LINE
  5
3B1
  8
0
 62
     0
 10
158.257215
 20
103.208952
 30
0.0
 11
158.697194
 21
103.648931
 31
0.0
  0
LINE
  5
3B2
  8
0
 62
     0
 10
160.381158
 20
105.332895
 30
0.0
 11
160.741335
 21
105.693072
 31
0.0
  0
LINE
  5
3B3
  8
0
 62
     0
 10
157.939017
 20
103.208952
 30
0.0
 11
158.378996
 21
103.648931
 31
0.0
  0
LINE
  5
3B4
  8
0
 62
     0
 10
159.036088
 20
104.306023
 30
0.0
 11
159.175165
 21
104.4451
 31
0.0
  0
LINE
  5
3B5
  8
0
 62
     0
 10
157.620819
 20
103.208952
 30
0.0
 11
158.060797
 21
103.648931
 31
0.0
  0
LINE
  5
3B6
  8
0
 62
     0
 10
158.71789
 20
104.306023
 30
0.0
 11
159.007868
 21
104.596001
 31
0.0
  0
LINE
  5
3B7
  8
0
 62
     0
 10
157.302621
 20
103.208952
 30
0.0
 11
157.742599
 21
103.648931
 31
0.0
  0
LINE
  5
3B8
  8
0
 62
     0
 10
159.346762
 20
105.253094
 30
0.0
 11
159.65566
 21
105.561991
 31
0.0
  0
LINE
  5
3B9
  8
0
 62
     0
 10
158.399692
 20
104.306023
 30
0.0
 11
158.68967
 21
104.596001
 31
0.0
  0
LINE
  5
3BA
  8
0
 62
     0
 10
156.984423
 20
103.208952
 30
0.0
 11
157.424401
 21
103.648931
 31
0.0
  0
LINE
  5
3BB
  8
0
 62
     0
 10
159.028564
 20
105.253094
 30
0.0
 11
159.468543
 21
105.693072
 31
0.0
  0
LINE
  5
3BC
  8
0
 62
     0
 10
158.081494
 20
104.306023
 30
0.0
 11
158.371472
 21
104.596001
 31
0.0
  0
LINE
  5
3BD
  8
0
 62
     0
 10
156.666225
 20
103.208952
 30
0.0
 11
157.106203
 21
103.648931
 31
0.0
  0
LINE
  5
3BE
  8
0
 62
     0
 10
158.710366
 20
105.253094
 30
0.0
 11
159.150345
 21
105.693072
 31
0.0
  0
LINE
  5
3BF
  8
0
 62
     0
 10
157.763296
 20
104.306023
 30
0.0
 11
158.053274
 21
104.596001
 31
0.0
  0
LINE
  5
3C0
  8
0
 62
     0
 10
156.348027
 20
103.208952
 30
0.0
 11
156.788005
 21
103.648931
 31
0.0
  0
LINE
  5
3C1
  8
0
 62
     0
 10
158.392168
 20
105.253094
 30
0.0
 11
158.832147
 21
105.693072
 31
0.0
  0
LINE
  5
3C2
  8
0
 62
     0
 10
157.445097
 20
104.306023
 30
0.0
 11
157.735076
 21
104.596001
 31
0.0
  0
LINE
  5
3C3
  8
0
 62
     0
 10
156.029829
 20
103.208952
 30
0.0
 11
156.469807
 21
103.648931
 31
0.0
  0
LINE
  5
3C4
  8
0
 62
     0
 10
158.07397
 20
105.253094
 30
0.0
 11
158.513948
 21
105.693072
 31
0.0
  0
LINE
  5
3C5
  8
0
 62
     0
 10
157.126899
 20
104.306023
 30
0.0
 11
157.416878
 21
104.596001
 31
0.0
  0
LINE
  5
3C6
  8
0
 62
     0
 10
155.711631
 20
103.208952
 30
0.0
 11
156.318694
 21
103.816016
 31
0.0
  0
LINE
  5
3C7
  8
0
 62
     0
 10
157.755772
 20
105.253094
 30
0.0
 11
158.19575
 21
105.693072
 31
0.0
  0
LINE
  5
3C8
  8
0
 62
     0
 10
156.808701
 20
104.306023
 30
0.0
 11
157.09868
 21
104.596001
 31
0.0
  0
LINE
  5
3C9
  8
0
 62
     0
 10
155.393433
 20
103.208952
 30
0.0
 11
156.409331
 21
104.22485
 31
0.0
  0
LINE
  5
3CA
  8
0
 62
     0
 10
157.437574
 20
105.253094
 30
0.0
 11
157.877552
 21
105.693072
 31
0.0
  0
LINE
  5
3CB
  8
0
 62
     0
 10
156.490503
 20
104.306023
 30
0.0
 11
156.780482
 21
104.596001
 31
0.0
  0
LINE
  5
3CC
  8
0
 62
     0
 10
155.075235
 20
103.208952
 30
0.0
 11
156.499967
 21
104.633685
 31
0.0
  0
LINE
  5
3CD
  8
0
 62
     0
 10
157.119376
 20
105.253094
 30
0.0
 11
157.559354
 21
105.693072
 31
0.0
  0
LINE
  5
3CE
  8
0
 62
     0
 10
154.757037
 20
103.208952
 30
0.0
 11
156.590603
 21
105.042519
 31
0.0
  0
LINE
  5
3CF
  8
0
 62
     0
 10
156.801178
 20
105.253094
 30
0.0
 11
157.241156
 21
105.693072
 31
0.0
  0
LINE
  5
3D0
  8
0
 62
     0
 10
154.486944
 20
103.257057
 30
0.0
 11
156.922958
 21
105.693072
 31
0.0
  0
LINE
  5
3D1
  8
0
 62
     0
 10
154.57758
 20
103.665892
 30
0.0
 11
156.60476
 21
105.693072
 31
0.0
  0
LINE
  5
3D2
  8
0
 62
     0
 10
154.668217
 20
104.074726
 30
0.0
 11
156.286562
 21
105.693072
 31
0.0
  0
LINE
  5
3D3
  8
0
 62
     0
 10
153.484244
 20
103.208952
 30
0.0
 11
153.661705
 21
103.386413
 31
0.0
  0
LINE
  5
3D4
  8
0
 62
     0
 10
154.758853
 20
104.483561
 30
0.0
 11
155.968364
 21
105.693072
 31
0.0
  0
LINE
  5
3D5
  8
0
 62
     0
 10
153.166046
 20
103.208952
 30
0.0
 11
153.752341
 21
103.795247
 31
0.0
  0
LINE
  5
3D6
  8
0
 62
     0
 10
154.849489
 20
104.892395
 30
0.0
 11
155.650166
 21
105.693072
 31
0.0
  0
LINE
  5
3D7
  8
0
 62
     0
 10
152.847848
 20
103.208952
 30
0.0
 11
153.842978
 21
104.204082
 31
0.0
  0
LINE
  5
3D8
  8
0
 62
     0
 10
154.940126
 20
105.30123
 30
0.0
 11
155.331968
 21
105.693072
 31
0.0
  0
LINE
  5
3D9
  8
0
 62
     0
 10
152.52965
 20
103.208952
 30
0.0
 11
153.933614
 21
104.612916
 31
0.0
  0
LINE
  5
3DA
  8
0
 62
     0
 10
152.211452
 20
103.208952
 30
0.0
 11
154.024251
 21
105.021751
 31
0.0
  0
LINE
  5
3DB
  8
0
 62
     0
 10
151.893254
 20
103.208952
 30
0.0
 11
154.114887
 21
105.430585
 31
0.0
  0
LINE
  5
3DC
  8
0
 62
     0
 10
151.625533
 20
103.259429
 30
0.0
 11
154.059176
 21
105.693072
 31
0.0
  0
LINE
  5
3DD
  8
0
 62
     0
 10
151.458022
 20
103.410117
 30
0.0
 11
153.740978
 21
105.693072
 31
0.0
  0
LINE
  5
3DE
  8
0
 62
     0
 10
151.290512
 20
103.560804
 30
0.0
 11
153.42278
 21
105.693072
 31
0.0
  0
LINE
  5
3DF
  8
0
 62
     0
 10
151.123002
 20
103.711492
 30
0.0
 11
152.103081
 21
104.691571
 31
0.0
  0
LINE
  5
3E0
  8
0
 62
     0
 10
152.283137
 20
104.871627
 30
0.0
 11
153.104582
 21
105.693072
 31
0.0
  0
LINE
  5
3E1
  8
0
 62
     0
 10
150.955491
 20
103.86218
 30
0.0
 11
151.916307
 21
104.822995
 31
0.0
  0
LINE
  5
3E2
  8
0
 62
     0
 10
152.373773
 20
105.280462
 30
0.0
 11
152.786384
 21
105.693072
 31
0.0
  0
LINE
  5
3E3
  8
0
 62
     0
 10
150.787981
 20
104.012868
 30
0.0
 11
151.729532
 21
104.954419
 31
0.0
  0
LINE
  5
3E4
  8
0
 62
     0
 10
152.46441
 20
105.689296
 30
0.0
 11
152.468186
 21
105.693072
 31
0.0
  0
LINE
  5
3E5
  8
0
 62
     0
 10
149.665868
 20
103.208952
 30
0.0
 11
149.862046
 21
103.405131
 31
0.0
  0
LINE
  5
3E6
  8
0
 62
     0
 10
150.620471
 20
104.163555
 30
0.0
 11
151.542758
 21
105.085842
 31
0.0
  0
LINE
  5
3E7
  8
0
 62
     0
 10
149.34767
 20
103.208952
 30
0.0
 11
149.952683
 21
103.813965
 31
0.0
  0
LINE
  5
3E8
  8
0
 62
     0
 10
150.45296
 20
104.314243
 30
0.0
 11
151.355983
 21
105.217266
 31
0.0
  0
LINE
  5
3E9
  8
0
 62
     0
 10
149.029472
 20
103.208952
 30
0.0
 11
150.043319
 21
104.2228
 31
0.0
  0
LINE
  5
3EA
  8
0
 62
     0
 10
150.28545
 20
104.464931
 30
0.0
 11
151.169209
 21
105.34869
 31
0.0
  0
LINE
  5
3EB
  8
0
 62
     0
 10
148.711274
 20
103.208952
 30
0.0
 11
150.982435
 21
105.480113
 31
0.0
  0
LINE
  5
3EC
  8
0
 62
     0
 10
148.393076
 20
103.208952
 30
0.0
 11
150.79566
 21
105.611537
 31
0.0
  0
LINE
  5
3ED
  8
0
 62
     0
 10
148.120932
 20
103.255007
 30
0.0
 11
150.558997
 21
105.693072
 31
0.0
  0
LINE
  5
3EE
  8
0
 62
     0
 10
148.211569
 20
103.663842
 30
0.0
 11
150.240799
 21
105.693072
 31
0.0
  0
LINE
  5
3EF
  8
0
 62
     0
 10
148.302205
 20
104.072676
 30
0.0
 11
149.922601
 21
105.693072
 31
0.0
  0
LINE
  5
3F0
  8
0
 62
     0
 10
148.392842
 20
104.481511
 30
0.0
 11
149.604403
 21
105.693072
 31
0.0
  0
LINE
  5
3F1
  8
0
 62
     0
 10
148.483478
 20
104.890345
 30
0.0
 11
149.286205
 21
105.693072
 31
0.0
  0
LINE
  5
3F2
  8
0
 62
     0
 10
148.574115
 20
105.29918
 30
0.0
 11
148.968007
 21
105.693072
 31
0.0
  0
LINE
  5
3F3
  8
0
 62
     0
 10
173.820613
 20
104.13524
 30
0.0
 11
174.110591
 21
104.425218
 31
0.0
  0
LINE
  5
3F4
  8
0
 62
     0
 10
174.86666
 20
105.181287
 30
0.0
 11
175.378445
 21
105.693072
 31
0.0
  0
LINE
  5
3F5
  8
0
 62
     0
 10
174.138811
 20
104.13524
 30
0.0
 11
174.429241
 21
104.42567
 31
0.0
  0
LINE
  5
3F6
  8
0
 62
     0
 10
174.946739
 20
104.943167
 30
0.0
 11
175.696643
 21
105.693072
 31
0.0
  0
LINE
  5
3F7
  8
0
 62
     0
 10
174.456256
 20
104.134486
 30
0.0
 11
176.014671
 21
105.692902
 31
0.0
  0
LINE
  5
3F8
  8
0
 62
     0
 10
174.630516
 20
103.990548
 30
0.0
 11
176.298943
 21
105.658976
 31
0.0
  0
LINE
  5
3F9
  8
0
 62
     0
 10
174.613
 20
103.654835
 30
0.0
 11
176.535113
 21
105.576948
 31
0.0
  0
LINE
  5
3FA
  8
0
 62
     0
 10
174.605261
 20
103.328897
 30
0.0
 11
176.725075
 21
105.448711
 31
0.0
  0
LINE
  5
3FB
  8
0
 62
     0
 10
174.803514
 20
103.208952
 30
0.0
 11
176.8509
 21
105.256338
 31
0.0
  0
LINE
  5
3FC
  8
0
 62
     0
 10
175.121712
 20
103.208952
 30
0.0
 11
176.221213
 21
104.308453
 31
0.0
  0
LINE
  5
3FD
  8
0
 62
     0
 10
176.266083
 20
104.353323
 30
0.0
 11
176.834229
 21
104.921469
 31
0.0
  0
LINE
  5
3FE
  8
0
 62
     0
 10
175.43991
 20
103.208952
 30
0.0
 11
176.345758
 21
104.1148
 31
0.0
  0
LINE
  5
3FF
  8
0
 62
     0
 10
177.629233
 20
105.398275
 30
0.0
 11
177.92403
 21
105.693072
 31
0.0
  0
LINE
  5
400
  8
0
 62
     0
 10
175.758108
 20
103.208952
 30
0.0
 11
176.329942
 21
103.780786
 31
0.0
  0
LINE
  5
401
  8
0
 62
     0
 10
177.538596
 20
104.98944
 30
0.0
 11
178.242228
 21
105.693072
 31
0.0
  0
LINE
  5
402
  8
0
 62
     0
 10
176.076306
 20
103.208952
 30
0.0
 11
176.307193
 21
103.439839
 31
0.0
  0
LINE
  5
403
  8
0
 62
     0
 10
177.44796
 20
104.580606
 30
0.0
 11
178.560426
 21
105.693072
 31
0.0
  0
LINE
  5
404
  8
0
 62
     0
 10
177.357323
 20
104.171772
 30
0.0
 11
178.878624
 21
105.693072
 31
0.0
  0
LINE
  5
405
  8
0
 62
     0
 10
177.266687
 20
103.762937
 30
0.0
 11
179.196822
 21
105.693072
 31
0.0
  0
LINE
  5
406
  8
0
 62
     0
 10
177.176051
 20
103.354103
 30
0.0
 11
179.370347
 21
105.548399
 31
0.0
  0
LINE
  5
407
  8
0
 62
     0
 10
177.349098
 20
103.208952
 30
0.0
 11
179.27971
 21
105.139564
 31
0.0
  0
LINE
  5
408
  8
0
 62
     0
 10
177.667296
 20
103.208952
 30
0.0
 11
179.189074
 21
104.73073
 31
0.0
  0
LINE
  5
409
  8
0
 62
     0
 10
177.985494
 20
103.208952
 30
0.0
 11
179.098437
 21
104.321895
 31
0.0
  0
LINE
  5
40A
  8
0
 62
     0
 10
180.395067
 20
105.618525
 30
0.0
 11
180.469614
 21
105.693072
 31
0.0
  0
LINE
  5
40B
  8
0
 62
     0
 10
178.303692
 20
103.208952
 30
0.0
 11
179.007801
 21
103.913061
 31
0.0
  0
LINE
  5
40C
  8
0
 62
     0
 10
180.30443
 20
105.20969
 30
0.0
 11
180.787812
 21
105.693072
 31
0.0
  0
LINE
  5
40D
  8
0
 62
     0
 10
178.62189
 20
103.208952
 30
0.0
 11
178.917164
 21
103.504226
 31
0.0
  0
LINE
  5
40E
  8
0
 62
     0
 10
180.213794
 20
104.800856
 30
0.0
 11
181.10601
 21
105.693072
 31
0.0
  0
LINE
  5
40F
  8
0
 62
     0
 10
180.123158
 20
104.392021
 30
0.0
 11
181.424208
 21
105.693072
 31
0.0
  0
LINE
  5
410
  8
0
 62
     0
 10
180.032521
 20
103.983187
 30
0.0
 11
181.742406
 21
105.693072
 31
0.0
  0
LINE
  5
411
  8
0
 62
     0
 10
179.941885
 20
103.574352
 30
0.0
 11
182.03644
 21
105.668908
 31
0.0
  0
LINE
  5
412
  8
0
 62
     0
 10
179.894683
 20
103.208952
 30
0.0
 11
181.945804
 21
105.260073
 31
0.0
  0
LINE
  5
413
  8
0
 62
     0
 10
180.212881
 20
103.208952
 30
0.0
 11
181.857718
 21
104.853789
 31
0.0
  0
LINE
  5
414
  8
0
 62
     0
 10
180.531079
 20
103.208952
 30
0.0
 11
182.412196
 21
105.09007
 31
0.0
  0
LINE
  5
415
  8
0
 62
     0
 10
180.849277
 20
103.208952
 30
0.0
 11
182.966675
 21
105.326351
 31
0.0
  0
LINE
  5
416
  8
0
 62
     0
 10
181.167475
 20
103.208952
 30
0.0
 11
181.583258
 21
103.624735
 31
0.0
  0
LINE
  5
417
  8
0
 62
     0
 10
181.907125
 20
103.948602
 30
0.0
 11
183.521154
 21
105.562631
 31
0.0
  0
LINE
  5
418
  8
0
 62
     0
 10
181.485673
 20
103.208952
 30
0.0
 11
181.492621
 21
103.215901
 31
0.0
  0
LINE
  5
419
  8
0
 62
     0
 10
182.38713
 20
104.110409
 30
0.0
 11
183.969793
 21
105.693072
 31
0.0
  0
LINE
  5
41A
  8
0
 62
     0
 10
182.545159
 20
103.95024
 30
0.0
 11
184.287991
 21
105.693072
 31
0.0
  0
LINE
  5
41B
  8
0
 62
     0
 10
182.703188
 20
103.790071
 30
0.0
 11
184.606189
 21
105.693072
 31
0.0
  0
LINE
  5
41C
  8
0
 62
     0
 10
182.861217
 20
103.629902
 30
0.0
 11
184.033479
 21
104.802165
 31
0.0
  0
LINE
  5
41D
  8
0
 62
     0
 10
184.12504
 20
104.893725
 30
0.0
 11
184.924387
 21
105.693072
 31
0.0
  0
LINE
  5
41E
  8
0
 62
     0
 10
183.019246
 20
103.469733
 30
0.0
 11
184.191508
 21
104.641995
 31
0.0
  0
LINE
  5
41F
  8
0
 62
     0
 10
184.679519
 20
105.130006
 30
0.0
 11
185.242585
 21
105.693072
 31
0.0
  0
LINE
  5
420
  8
0
 62
     0
 10
183.177275
 20
103.309564
 30
0.0
 11
184.349537
 21
104.481826
 31
0.0
  0
LINE
  5
421
  8
0
 62
     0
 10
185.233998
 20
105.366287
 30
0.0
 11
185.560783
 21
105.693072
 31
0.0
  0
LINE
  5
422
  8
0
 62
     0
 10
183.394861
 20
103.208952
 30
0.0
 11
184.507566
 21
104.321657
 31
0.0
  0
LINE
  5
423
  8
0
 62
     0
 10
185.788476
 20
105.602567
 30
0.0
 11
185.878981
 21
105.693072
 31
0.0
  0
LINE
  5
424
  8
0
 62
     0
 10
183.713059
 20
103.208952
 30
0.0
 11
184.665595
 21
104.161488
 31
0.0
  0
LINE
  5
425
  8
0
 62
     0
 10
184.031257
 20
103.208952
 30
0.0
 11
184.823624
 21
104.001319
 31
0.0
  0
LINE
  5
426
  8
0
 62
     0
 10
184.349455
 20
103.208952
 30
0.0
 11
184.981653
 21
103.84115
 31
0.0
  0
LINE
  5
427
  8
0
 62
     0
 10
184.667653
 20
103.208952
 30
0.0
 11
185.139682
 21
103.680981
 31
0.0
  0
LINE
  5
428
  8
0
 62
     0
 10
184.985851
 20
103.208952
 30
0.0
 11
185.297711
 21
103.520812
 31
0.0
  0
LINE
  5
429
  8
0
 62
     0
 10
185.30405
 20
103.208952
 30
0.0
 11
185.45574
 21
103.360643
 31
0.0
  0
LINE
  5
42A
  8
0
 62
     0
 10
190.307701
 20
105.66702
 30
0.0
 11
190.334482
 21
105.693801
 31
0.0
  0
LINE
  5
42B
  8
0
 62
     0
 10
189.353107
 20
104.394227
 30
0.0
 11
190.65268
 21
105.693801
 31
0.0
  0
LINE
  5
42C
  8
0
 62
     0
 10
188.48603
 20
103.208952
 30
0.0
 11
190.970879
 21
105.693801
 31
0.0
  0
LINE
  5
42D
  8
0
 62
     0
 10
188.804228
 20
103.208952
 30
0.0
 11
191.289077
 21
105.693801
 31
0.0
  0
LINE
  5
42E
  8
0
 62
     0
 10
189.122426
 20
103.208952
 30
0.0
 11
191.607275
 21
105.693801
 31
0.0
  0
LINE
  5
42F
  8
0
 62
     0
 10
189.440624
 20
103.208952
 30
0.0
 11
191.925473
 21
105.693801
 31
0.0
  0
LINE
  5
430
  8
0
 62
     0
 10
189.758822
 20
103.208952
 30
0.0
 11
191.284682
 21
104.734812
 31
0.0
  0
LINE
  5
431
  8
0
 62
     0
 10
191.828596
 20
105.278726
 30
0.0
 11
192.243671
 21
105.693801
 31
0.0
  0
LINE
  5
432
  8
0
 62
     0
 10
190.07702
 20
103.208952
 30
0.0
 11
190.330088
 21
103.46202
 31
0.0
  0
LINE
  5
433
  8
0
 62
     0
 10
191.892236
 20
105.024168
 30
0.0
 11
192.561869
 21
105.693801
 31
0.0
  0
LINE
  5
434
  8
0
 62
     0
 10
190.557052
 20
103.688984
 30
0.0
 11
190.93024
 21
104.062171
 31
0.0
  0
LINE
  5
435
  8
0
 62
     0
 10
190.87525
 20
103.688984
 30
0.0
 11
191.248438
 21
104.062171
 31
0.0
  0
LINE
  5
436
  8
0
 62
     0
 10
191.955876
 20
104.76961
 30
0.0
 11
192.880067
 21
105.693801
 31
0.0
  0
LINE
  5
437
  8
0
 62
     0
 10
191.193448
 20
103.688984
 30
0.0
 11
191.566636
 21
104.062171
 31
0.0
  0
LINE
  5
438
  8
0
 62
     0
 10
192.019515
 20
104.515051
 30
0.0
 11
193.198265
 21
105.693801
 31
0.0
  0
LINE
  5
439
  8
0
 62
     0
 10
191.511646
 20
103.688984
 30
0.0
 11
191.884834
 21
104.062171
 31
0.0
  0
LINE
  5
43A
  8
0
 62
     0
 10
192.083155
 20
104.260493
 30
0.0
 11
193.329286
 21
105.506623
 31
0.0
  0
LINE
  5
43B
  8
0
 62
     0
 10
191.829844
 20
103.688984
 30
0.0
 11
193.392925
 21
105.252065
 31
0.0
  0
LINE
  5
43C
  8
0
 62
     0
 10
192.148042
 20
103.688984
 30
0.0
 11
193.456565
 21
104.997506
 31
0.0
  0
LINE
  5
43D
  8
0
 62
     0
 10
192.274074
 20
103.496817
 30
0.0
 11
193.520204
 21
104.742948
 31
0.0
  0
LINE
  5
43E
  8
0
 62
     0
 10
192.337713
 20
103.242259
 30
0.0
 11
193.583844
 21
104.48839
 31
0.0
  0
LINE
  5
43F
  8
0
 62
     0
 10
192.622605
 20
103.208952
 30
0.0
 11
193.647484
 21
104.233831
 31
0.0
  0
LINE
  5
440
  8
0
 62
     0
 10
192.940803
 20
103.208952
 30
0.0
 11
193.711123
 21
103.979273
 31
0.0
  0
LINE
  5
441
  8
0
 62
     0
 10
194.864033
 20
105.132182
 30
0.0
 11
195.244054
 21
105.512203
 31
0.0
  0
LINE
  5
442
  8
0
 62
     0
 10
193.259001
 20
103.208952
 30
0.0
 11
193.774763
 21
103.724714
 31
0.0
  0
LINE
  5
443
  8
0
 62
     0
 10
194.795915
 20
104.745866
 30
0.0
 11
195.618586
 21
105.568537
 31
0.0
  0
LINE
  5
444
  8
0
 62
     0
 10
193.577199
 20
103.208952
 30
0.0
 11
193.838402
 21
103.470156
 31
0.0
  0
LINE
  5
445
  8
0
 62
     0
 10
194.727797
 20
104.35955
 30
0.0
 11
195.981303
 21
105.613056
 31
0.0
  0
LINE
  5
446
  8
0
 62
     0
 10
193.895397
 20
103.208952
 30
0.0
 11
193.902042
 21
103.215597
 31
0.0
  0
LINE
  5
447
  8
0
 62
     0
 10
194.659679
 20
103.973234
 30
0.0
 11
196.333358
 21
105.646913
 31
0.0
  0
LINE
  5
448
  8
0
 62
     0
 10
194.615277
 20
103.610634
 30
0.0
 11
196.67571
 21
105.671067
 31
0.0
  0
LINE
  5
449
  8
0
 62
     0
 10
194.737894
 20
103.415053
 30
0.0
 11
197.009165
 21
105.686324
 31
0.0
  0
LINE
  5
44A
  8
0
 62
     0
 10
194.983951
 20
103.342913
 30
0.0
 11
196.340819
 21
104.69978
 31
0.0
  0
LINE
  5
44B
  8
0
 62
     0
 10
196.88271
 20
105.241671
 30
0.0
 11
197.334409
 21
105.69337
 31
0.0
  0
LINE
  5
44C
  8
0
 62
     0
 10
195.265203
 20
103.305966
 30
0.0
 11
196.272701
 21
104.313464
 31
0.0
  0
LINE
  5
44D
  8
0
 62
     0
 10
197.219219
 20
105.259982
 30
0.0
 11
197.652032
 21
105.692795
 31
0.0
  0
LINE
  5
44E
  8
0
 62
     0
 10
195.551822
 20
103.274387
 30
0.0
 11
196.225094
 21
103.947659
 31
0.0
  0
LINE
  5
44F
  8
0
 62
     0
 10
197.526321
 20
105.248886
 30
0.0
 11
197.962545
 21
105.68511
 31
0.0
  0
LINE
  5
450
  8
0
 62
     0
 10
195.844088
 20
103.248455
 30
0.0
 11
196.343872
 21
103.748239
 31
0.0
  0
LINE
  5
451
  8
0
 62
     0
 10
197.810421
 20
105.214788
 30
0.0
 11
198.266395
 21
105.670762
 31
0.0
  0
LINE
  5
452
  8
0
 62
     0
 10
196.142312
 20
103.228481
 30
0.0
 11
196.588304
 21
103.674473
 31
0.0
  0
LINE
  5
453
  8
0
 62
     0
 10
198.025995
 20
105.112164
 30
0.0
 11
198.563973
 21
105.650142
 31
0.0
  0
LINE
  5
454
  8
0
 62
     0
 10
196.446847
 20
103.214818
 30
0.0
 11
196.883622
 21
103.651593
 31
0.0
  0
LINE
  5
455
  8
0
 62
     0
 10
198.196022
 20
104.963993
 30
0.0
 11
198.855628
 21
105.623599
 31
0.0
  0
LINE
  5
456
  8
0
 62
     0
 10
197.353782
 20
104.121752
 30
0.0
 11
197.533406
 21
104.301376
 31
0.0
  0
LINE
  5
457
  8
0
 62
     0
 10
196.75809
 20
103.207862
 30
0.0
 11
197.204833
 21
103.654605
 31
0.0
  0
LINE
  5
458
  8
0
 62
     0
 10
198.51422
 20
104.963993
 30
0.0
 11
199.141667
 21
105.59144
 31
0.0
  0
LINE
  5
459
  8
0
 62
     0
 10
197.628876
 20
104.078649
 30
0.0
 11
197.851604
 21
104.301376
 31
0.0
  0
LINE
  5
45A
  8
0
 62
     0
 10
197.076493
 20
103.208068
 30
0.0
 11
197.560393
 21
103.691967
 31
0.0
  0
LINE
  5
45B
  8
0
 62
     0
 10
198.832418
 20
104.963993
 30
0.0
 11
199.422367
 21
105.553941
 31
0.0
  0
LINE
  5
45C
  8
0
 62
     0
 10
197.947074
 20
104.078649
 30
0.0
 11
198.169802
 21
104.301376
 31
0.0
  0
LINE
  5
45D
  8
0
 62
     0
 10
197.402575
 20
103.215952
 30
0.0
 11
198.488
 21
104.301376
 31
0.0
  0
LINE
  5
45E
  8
0
 62
     0
 10
199.150616
 20
104.963993
 30
0.0
 11
199.638742
 21
105.452118
 31
0.0
  0
LINE
  5
45F
  8
0
 62
     0
 10
197.736936
 20
103.232115
 30
0.0
 11
198.806198
 21
104.301376
 31
0.0
  0
LINE
  5
460
  8
0
 62
     0
 10
199.468814
 20
104.963993
 30
0.0
 11
199.719549
 21
105.214728
 31
0.0
  0
LINE
  5
461
  8
0
 62
     0
 10
198.031972
 20
103.208952
 30
0.0
 11
199.124396
 21
104.301376
 31
0.0
  0
LINE
  5
462
  8
0
 62
     0
 10
198.35017
 20
103.208952
 30
0.0
 11
199.442594
 21
104.301376
 31
0.0
  0
LINE
  5
463
  8
0
 62
     0
 10
198.668368
 20
103.208952
 30
0.0
 11
199.516647
 21
104.057232
 31
0.0
  0
LINE
  5
464
  8
0
 62
     0
 10
198.986566
 20
103.208952
 30
0.0
 11
199.448529
 21
103.670916
 31
0.0
  0
LINE
  5
465
  8
0
 62
     0
 10
199.304764
 20
103.208952
 30
0.0
 11
199.380411
 21
103.2846
 31
0.0
  0
LINE
  5
466
  8
0
 62
     0
 10
174.896145
 20
103.208952
 30
0.0
 11
174.602537
 21
103.50256
 31
0.0
  0
LINE
  5
467
  8
0
 62
     0
 10
173.177644
 20
104.927453
 30
0.0
 11
172.412025
 21
105.693072
 31
0.0
  0
LINE
  5
468
  8
0
 62
     0
 10
173.969857
 20
104.13524
 30
0.0
 11
173.679879
 21
104.425218
 31
0.0
  0
LINE
  5
469
  8
0
 62
     0
 10
173.651659
 20
104.13524
 30
0.0
 11
173.361681
 21
104.425218
 31
0.0
  0
LINE
  5
46A
  8
0
 62
     0
 10
173.119903
 20
104.666996
 30
0.0
 11
172.093827
 21
105.693072
 31
0.0
  0
LINE
  5
46B
  8
0
 62
     0
 10
173.333461
 20
104.13524
 30
0.0
 11
171.775629
 21
105.693072
 31
0.0
  0
LINE
  5
46C
  8
0
 62
     0
 10
173.015263
 20
104.13524
 30
0.0
 11
171.606498
 21
105.544005
 31
0.0
  0
LINE
  5
46D
  8
0
 62
     0
 10
172.946677
 20
103.885628
 30
0.0
 11
171.548757
 21
105.283548
 31
0.0
  0
LINE
  5
46E
  8
0
 62
     0
 10
172.888936
 20
103.625171
 30
0.0
 11
171.491015
 21
105.023092
 31
0.0
  0
LINE
  5
46F
  8
0
 62
     0
 10
171.046222
 20
105.467885
 30
0.0
 11
170.821035
 21
105.693072
 31
0.0
  0
LINE
  5
470
  8
0
 62
     0
 10
172.831194
 20
103.364715
 30
0.0
 11
171.433273
 21
104.762636
 31
0.0
  0
LINE
  5
471
  8
0
 62
     0
 10
170.98848
 20
105.207429
 30
0.0
 11
170.502837
 21
105.693072
 31
0.0
  0
LINE
  5
472
  8
0
 62
     0
 10
172.668758
 20
103.208952
 30
0.0
 11
171.375531
 21
104.502179
 31
0.0
  0
LINE
  5
473
  8
0
 62
     0
 10
170.805669
 20
105.072042
 30
0.0
 11
170.184639
 21
105.693072
 31
0.0
  0
LINE
  5
474
  8
0
 62
     0
 10
172.35056
 20
103.208952
 30
0.0
 11
171.317789
 21
104.241723
 31
0.0
  0
LINE
  5
475
  8
0
 62
     0
 10
170.487471
 20
105.072042
 30
0.0
 11
169.866441
 21
105.693072
 31
0.0
  0
LINE
  5
476
  8
0
 62
     0
 10
172.032362
 20
103.208952
 30
0.0
 11
171.260048
 21
103.981267
 31
0.0
  0
LINE
  5
477
  8
0
 62
     0
 10
170.169273
 20
105.072042
 30
0.0
 11
169.548243
 21
105.693072
 31
0.0
  0
LINE
  5
478
  8
0
 62
     0
 10
171.714164
 20
103.208952
 30
0.0
 11
171.202306
 21
103.720811
 31
0.0
  0
LINE
  5
479
  8
0
 62
     0
 10
169.851075
 20
105.072042
 30
0.0
 11
169.230045
 21
105.693072
 31
0.0
  0
LINE
  5
47A
  8
0
 62
     0
 10
171.395966
 20
103.208952
 30
0.0
 11
171.144564
 21
103.460354
 31
0.0
  0
LINE
  5
47B
  8
0
 62
     0
 10
169.532876
 20
105.072042
 30
0.0
 11
168.911847
 21
105.693072
 31
0.0
  0
LINE
  5
47C
  8
0
 62
     0
 10
169.307651
 20
104.97907
 30
0.0
 11
168.593648
 21
105.693072
 31
0.0
  0
LINE
  5
47D
  8
0
 62
     0
 10
169.249909
 20
104.718614
 30
0.0
 11
168.27545
 21
105.693072
 31
0.0
  0
LINE
  5
47E
  8
0
 62
     0
 10
169.192167
 20
104.458157
 30
0.0
 11
167.957252
 21
105.693072
 31
0.0
  0
LINE
  5
47F
  8
0
 62
     0
 10
169.134425
 20
104.197701
 30
0.0
 11
167.639054
 21
105.693072
 31
0.0
  0
LINE
  5
480
  8
0
 62
     0
 10
169.076683
 20
103.937245
 30
0.0
 11
167.320856
 21
105.693072
 31
0.0
  0
LINE
  5
481
  8
0
 62
     0
 10
169.018942
 20
103.676788
 30
0.0
 11
167.002658
 21
105.693072
 31
0.0
  0
LINE
  5
482
  8
0
 62
     0
 10
168.9612
 20
103.416332
 30
0.0
 11
167.563279
 21
104.814253
 31
0.0
  0
LINE
  5
483
  8
0
 62
     0
 10
167.30549
 20
105.072042
 30
0.0
 11
166.68446
 21
105.693072
 31
0.0
  0
LINE
  5
484
  8
0
 62
     0
 10
168.850382
 20
103.208952
 30
0.0
 11
167.505537
 21
104.553797
 31
0.0
  0
LINE
  5
485
  8
0
 62
     0
 10
166.987292
 20
105.072042
 30
0.0
 11
166.366262
 21
105.693072
 31
0.0
  0
LINE
  5
486
  8
0
 62
     0
 10
168.532184
 20
103.208952
 30
0.0
 11
167.447796
 21
104.29334
 31
0.0
  0
LINE
  5
487
  8
0
 62
     0
 10
166.669094
 20
105.072042
 30
0.0
 11
166.176959
 21
105.564177
 31
0.0
  0
LINE
  5
488
  8
0
 62
     0
 10
168.213986
 20
103.208952
 30
0.0
 11
167.390054
 21
104.032884
 31
0.0
  0
LINE
  5
489
  8
0
 62
     0
 10
165.749267
 20
105.673671
 30
0.0
 11
165.729866
 21
105.693072
 31
0.0
  0
LINE
  5
48A
  8
0
 62
     0
 10
166.350896
 20
105.072042
 30
0.0
 11
166.119217
 21
105.303721
 31
0.0
  0
LINE
  5
48B
  8
0
 62
     0
 10
167.895788
 20
103.208952
 30
0.0
 11
167.332312
 21
103.772428
 31
0.0
  0
LINE
  5
48C
  8
0
 62
     0
 10
165.691525
 20
105.413214
 30
0.0
 11
165.411668
 21
105.693072
 31
0.0
  0
LINE
  5
48D
  8
0
 62
     0
 10
167.57759
 20
103.208952
 30
0.0
 11
167.27457
 21
103.511971
 31
0.0
  0
LINE
  5
48E
  8
0
 62
     0
 10
165.633784
 20
105.152758
 30
0.0
 11
165.09347
 21
105.693072
 31
0.0
  0
LINE
  5
48F
  8
0
 62
     0
 10
167.259392
 20
103.208952
 30
0.0
 11
167.216829
 21
103.251515
 31
0.0
  0
LINE
  5
490
  8
0
 62
     0
 10
165.576042
 20
104.892302
 30
0.0
 11
164.775272
 21
105.693072
 31
0.0
  0
LINE
  5
491
  8
0
 62
     0
 10
165.5183
 20
104.631846
 30
0.0
 11
164.457074
 21
105.693072
 31
0.0
  0
LINE
  5
492
  8
0
 62
     0
 10
165.460558
 20
104.371389
 30
0.0
 11
164.138876
 21
105.693072
 31
0.0
  0
LINE
  5
493
  8
0
 62
     0
 10
165.402817
 20
104.110933
 30
0.0
 11
164.008428
 21
105.505322
 31
0.0
  0
LINE
  5
494
  8
0
 62
     0
 10
165.345075
 20
103.850477
 30
0.0
 11
163.950686
 21
105.244865
 31
0.0
  0
LINE
  5
495
  8
0
 62
     0
 10
165.213808
 20
103.663545
 30
0.0
 11
163.892945
 21
104.984409
 31
0.0
  0
LINE
  5
496
  8
0
 62
     0
 10
165.017448
 20
103.541707
 30
0.0
 11
163.835203
 21
104.723953
 31
0.0
  0
LINE
  5
497
  8
0
 62
     0
 10
164.802652
 20
103.438305
 30
0.0
 11
163.777461
 21
104.463496
 31
0.0
  0
LINE
  5
498
  8
0
 62
     0
 10
164.567173
 20
103.355586
 30
0.0
 11
163.719719
 21
104.20304
 31
0.0
  0
LINE
  5
499
  8
0
 62
     0
 10
164.315183
 20
103.289379
 30
0.0
 11
163.618712
 21
103.98585
 31
0.0
  0
LINE
  5
49A
  8
0
 62
     0
 10
162.118619
 20
105.485943
 30
0.0
 11
161.911489
 21
105.693072
 31
0.0
  0
LINE
  5
49B
  8
0
 62
     0
 10
164.051144
 20
103.235219
 30
0.0
 11
163.422176
 21
103.864188
 31
0.0
  0
LINE
  5
49C
  8
0
 62
     0
 10
162.060877
 20
105.225486
 30
0.0
 11
161.593291
 21
105.693072
 31
0.0
  0
LINE
  5
49D
  8
0
 62
     0
 10
163.77367
 20
103.194495
 30
0.0
 11
163.177404
 21
103.790761
 31
0.0
  0
LINE
  5
49E
  8
0
 62
     0
 10
162.003135
 20
104.96503
 30
0.0
 11
161.275093
 21
105.693072
 31
0.0
  0
LINE
  5
49F
  8
0
 62
     0
 10
163.485182
 20
103.164785
 30
0.0
 11
162.893835
 21
103.756132
 31
0.0
  0
LINE
  5
4A0
  8
0
 62
     0
 10
161.945393
 20
104.704574
 30
0.0
 11
160.956895
 21
105.693072
 31
0.0
  0
LINE
  5
4A1
  8
0
 62
     0
 10
163.187779
 20
103.14399
 30
0.0
 11
162.571275
 21
103.760495
 31
0.0
  0
LINE
  5
4A2
  8
0
 62
     0
 10
161.887652
 20
104.444117
 30
0.0
 11
160.638697
 21
105.693072
 31
0.0
  0
LINE
  5
4A3
  8
0
 62
     0
 10
162.88065
 20
103.132921
 30
0.0
 11
162.17665
 21
103.836921
 31
0.0
  0
LINE
  5
4A4
  8
0
 62
     0
 10
161.82991
 20
104.183661
 30
0.0
 11
160.43551
 21
105.578061
 31
0.0
  0
LINE
  5
4A5
  8
0
 62
     0
 10
162.562817
 20
103.132556
 30
0.0
 11
160.377768
 21
105.317605
 31
0.0
  0
LINE
  5
4A6
  8
0
 62
     0
 10
162.233074
 20
103.144101
 30
0.0
 11
160.320026
 21
105.057149
 31
0.0
  0
LINE
  5
4A7
  8
0
 62
     0
 10
159.684608
 20
105.692567
 30
0.0
 11
159.684103
 21
105.693072
 31
0.0
  0
LINE
  5
4A8
  8
0
 62
     0
 10
161.889919
 20
103.169058
 30
0.0
 11
160.262284
 21
104.796692
 31
0.0
  0
LINE
  5
4A9
  8
0
 62
     0
 10
159.626866
 20
105.432111
 30
0.0
 11
159.365905
 21
105.693072
 31
0.0
  0
LINE
  5
4AA
  8
0
 62
     0
 10
161.530904
 20
103.209875
 30
0.0
 11
160.204543
 21
104.536236
 31
0.0
  0
LINE
  5
4AB
  8
0
 62
     0
 10
159.487685
 20
105.253094
 30
0.0
 11
159.047707
 21
105.693072
 31
0.0
  0
LINE
  5
4AC
  8
0
 62
     0
 10
161.140832
 20
103.281749
 30
0.0
 11
160.146801
 21
104.27578
 31
0.0
  0
LINE
  5
4AD
  8
0
 62
     0
 10
159.169487
 20
105.253094
 30
0.0
 11
158.729509
 21
105.693072
 31
0.0
  0
LINE
  5
4AE
  8
0
 62
     0
 10
160.695959
 20
103.408424
 30
0.0
 11
160.089059
 21
104.015324
 31
0.0
  0
LINE
  5
4AF
  8
0
 62
     0
 10
158.851289
 20
105.253094
 30
0.0
 11
158.411311
 21
105.693072
 31
0.0
  0
LINE
  5
4B0
  8
0
 62
     0
 10
159.205273
 20
104.580911
 30
0.0
 11
159.190183
 21
104.596001
 31
0.0
  0
LINE
  5
4B1
  8
0
 62
     0
 10
158.533091
 20
105.253094
 30
0.0
 11
158.093113
 21
105.693072
 31
0.0
  0
LINE
  5
4B2
  8
0
 62
     0
 10
159.147532
 20
104.320455
 30
0.0
 11
158.871985
 21
104.596001
 31
0.0
  0
LINE
  5
4B3
  8
0
 62
     0
 10
158.214893
 20
105.253094
 30
0.0
 11
157.774915
 21
105.693072
 31
0.0
  0
LINE
  5
4B4
  8
0
 62
     0
 10
158.843766
 20
104.306023
 30
0.0
 11
158.553787
 21
104.596001
 31
0.0
  0
LINE
  5
4B5
  8
0
 62
     0
 10
157.896695
 20
105.253094
 30
0.0
 11
157.456717
 21
105.693072
 31
0.0
  0
LINE
  5
4B6
  8
0
 62
     0
 10
159.222674
 20
103.608917
 30
0.0
 11
159.18266
 21
103.648931
 31
0.0
  0
LINE
  5
4B7
  8
0
 62
     0
 10
157.578497
 20
105.253094
 30
0.0
 11
157.138519
 21
105.693072
 31
0.0
  0
LINE
  5
4B8
  8
0
 62
     0
 10
158.525568
 20
104.306023
 30
0.0
 11
158.235589
 21
104.596001
 31
0.0
  0
LINE
  5
4B9
  8
0
 62
     0
 10
159.164932
 20
103.348461
 30
0.0
 11
158.864462
 21
103.648931
 31
0.0
  0
LINE
  5
4BA
  8
0
 62
     0
 10
157.260299
 20
105.253094
 30
0.0
 11
156.820321
 21
105.693072
 31
0.0
  0
LINE
  5
4BB
  8
0
 62
     0
 10
158.20737
 20
104.306023
 30
0.0
 11
157.917391
 21
104.596001
 31
0.0
  0
LINE
  5
4BC
  8
0
 62
     0
 10
158.986242
 20
103.208952
 30
0.0
 11
158.546264
 21
103.648931
 31
0.0
  0
LINE
  5
4BD
  8
0
 62
     0
 10
156.942101
 20
105.253094
 30
0.0
 11
156.502123
 21
105.693072
 31
0.0
  0
LINE
  5
4BE
  8
0
 62
     0
 10
157.889172
 20
104.306023
 30
0.0
 11
157.599193
 21
104.596001
 31
0.0
  0
LINE
  5
4BF
  8
0
 62
     0
 10
158.668044
 20
103.208952
 30
0.0
 11
158.228066
 21
103.648931
 31
0.0
  0
LINE
  5
4C0
  8
0
 62
     0
 10
156.634858
 20
105.242138
 30
0.0
 11
156.183924
 21
105.693072
 31
0.0
  0
LINE
  5
4C1
  8
0
 62
     0
 10
157.570974
 20
104.306023
 30
0.0
 11
157.280995
 21
104.596001
 31
0.0
  0
LINE
  5
4C2
  8
0
 62
     0
 10
158.349846
 20
103.208952
 30
0.0
 11
157.909868
 21
103.648931
 31
0.0
  0
LINE
  5
4C3
  8
0
 62
     0
 10
156.577116
 20
104.981682
 30
0.0
 11
155.865726
 21
105.693072
 31
0.0
  0
LINE
  5
4C4
  8
0
 62
     0
 10
157.252775
 20
104.306023
 30
0.0
 11
156.962797
 21
104.596001
 31
0.0
  0
LINE
  5
4C5
  8
0
 62
     0
 10
158.031648
 20
103.208952
 30
0.0
 11
157.59167
 21
103.648931
 31
0.0
  0
LINE
  5
4C6
  8
0
 62
     0
 10
156.519374
 20
104.721226
 30
0.0
 11
155.547528
 21
105.693072
 31
0.0
  0
LINE
  5
4C7
  8
0
 62
     0
 10
156.934577
 20
104.306023
 30
0.0
 11
156.644599
 21
104.596001
 31
0.0
  0
LINE
  5
4C8
  8
0
 62
     0
 10
157.71345
 20
103.208952
 30
0.0
 11
157.273472
 21
103.648931
 31
0.0
  0
LINE
  5
4C9
  8
0
 62
     0
 10
156.616379
 20
104.306023
 30
0.0
 11
155.22933
 21
105.693072
 31
0.0
  0
LINE
  5
4CA
  8
0
 62
     0
 10
157.395252
 20
103.208952
 30
0.0
 11
156.955274
 21
103.648931
 31
0.0
  0
LINE
  5
4CB
  8
0
 62
     0
 10
156.403891
 20
104.200313
 30
0.0
 11
155.00597
 21
105.598234
 31
0.0
  0
LINE
  5
4CC
  8
0
 62
     0
 10
157.077054
 20
103.208952
 30
0.0
 11
156.637075
 21
103.648931
 31
0.0
  0
LINE
  5
4CD
  8
0
 62
     0
 10
156.346149
 20
103.939857
 30
0.0
 11
154.948228
 21
105.337778
 31
0.0
  0
LINE
  5
4CE
  8
0
 62
     0
 10
156.758856
 20
103.208952
 30
0.0
 11
156.318877
 21
103.648931
 31
0.0
  0
LINE
  5
4CF
  8
0
 62
     0
 10
156.288407
 20
103.679401
 30
0.0
 11
154.890487
 21
105.077322
 31
0.0
  0
LINE
  5
4D0
  8
0
 62
     0
 10
156.440658
 20
103.208952
 30
0.0
 11
154.832745
 21
104.816865
 31
0.0
  0
LINE
  5
4D1
  8
0
 62
     0
 10
154.133784
 20
105.515826
 30
0.0
 11
153.956538
 21
105.693072
 31
0.0
  0
LINE
  5
4D2
  8
0
 62
     0
 10
156.12246
 20
103.208952
 30
0.0
 11
154.775003
 21
104.556409
 31
0.0
  0
LINE
  5
4D3
  8
0
 62
     0
 10
154.076043
 20
105.255369
 30
0.0
 11
153.63834
 21
105.693072
 31
0.0
  0
LINE
  5
4D4
  8
0
 62
     0
 10
155.804262
 20
103.208952
 30
0.0
 11
154.717261
 21
104.295953
 31
0.0
  0
LINE
  5
4D5
  8
0
 62
     0
 10
154.018301
 20
104.994913
 30
0.0
 11
153.320142
 21
105.693072
 31
0.0
  0
LINE
  5
4D6
  8
0
 62
     0
 10
155.486064
 20
103.208952
 30
0.0
 11
154.65952
 21
104.035496
 31
0.0
  0
LINE
  5
4D7
  8
0
 62
     0
 10
153.960559
 20
104.734457
 30
0.0
 11
153.001944
 21
105.693072
 31
0.0
  0
LINE
  5
4D8
  8
0
 62
     0
 10
155.167866
 20
103.208952
 30
0.0
 11
154.601778
 21
103.77504
 31
0.0
  0
LINE
  5
4D9
  8
0
 62
     0
 10
153.902817
 20
104.474
 30
0.0
 11
152.683746
 21
105.693072
 31
0.0
  0
LINE
  5
4DA
  8
0
 62
     0
 10
154.849668
 20
103.208952
 30
0.0
 11
154.544036
 21
103.514584
 31
0.0
  0
LINE
  5
4DB
  8
0
 62
     0
 10
153.845076
 20
104.213544
 30
0.0
 11
152.447155
 21
105.611465
 31
0.0
  0
LINE
  5
4DC
  8
0
 62
     0
 10
154.53147
 20
103.208952
 30
0.0
 11
154.486294
 21
103.254128
 31
0.0
  0
LINE
  5
4DD
  8
0
 62
     0
 10
153.787334
 20
103.953088
 30
0.0
 11
152.389413
 21
105.351009
 31
0.0
  0
LINE
  5
4DE
  8
0
 62
     0
 10
153.729592
 20
103.692632
 30
0.0
 11
152.331671
 21
105.090552
 31
0.0
  0
LINE
  5
4DF
  8
0
 62
     0
 10
153.67185
 20
103.432175
 30
0.0
 11
152.27393
 21
104.830096
 31
0.0
  0
LINE
  5
4E0
  8
0
 62
     0
 10
153.576875
 20
103.208952
 30
0.0
 11
152.073304
 21
104.712524
 31
0.0
  0
LINE
  5
4E1
  8
0
 62
     0
 10
153.258677
 20
103.208952
 30
0.0
 11
150.999582
 21
105.468047
 31
0.0
  0
LINE
  5
4E2
  8
0
 62
     0
 10
152.940479
 20
103.208952
 30
0.0
 11
150.45636
 21
105.693072
 31
0.0
  0
LINE
  5
4E3
  8
0
 62
     0
 10
152.622281
 20
103.208952
 30
0.0
 11
150.138161
 21
105.693072
 31
0.0
  0
LINE
  5
4E4
  8
0
 62
     0
 10
152.304083
 20
103.208952
 30
0.0
 11
149.819963
 21
105.693072
 31
0.0
  0
LINE
  5
4E5
  8
0
 62
     0
 10
151.985885
 20
103.208952
 30
0.0
 11
149.501765
 21
105.693072
 31
0.0
  0
LINE
  5
4E6
  8
0
 62
     0
 10
151.542665
 20
103.333975
 30
0.0
 11
149.183567
 21
105.693072
 31
0.0
  0
LINE
  5
4E7
  8
0
 62
     0
 10
150.096365
 20
104.462076
 30
0.0
 11
148.865369
 21
105.693072
 31
0.0
  0
LINE
  5
4E8
  8
0
 62
     0
 10
150.038624
 20
104.20162
 30
0.0
 11
148.640703
 21
105.59954
 31
0.0
  0
LINE
  5
4E9
  8
0
 62
     0
 10
149.980882
 20
103.941163
 30
0.0
 11
148.582961
 21
105.339084
 31
0.0
  0
LINE
  5
4EA
  8
0
 62
     0
 10
149.92314
 20
103.680707
 30
0.0
 11
148.525219
 21
105.078628
 31
0.0
  0
LINE
  5
4EB
  8
0
 62
     0
 10
149.865398
 20
103.420251
 30
0.0
 11
148.467478
 21
104.818171
 31
0.0
  0
LINE
  5
4EC
  8
0
 62
     0
 10
149.758499
 20
103.208952
 30
0.0
 11
148.409736
 21
104.557715
 31
0.0
  0
LINE
  5
4ED
  8
0
 62
     0
 10
149.440301
 20
103.208952
 30
0.0
 11
148.351994
 21
104.297259
 31
0.0
  0
LINE
  5
4EE
  8
0
 62
     0
 10
149.122103
 20
103.208952
 30
0.0
 11
148.294252
 21
104.036803
 31
0.0
  0
LINE
  5
4EF
  8
0
 62
     0
 10
148.803905
 20
103.208952
 30
0.0
 11
148.236511
 21
103.776346
 31
0.0
  0
LINE
  5
4F0
  8
0
 62
     0
 10
148.485707
 20
103.208952
 30
0.0
 11
148.178769
 21
103.51589
 31
0.0
  0
LINE
  5
4F1
  8
0
 62
     0
 10
148.167508
 20
103.208952
 30
0.0
 11
148.121027
 21
103.255434
 31
0.0
  0
LINE
  5
4F2
  8
0
 62
     0
 10
175.214343
 20
103.208952
 30
0.0
 11
174.622995
 21
103.8003
 31
0.0
  0
LINE
  5
4F3
  8
0
 62
     0
 10
173.235386
 20
105.187909
 30
0.0
 11
172.730223
 21
105.693072
 31
0.0
  0
LINE
  5
4F4
  8
0
 62
     0
 10
174.288055
 20
104.13524
 30
0.0
 11
173.998077
 21
104.425218
 31
0.0
  0
LINE
  5
4F5
  8
0
 62
     0
 10
175.532541
 20
103.208952
 30
0.0
 11
174.316275
 21
104.425218
 31
0.0
  0
LINE
  5
4F6
  8
0
 62
     0
 10
173.4884
 20
105.253094
 30
0.0
 11
173.048421
 21
105.693072
 31
0.0
  0
LINE
  5
4F7
  8
0
 62
     0
 10
175.850739
 20
103.208952
 30
0.0
 11
174.586541
 21
104.47315
 31
0.0
  0
LINE
  5
4F8
  8
0
 62
     0
 10
173.806598
 20
105.253094
 30
0.0
 11
173.366619
 21
105.693072
 31
0.0
  0
LINE
  5
4F9
  8
0
 62
     0
 10
176.168937
 20
103.208952
 30
0.0
 11
174.789565
 21
104.588325
 31
0.0
  0
LINE
  5
4FA
  8
0
 62
     0
 10
174.124796
 20
105.253094
 30
0.0
 11
173.684817
 21
105.693072
 31
0.0
  0
LINE
  5
4FB
  8
0
 62
     0
 10
176.311422
 20
103.384665
 30
0.0
 11
174.927684
 21
104.768404
 31
0.0
  0
LINE
  5
4FC
  8
0
 62
     0
 10
174.442994
 20
105.253094
 30
0.0
 11
174.003015
 21
105.693072
 31
0.0
  0
LINE
  5
4FD
  8
0
 62
     0
 10
176.323639
 20
103.690647
 30
0.0
 11
174.914671
 21
105.099614
 31
0.0
  0
LINE
  5
4FE
  8
0
 62
     0
 10
174.791615
 20
105.22267
 30
0.0
 11
174.321213
 21
105.693072
 31
0.0
  0
LINE
  5
4FF
  8
0
 62
     0
 10
176.344435
 20
103.988048
 30
0.0
 11
174.639411
 21
105.693072
 31
0.0
  0
LINE
  5
500
  8
0
 62
     0
 10
177.441729
 20
103.208952
 30
0.0
 11
177.197922
 21
103.452759
 31
0.0
  0
LINE
  5
501
  8
0
 62
     0
 10
176.286615
 20
104.364066
 30
0.0
 11
174.95761
 21
105.693072
 31
0.0
  0
LINE
  5
502
  8
0
 62
     0
 10
177.759927
 20
103.208952
 30
0.0
 11
177.255664
 21
103.713216
 31
0.0
  0
LINE
  5
503
  8
0
 62
     0
 10
176.4817
 20
104.487179
 30
0.0
 11
175.275808
 21
105.693072
 31
0.0
  0
LINE
  5
504
  8
0
 62
     0
 10
178.078125
 20
103.208952
 30
0.0
 11
177.313406
 21
103.973672
 31
0.0
  0
LINE
  5
505
  8
0
 62
     0
 10
176.650286
 20
104.636791
 30
0.0
 11
175.594006
 21
105.693072
 31
0.0
  0
LINE
  5
506
  8
0
 62
     0
 10
178.396323
 20
103.208952
 30
0.0
 11
177.371148
 21
104.234128
 31
0.0
  0
LINE
  5
507
  8
0
 62
     0
 10
176.785346
 20
104.81993
 30
0.0
 11
175.912204
 21
105.693072
 31
0.0
  0
LINE
  5
508
  8
0
 62
     0
 10
178.714521
 20
103.208952
 30
0.0
 11
177.428889
 21
104.494584
 31
0.0
  0
LINE
  5
509
  8
0
 62
     0
 10
176.870902
 20
105.052571
 30
0.0
 11
176.255428
 21
105.668046
 31
0.0
  0
LINE
  5
50A
  8
0
 62
     0
 10
178.884552
 20
103.35712
 30
0.0
 11
177.486631
 21
104.755041
 31
0.0
  0
LINE
  5
50B
  8
0
 62
     0
 10
178.942294
 20
103.617576
 30
0.0
 11
177.544373
 21
105.015497
 31
0.0
  0
LINE
  5
50C
  8
0
 62
     0
 10
179.000035
 20
103.878033
 30
0.0
 11
177.602115
 21
105.275953
 31
0.0
  0
LINE
  5
50D
  8
0
 62
     0
 10
179.987314
 20
103.208952
 30
0.0
 11
179.883821
 21
103.312445
 31
0.0
  0
LINE
  5
50E
  8
0
 62
     0
 10
179.057777
 20
104.138489
 30
0.0
 11
177.659856
 21
105.53641
 31
0.0
  0
LINE
  5
50F
  8
0
 62
     0
 10
180.305512
 20
103.208952
 30
0.0
 11
179.941563
 21
103.572901
 31
0.0
  0
LINE
  5
510
  8
0
 62
     0
 10
179.115519
 20
104.398945
 30
0.0
 11
177.821392
 21
105.693072
 31
0.0
  0
LINE
  5
511
  8
0
 62
     0
 10
180.62371
 20
103.208952
 30
0.0
 11
179.999305
 21
103.833357
 31
0.0
  0
LINE
  5
512
  8
0
 62
     0
 10
179.173261
 20
104.659401
 30
0.0
 11
178.13959
 21
105.693072
 31
0.0
  0
LINE
  5
513
  8
0
 62
     0
 10
180.941908
 20
103.208952
 30
0.0
 11
180.057046
 21
104.093814
 31
0.0
  0
LINE
  5
514
  8
0
 62
     0
 10
179.231002
 20
104.919858
 30
0.0
 11
178.457788
 21
105.693072
 31
0.0
  0
LINE
  5
515
  8
0
 62
     0
 10
181.260106
 20
103.208952
 30
0.0
 11
180.114788
 21
104.35427
 31
0.0
  0
LINE
  5
516
  8
0
 62
     0
 10
179.288744
 20
105.180314
 30
0.0
 11
178.775986
 21
105.693072
 31
0.0
  0
LINE
  5
517
  8
0
 62
     0
 10
181.506909
 20
103.280347
 30
0.0
 11
180.17253
 21
104.614726
 31
0.0
  0
LINE
  5
518
  8
0
 62
     0
 10
179.346486
 20
105.44077
 30
0.0
 11
179.094184
 21
105.693072
 31
0.0
  0
LINE
  5
519
  8
0
 62
     0
 10
181.564651
 20
103.540804
 30
0.0
 11
180.230272
 21
104.875182
 31
0.0
  0
LINE
  5
51A
  8
0
 62
     0
 10
181.622392
 20
103.80126
 30
0.0
 11
180.288014
 21
105.135639
 31
0.0
  0
LINE
  5
51B
  8
0
 62
     0
 10
181.827275
 20
103.914576
 30
0.0
 11
180.345755
 21
105.396095
 31
0.0
  0
LINE
  5
51C
  8
0
 62
     0
 10
182.050395
 20
104.009654
 30
0.0
 11
180.403497
 21
105.656551
 31
0.0
  0
LINE
  5
51D
  8
0
 62
     0
 10
182.273514
 20
104.104732
 30
0.0
 11
180.685174
 21
105.693072
 31
0.0
  0
LINE
  5
51E
  8
0
 62
     0
 10
183.487492
 20
103.208952
 30
0.0
 11
181.003372
 21
105.693072
 31
0.0
  0
LINE
  5
51F
  8
0
 62
     0
 10
183.80569
 20
103.208952
 30
0.0
 11
182.070276
 21
104.944367
 31
0.0
  0
LINE
  5
520
  8
0
 62
     0
 10
181.911101
 20
105.103541
 30
0.0
 11
181.321571
 21
105.693072
 31
0.0
  0
LINE
  5
521
  8
0
 62
     0
 10
184.123888
 20
103.208952
 30
0.0
 11
182.293395
 21
105.039445
 31
0.0
  0
LINE
  5
522
  8
0
 62
     0
 10
181.968843
 20
105.363998
 30
0.0
 11
181.639769
 21
105.693072
 31
0.0
  0
LINE
  5
523
  8
0
 62
     0
 10
184.442086
 20
103.208952
 30
0.0
 11
182.516515
 21
105.134523
 31
0.0
  0
LINE
  5
524
  8
0
 62
     0
 10
182.026585
 20
105.624454
 30
0.0
 11
181.957967
 21
105.693072
 31
0.0
  0
LINE
  5
525
  8
0
 62
     0
 10
184.760284
 20
103.208952
 30
0.0
 11
182.739635
 21
105.229602
 31
0.0
  0
LINE
  5
526
  8
0
 62
     0
 10
185.078482
 20
103.208952
 30
0.0
 11
182.962755
 21
105.32468
 31
0.0
  0
LINE
  5
527
  8
0
 62
     0
 10
185.396681
 20
103.208952
 30
0.0
 11
183.185874
 21
105.419758
 31
0.0
  0
LINE
  5
528
  8
0
 62
     0
 10
184.058472
 20
104.865359
 30
0.0
 11
183.408994
 21
105.514837
 31
0.0
  0
LINE
  5
529
  8
0
 62
     0
 10
184.281592
 20
104.960437
 30
0.0
 11
183.632114
 21
105.609915
 31
0.0
  0
LINE
  5
52A
  8
0
 62
     0
 10
184.504712
 20
105.055515
 30
0.0
 11
183.867155
 21
105.693072
 31
0.0
  0
LINE
  5
52B
  8
0
 62
     0
 10
184.727831
 20
105.150593
 30
0.0
 11
184.185353
 21
105.693072
 31
0.0
  0
LINE
  5
52C
  8
0
 62
     0
 10
184.950951
 20
105.245672
 30
0.0
 11
184.503551
 21
105.693072
 31
0.0
  0
LINE
  5
52D
  8
0
 62
     0
 10
185.174071
 20
105.34075
 30
0.0
 11
184.821749
 21
105.693072
 31
0.0
  0
LINE
  5
52E
  8
0
 62
     0
 10
185.397191
 20
105.435828
 30
0.0
 11
185.139947
 21
105.693072
 31
0.0
  0
LINE
  5
52F
  8
0
 62
     0
 10
185.62031
 20
105.530907
 30
0.0
 11
185.458145
 21
105.693072
 31
0.0
  0
LINE
  5
530
  8
0
 62
     0
 10
185.84343
 20
105.625985
 30
0.0
 11
185.776343
 21
105.693072
 31
0.0
  0
LINE
  5
531
  8
0
 62
     0
 10
188.578661
 20
103.208952
 30
0.0
 11
188.513227
 21
103.274387
 31
0.0
  0
LINE
  5
532
  8
0
 62
     0
 10
188.896859
 20
103.208952
 30
0.0
 11
188.649597
 21
103.456214
 31
0.0
  0
LINE
  5
533
  8
0
 62
     0
 10
189.215057
 20
103.208952
 30
0.0
 11
188.785968
 21
103.638042
 31
0.0
  0
LINE
  5
534
  8
0
 62
     0
 10
189.533255
 20
103.208952
 30
0.0
 11
188.922338
 21
103.819869
 31
0.0
  0
LINE
  5
535
  8
0
 62
     0
 10
189.851453
 20
103.208952
 30
0.0
 11
189.058709
 21
104.001696
 31
0.0
  0
LINE
  5
536
  8
0
 62
     0
 10
190.152872
 20
103.225732
 30
0.0
 11
189.19508
 21
104.183524
 31
0.0
  0
LINE
  5
537
  8
0
 62
     0
 10
190.289242
 20
103.407559
 30
0.0
 11
189.33145
 21
104.365351
 31
0.0
  0
LINE
  5
538
  8
0
 62
     0
 10
190.425613
 20
103.589387
 30
0.0
 11
189.467821
 21
104.547179
 31
0.0
  0
LINE
  5
539
  8
0
 62
     0
 10
190.644214
 20
103.688984
 30
0.0
 11
189.604191
 21
104.729006
 31
0.0
  0
LINE
  5
53A
  8
0
 62
     0
 10
190.962412
 20
103.688984
 30
0.0
 11
189.740562
 21
104.910834
 31
0.0
  0
LINE
  5
53B
  8
0
 62
     0
 10
191.28061
 20
103.688984
 30
0.0
 11
190.907422
 21
104.062171
 31
0.0
  0
LINE
  5
53C
  8
0
 62
     0
 10
190.834725
 20
104.134869
 30
0.0
 11
189.876933
 21
105.092661
 31
0.0
  0
LINE
  5
53D
  8
0
 62
     0
 10
191.598808
 20
103.688984
 30
0.0
 11
191.22562
 21
104.062171
 31
0.0
  0
LINE
  5
53E
  8
0
 62
     0
 10
190.971095
 20
104.316696
 30
0.0
 11
190.013303
 21
105.274489
 31
0.0
  0
LINE
  5
53F
  8
0
 62
     0
 10
192.397038
 20
103.208952
 30
0.0
 11
192.329041
 21
103.276949
 31
0.0
  0
LINE
  5
540
  8
0
 62
     0
 10
191.107466
 20
104.498524
 30
0.0
 11
190.149674
 21
105.456316
 31
0.0
  0
LINE
  5
541
  8
0
 62
     0
 10
191.917006
 20
103.688984
 30
0.0
 11
191.543818
 21
104.062171
 31
0.0
  0
LINE
  5
542
  8
0
 62
     0
 10
192.715236
 20
103.208952
 30
0.0
 11
191.862016
 21
104.062171
 31
0.0
  0
LINE
  5
543
  8
0
 62
     0
 10
191.243837
 20
104.680351
 30
0.0
 11
190.286044
 21
105.638144
 31
0.0
  0
LINE
  5
544
  8
0
 62
     0
 10
193.033434
 20
103.208952
 30
0.0
 11
192.116909
 21
104.125477
 31
0.0
  0
LINE
  5
545
  8
0
 62
     0
 10
191.380207
 20
104.862179
 30
0.0
 11
190.548585
 21
105.693801
 31
0.0
  0
LINE
  5
546
  8
0
 62
     0
 10
193.351632
 20
103.208952
 30
0.0
 11
192.010843
 21
104.549741
 31
0.0
  0
LINE
  5
547
  8
0
 62
     0
 10
191.516578
 20
105.044006
 30
0.0
 11
190.866783
 21
105.693801
 31
0.0
  0
LINE
  5
548
  8
0
 62
     0
 10
193.66983
 20
103.208952
 30
0.0
 11
191.904777
 21
104.974005
 31
0.0
  0
LINE
  5
549
  8
0
 62
     0
 10
191.652948
 20
105.225834
 30
0.0
 11
191.184981
 21
105.693801
 31
0.0
  0
LINE
  5
54A
  8
0
 62
     0
 10
193.875595
 20
103.321385
 30
0.0
 11
191.798711
 21
105.398269
 31
0.0
  0
LINE
  5
54B
  8
0
 62
     0
 10
191.789319
 20
105.407661
 30
0.0
 11
191.503179
 21
105.693801
 31
0.0
  0
LINE
  5
54C
  8
0
 62
     0
 10
193.769529
 20
103.745649
 30
0.0
 11
191.821377
 21
105.693801
 31
0.0
  0
LINE
  5
54D
  8
0
 62
     0
 10
193.663463
 20
104.169913
 30
0.0
 11
192.139576
 21
105.693801
 31
0.0
  0
LINE
  5
54E
  8
0
 62
     0
 10
194.732492
 20
103.419082
 30
0.0
 11
194.673972
 21
103.477602
 31
0.0
  0
LINE
  5
54F
  8
0
 62
     0
 10
193.557397
 20
104.594177
 30
0.0
 11
192.457774
 21
105.693801
 31
0.0
  0
LINE
  5
550
  8
0
 62
     0
 10
195.149298
 20
103.320474
 30
0.0
 11
194.635225
 21
103.834548
 31
0.0
  0
LINE
  5
551
  8
0
 62
     0
 10
193.451331
 20
105.018441
 30
0.0
 11
192.775972
 21
105.693801
 31
0.0
  0
LINE
  5
552
  8
0
 62
     0
 10
195.509282
 20
103.278689
 30
0.0
 11
194.682922
 21
104.105049
 31
0.0
  0
LINE
  5
553
  8
0
 62
     0
 10
193.345265
 20
105.442705
 30
0.0
 11
193.09417
 21
105.693801
 31
0.0
  0
LINE
  5
554
  8
0
 62
     0
 10
195.858857
 20
103.247312
 30
0.0
 11
194.730618
 21
104.37555
 31
0.0
  0
LINE
  5
555
  8
0
 62
     0
 10
196.19894
 20
103.225426
 30
0.0
 11
194.778315
 21
104.646052
 31
0.0
  0
LINE
  5
556
  8
0
 62
     0
 10
196.530306
 20
103.212258
 30
0.0
 11
194.826012
 21
104.916553
 31
0.0
  0
LINE
  5
557
  8
0
 62
     0
 10
196.853616
 20
103.207147
 30
0.0
 11
194.873708
 21
105.187054
 31
0.0
  0
LINE
  5
558
  8
0
 62
     0
 10
197.169437
 20
103.209523
 30
0.0
 11
196.717543
 21
103.661418
 31
0.0
  0
LINE
  5
559
  8
0
 62
     0
 10
196.241642
 20
104.137319
 30
0.0
 11
194.970499
 21
105.408462
 31
0.0
  0
LINE
  5
55A
  8
0
 62
     0
 10
197.478265
 20
103.218894
 30
0.0
 11
197.047649
 21
103.64951
 31
0.0
  0
LINE
  5
55B
  8
0
 62
     0
 10
196.289339
 20
104.40782
 30
0.0
 11
195.193391
 21
105.503767
 31
0.0
  0
LINE
  5
55C
  8
0
 62
     0
 10
197.78053
 20
103.234826
 30
0.0
 11
197.349867
 21
103.66549
 31
0.0
  0
LINE
  5
55D
  8
0
 62
     0
 10
196.337035
 20
104.678321
 30
0.0
 11
195.468172
 21
105.547185
 31
0.0
  0
LINE
  5
55E
  8
0
 62
     0
 10
198.124603
 20
103.208952
 30
0.0
 11
197.630009
 21
103.703546
 31
0.0
  0
LINE
  5
55F
  8
0
 62
     0
 10
196.384732
 20
104.948823
 30
0.0
 11
195.748005
 21
105.58555
 31
0.0
  0
LINE
  5
560
  8
0
 62
     0
 10
198.442801
 20
103.208952
 30
0.0
 11
197.855526
 21
103.796227
 31
0.0
  0
LINE
  5
561
  8
0
 62
     0
 10
196.502999
 20
105.148753
 30
0.0
 11
196.033135
 21
105.618617
 31
0.0
  0
LINE
  5
562
  8
0
 62
     0
 10
197.573104
 20
104.078649
 30
0.0
 11
197.380196
 21
104.271557
 31
0.0
  0
LINE
  5
563
  8
0
 62
     0
 10
198.760999
 20
103.208952
 30
0.0
 11
197.955988
 21
104.013963
 31
0.0
  0
LINE
  5
564
  8
0
 62
     0
 10
196.745041
 20
105.22491
 30
0.0
 11
196.323833
 21
105.646118
 31
0.0
  0
LINE
  5
565
  8
0
 62
     0
 10
197.891302
 20
104.078649
 30
0.0
 11
197.668574
 21
104.301376
 31
0.0
  0
LINE
  5
566
  8
0
 62
     0
 10
199.079197
 20
103.208952
 30
0.0
 11
197.986772
 21
104.301376
 31
0.0
  0
LINE
  5
567
  8
0
 62
     0
 10
197.034275
 20
105.253874
 30
0.0
 11
196.620401
 21
105.667748
 31
0.0
  0
LINE
  5
568
  8
0
 62
     0
 10
199.371618
 20
103.234729
 30
0.0
 11
198.304971
 21
104.301376
 31
0.0
  0
LINE
  5
569
  8
0
 62
     0
 10
197.347781
 20
105.258566
 30
0.0
 11
196.923178
 21
105.683169
 31
0.0
  0
LINE
  5
56A
  8
0
 62
     0
 10
199.419315
 20
103.50523
 30
0.0
 11
198.623169
 21
104.301376
 31
0.0
  0
LINE
  5
56B
  8
0
 62
     0
 10
197.692832
 20
105.231713
 30
0.0
 11
197.232551
 21
105.691994
 31
0.0
  0
LINE
  5
56C
  8
0
 62
     0
 10
199.467011
 20
103.775732
 30
0.0
 11
198.941367
 21
104.301376
 31
0.0
  0
LINE
  5
56D
  8
0
 62
     0
 10
198.27875
 20
104.963993
 30
0.0
 11
197.548954
 21
105.693789
 31
0.0
  0
LINE
  5
56E
  8
0
 62
     0
 10
199.514708
 20
104.046233
 30
0.0
 11
199.259565
 21
104.301376
 31
0.0
  0
LINE
  5
56F
  8
0
 62
     0
 10
198.596948
 20
104.963993
 30
0.0
 11
197.872889
 21
105.688052
 31
0.0
  0
LINE
  5
570
  8
0
 62
     0
 10
198.915146
 20
104.963993
 30
0.0
 11
198.204929
 21
105.67421
 31
0.0
  0
LINE
  5
571
  8
0
 62
     0
 10
199.233344
 20
104.963993
 30
0.0
 11
198.545745
 21
105.651593
 31
0.0
  0
LINE
  5
572
  8
0
 62
     0
 10
199.551542
 20
104.963993
 30
0.0
 11
198.896119
 21
105.619416
 31
0.0
  0
LINE
  5
573
  8
0
 62
     0
 10
199.705495
 20
105.128239
 30
0.0
 11
199.256984
 21
105.57675
 31
0.0
  0
ENDBLK
  5
575
  8
0
  0
BLOCK
  8
0
  2
3
 70
     0
 10
74.0
 20
118.0
 30
0.0
  3
3
  1

  0
TEXT
  5
E4
  8
SCHRAFFIERT
 10
74.0
 20
117.0
 30
0.0
 40
2.5
  1
%%P0.1
 41
0.7
 51
15.0
  0
ENDBLK
  5
E7
  8
0
  0
BLOCK
  8
0
  2
*X3
 70
     1
 10
0.0
 20
0.0
 30
0.0
  3
*X3
  1

  0
LINE
  5
71E
  8
0
 62
     0
 10
51.502223
 20
198.933987
 30
0.0
 11
51.856175
 21
199.287939
 31
0.0
  0
LINE
  5
71F
  8
0
 62
     0
 10
56.093234
 20
203.524998
 30
0.0
 11
56.447187
 21
203.878951
 31
0.0
  0
LINE
  5
720
  8
0
 62
     0
 10
51.323989
 20
199.109306
 30
0.0
 11
51.677698
 21
199.463015
 31
0.0
  0
LINE
  5
721
  8
0
 62
     0
 10
55.918158
 20
203.703476
 30
0.0
 11
56.271868
 21
204.057185
 31
0.0
  0
LINE
  5
722
  8
0
 62
     0
 10
51.158412
 20
199.297283
 30
0.0
 11
51.514
 21
199.652871
 31
0.0
  0
LINE
  5
723
  8
0
 62
     0
 10
55.728303
 20
203.867173
 30
0.0
 11
56.083891
 21
204.222762
 31
0.0
  0
LINE
  5
724
  8
0
 62
     0
 10
51.005667
 20
199.498091
 30
0.0
 11
51.365362
 21
199.857786
 31
0.0
  0
LINE
  5
725
  8
0
 62
     0
 10
55.523388
 20
204.015812
 30
0.0
 11
55.883083
 21
204.375507
 31
0.0
  0
LINE
  5
726
  8
0
 62
     0
 10
50.866139
 20
199.712117
 30
0.0
 11
51.232406
 21
200.078384
 31
0.0
  0
LINE
  5
727
  8
0
 62
     0
 10
55.30279
 20
204.148767
 30
0.0
 11
55.669057
 21
204.515034
 31
0.0
  0
LINE
  5
728
  8
0
 62
     0
 10
50.740457
 20
199.939987
 30
0.0
 11
51.116179
 21
200.315709
 31
0.0
  0
LINE
  5
729
  8
0
 62
     0
 10
55.065464
 20
204.264995
 30
0.0
 11
55.441186
 21
204.640717
 31
0.0
  0
LINE
  5
72A
  8
0
 62
     0
 10
50.629548
 20
200.182632
 30
0.0
 11
51.01828
 21
200.571364
 31
0.0
  0
LINE
  5
72B
  8
0
 62
     0
 10
54.809809
 20
204.362894
 30
0.0
 11
55.198541
 21
204.751625
 31
0.0
  0
LINE
  5
72C
  8
0
 62
     0
 10
50.534739
 20
200.441377
 30
0.0
 11
50.941124
 21
200.847762
 31
0.0
  0
LINE
  5
72D
  8
0
 62
     0
 10
54.533412
 20
204.44005
 30
0.0
 11
54.939797
 21
204.846434
 31
0.0
  0
LINE
  5
72E
  8
0
 62
     0
 10
50.457911
 20
200.718102
 30
0.0
 11
50.888414
 21
201.148605
 31
0.0
  0
LINE
  5
72F
  8
0
 62
     0
 10
54.232569
 20
204.49276
 30
0.0
 11
54.663071
 21
204.923262
 31
0.0
  0
LINE
  5
730
  8
0
 62
     0
 10
50.401783
 20
201.015528
 30
0.0
 11
50.866134
 21
201.479878
 31
0.0
  0
LINE
  5
731
  8
0
 62
     0
 10
53.901296
 20
204.51504
 30
0.0
 11
54.365646
 21
204.97939
 31
0.0
  0
LINE
  5
732
  8
0
 62
     0
 10
50.37043
 20
201.337728
 30
0.0
 11
50.884908
 21
201.852206
 31
0.0
  0
LINE
  5
733
  8
0
 62
     0
 10
53.528967
 20
204.496265
 30
0.0
 11
54.043446
 21
205.010744
 31
0.0
  0
LINE
  5
734
  8
0
 62
     0
 10
50.370351
 20
201.691202
 30
0.0
 11
50.96716
 21
202.288011
 31
0.0
  0
LINE
  5
735
  8
0
 62
     0
 10
53.093162
 20
204.414014
 30
0.0
 11
53.689972
 21
205.010823
 31
0.0
  0
LINE
  5
736
  8
0
 62
     0
 10
50.413009
 20
202.087414
 30
0.0
 11
51.182802
 21
202.857207
 31
0.0
  0
LINE
  5
737
  8
0
 62
     0
 10
52.523967
 20
204.198372
 30
0.0
 11
53.29376
 21
204.968164
 31
0.0
  0
LINE
  5
738
  8
0
 62
     0
 10
50.522532
 20
202.55049
 30
0.0
 11
52.830683
 21
204.858641
 31
0.0
  0
LINE
  5
739
  8
0
 62
     0
 10
50.774159
 20
203.15567
 30
0.0
 11
52.225503
 21
204.607015
 31
0.0
  0
LINE
  5
73A
  8
0
 62
     0
 10
51.693137
 20
198.771348
 30
0.0
 11
52.049469
 21
199.127679
 31
0.0
  0
LINE
  5
73B
  8
0
 62
     0
 10
56.253494
 20
203.331705
 30
0.0
 11
56.609826
 21
203.688037
 31
0.0
  0
LINE
  5
73C
  8
0
 62
     0
 10
51.896952
 20
198.62161
 30
0.0
 11
52.257933
 21
198.98259
 31
0.0
  0
LINE
  5
73D
  8
0
 62
     0
 10
56.398584
 20
203.123241
 30
0.0
 11
56.759564
 21
203.484221
 31
0.0
  0
LINE
  5
73E
  8
0
 62
     0
 10
52.114107
 20
198.48521
 30
0.0
 11
52.48228
 21
198.853384
 31
0.0
  0
LINE
  5
73F
  8
0
 62
     0
 10
56.52779
 20
202.898894
 30
0.0
 11
56.895963
 21
203.267067
 31
0.0
  0
LINE
  5
740
  8
0
 62
     0
 10
52.345291
 20
198.362841
 30
0.0
 11
52.723667
 21
198.741218
 31
0.0
  0
LINE
  5
741
  8
0
 62
     0
 10
56.639956
 20
202.657506
 30
0.0
 11
57.018332
 21
203.035883
 31
0.0
  0
LINE
  5
742
  8
0
 62
     0
 10
52.591515
 20
198.255512
 30
0.0
 11
52.983857
 21
198.647853
 31
0.0
  0
LINE
  5
743
  8
0
 62
     0
 10
56.73332
 20
202.397317
 30
0.0
 11
57.125661
 21
202.789658
 31
0.0
  0
LINE
  5
744
  8
0
 62
     0
 10
52.854216
 20
198.16466
 30
0.0
 11
53.265503
 21
198.575947
 31
0.0
  0
LINE
  5
745
  8
0
 62
     0
 10
56.805227
 20
202.11567
 30
0.0
 11
57.216514
 21
202.526957
 31
0.0
  0
LINE
  5
746
  8
0
 62
     0
 10
53.135438
 20
198.092328
 30
0.0
 11
53.572721
 21
198.529611
 31
0.0
  0
LINE
  5
747
  8
0
 62
     0
 10
56.851563
 20
201.808453
 30
0.0
 11
57.288846
 21
202.245736
 31
0.0
  0
LINE
  5
748
  8
0
 62
     0
 10
53.438152
 20
198.041488
 30
0.0
 11
53.91227
 21
198.515607
 31
0.0
  0
LINE
  5
749
  8
0
 62
     0
 10
56.865567
 20
201.468904
 30
0.0
 11
57.339685
 21
201.943022
 31
0.0
  0
LINE
  5
74A
  8
0
 62
     0
 10
53.766867
 20
198.016651
 30
0.0
 11
54.296529
 21
198.546313
 31
0.0
  0
LINE
  5
74B
  8
0
 62
     0
 10
56.834861
 20
201.084644
 30
0.0
 11
57.364523
 21
201.614306
 31
0.0
  0
LINE
  5
74C
  8
0
 62
     0
 10
54.128913
 20
198.025143
 30
0.0
 11
54.753244
 21
198.649474
 31
0.0
  0
LINE
  5
74D
  8
0
 62
     0
 10
56.7317
 20
200.62793
 30
0.0
 11
57.356031
 21
201.252261
 31
0.0
  0
LINE
  5
74E
  8
0
 62
     0
 10
54.537633
 20
198.080309
 30
0.0
 11
55.386461
 21
198.929138
 31
0.0
  0
LINE
  5
74F
  8
0
 62
     0
 10
56.452036
 20
199.994713
 30
0.0
 11
57.300864
 21
200.843541
 31
0.0
  0
LINE
  5
750
  8
0
 62
     0
 10
55.022874
 20
198.211997
 30
0.0
 11
57.169176
 21
200.358299
 31
0.0
  0
LINE
  5
751
  8
0
 62
     0
 10
55.696657
 20
198.532226
 30
0.0
 11
56.848947
 21
199.684517
 31
0.0
  0
ENDBLK
  5
753
  8
0
  0
BLOCK
  8
0
  2
*X4
 70
     1
 10
0.0
 20
0.0
 30
0.0
  3
*X4
  1

  0
LINE
  5
87E
  8
0
 62
     0
 10
51.910248
 20
200.402672
 30
0.0
 11
52.206011
 21
200.698435
 31
0.0
  0
LINE
  5
87F
  8
0
 62
     0
 10
51.793402
 20
200.639379
 30
0.0
 11
52.104303
 21
200.950281
 31
0.0
  0
LINE
  5
880
  8
0
 62
     0
 10
52.950675
 20
201.796653
 30
0.0
 11
53.220111
 21
202.066088
 31
0.0
  0
LINE
  5
881
  8
0
 62
     0
 10
51.70141
 20
200.900941
 30
0.0
 11
52.037036
 21
201.236566
 31
0.0
  0
LINE
  5
882
  8
0
 62
     0
 10
52.723668
 20
201.923198
 30
0.0
 11
53.017697
 21
202.217227
 31
0.0
  0
LINE
  5
883
  8
0
 62
     0
 10
51.639222
 20
201.192306
 30
0.0
 11
52.01673
 21
201.569814
 31
0.0
  0
LINE
  5
884
  8
0
 62
     0
 10
52.496684
 20
202.049768
 30
0.0
 11
52.790713
 21
202.343797
 31
0.0
  0
LINE
  5
885
  8
0
 62
     0
 10
51.615937
 20
201.522575
 30
0.0
 11
52.075918
 21
201.982556
 31
0.0
  0
LINE
  5
886
  8
0
 62
     0
 10
52.269701
 20
202.176338
 30
0.0
 11
52.56373
 21
202.470367
 31
0.0
  0
LINE
  5
887
  8
0
 62
     0
 10
51.651045
 20
201.911236
 30
0.0
 11
52.336746
 21
202.596937
 31
0.0
  0
LINE
  5
888
  8
0
 62
     0
 10
51.805526
 20
202.41927
 30
0.0
 11
52.101173
 21
202.714917
 31
0.0
  0
LINE
  5
889
  8
0
 62
     0
 10
52.049103
 20
200.187974
 30
0.0
 11
52.336108
 21
200.474979
 31
0.0
  0
LINE
  5
88A
  8
0
 62
     0
 10
52.286054
 20
200.071371
 30
0.0
 11
52.435021
 21
200.220339
 31
0.0
  0
ENDBLK
  5
88C
  8
0
  0
BLOCK
  8
0
  2
NT
 70
     0
 10
0.0
 20
0.0
 30
0.0
  3
NT
  1

  0
POLYLINE
  5
5B1
  8
0
 66
     1
 10
0.0
 20
0.0
 30
0.0
  0
VERTEX
  5
98B
  8
0
 10
0.288675
 20
-0.166667
 30
0.0
 42
0.291473
  0
VERTEX
  5
98C
  8
0
 10
0.273051
 20
0.191192
 30
0.0
 42
1.0
  0
VERTEX
  5
98D
  8
0
 10
0.204788
 20
0.143394
 30
0.0
 42
-0.246577
  0
VERTEX
  5
98E
  8
0
 10
0.234311
 20
-0.087167
 30
0.0
  0
VERTEX
  5
98F
  8
0
 10
0.147129
 20
-0.036832
 30
0.0
 42
1.0
  0
VERTEX
  5
990
  8
0
 10
0.105462
 20
-0.109001
 30
0.0
  0
VERTEX
  5
991
  8
0
 10
0.231757
 20
-0.181918
 30
0.0
 42
0.414214
  0
VERTEX
  5
992
  8
0
 10
0.288675
 20
-0.166667
 30
0.0
  0
SEQEND
  5
993
  8
0
  0
POLYLINE
  5
5B2
  8
0
 66
     1
 10
0.0
 20
0.0
 30
0.0
 70
     1
  0
VERTEX
  5
994
  8
0
 10
0.166667
 20
0.288675
 30
0.0
 42
0.291473
  0
VERTEX
  5
995
  8
0
 10
-0.191192
 20
0.273051
 30
0.0
 42
1.0
  0
VERTEX
  5
996
  8
0
 10
-0.143394
 20
0.204788
 30
0.0
 42
-0.111311
  0
VERTEX
  5
997
  8
0
 10
-0.041667
 20
0.246503
 30
0.0
  0
VERTEX
  5
998
  8
0
 10
-0.041667
 20
-0.291667
 30
0.0
 42
1.0
  0
VERTEX
  5
999
  8
0
 10
0.041667
 20
-0.291667
 30
0.0
  0
VERTEX
  5
99A
  8
0
 10
0.041667
 20
0.246503
 30
0.0
 42
-0.089274
  0
VERTEX
  5
99B
  8
0
 10
0.125
 20
0.216506
 30
0.0
 42
1.0
  0
SEQEND
  5
99C
  8
0
  0
POLYLINE
  5
5B3
  8
0
 66
     1
 10
0.0
 20
0.0
 30
0.0
  0
VERTEX
  5
99D
  8
0
 10
-0.288675
 20
0.166667
 30
0.0
 42
0.291473
  0
VERTEX
  5
99E
  8
0
 10
-0.273051
 20
-0.191192
 30
0.0
 42
1.0
  0
VERTEX
  5
99F
  8
0
 10
-0.204788
 20
-0.143394
 30
0.0
 42
-0.246577
  0
VERTEX
  5
9A0
  8
0
 10
-0.234311
 20
0.087167
 30
0.0
  0
VERTEX
  5
9A1
  8
0
 10
-0.147129
 20
0.036832
 30
0.0
 42
1.0
  0
VERTEX
  5
9A2
  8
0
 10
-0.105462
 20
0.109001
 30
0.0
  0
VERTEX
  5
9A3
  8
0
 10
-0.231757
 20
0.181918
 30
0.0
 42
0.414214
  0
VERTEX
  5
9A4
  8
0
 10
-0.288675
 20
0.166667
 30
0.0
  0
SEQEND
  5
9A5
  8
0
  0
CIRCLE
  5
5B4
  8
0
 10
0.0
 20
0.0
 30
0.0
 40
0.416667
  0
CIRCLE
  5
5B5
  8
0
 10
0.0
 20
0.0
 30
0.0
 40
0.5
  0
ENDBLK
  5
5B7
  8
0
  0
ENDSEC
  0
SECTION
  2
ENTITIES
  0
TEXT
  5
1E
  8
BEM1
 62
     3
 10
201.412442
 20
63.549358
 30
0.0
 40
3.5
  1
[0.780"   ]
 41
0.7
 51
15.0
  0
LINE
  5
20
  8
BEM1
 10
183.925111
 20
78.134837
 30
0.0
 11
253.437575
 21
78.134837
 31
0.0
  0
LINE
  5
21
  8
BEM1
 10
179.065068
 20
61.960971
 30
0.0
 11
231.465068
 21
61.960971
 31
0.0
  0
LINE
  5
22
  8
BEM1
 10
230.209828
 20
123.583138
 30
0.0
 11
201.115356
 21
105.215012
 31
0.0
  0
CIRCLE
  5
23
  8
05
 10
205.265068
 20
107.834837
 30
0.0
 40
33.0
  0
LINE
  5
25
  8
MITTE
 10
171.145574
 20
107.834837
 30
0.0
 11
239.384562
 21
107.834837
 31
0.0
  0
TEXT
  5
28
  8
035
 10
180.262278
 20
149.617287
 30
0.0
 40
3.0
  1
Panel cut out (rear side)
  7
ARIAL
  0
TEXT
  5
2B
  8
0
 62
     3
 10
168.262278
 20
155.542195
 30
0.0
 40
3.5
  1
Frontplattenausschnitt (Rückseite)
  7
ARIAL
  0
LINE
  5
2C
  8
05
 10
192.290728
 20
183.856597
 30
0.0
 11
217.490728
 21
183.856597
 31
0.0
  0
LINE
  5
2D
  8
05
 10
195.290728
 20
238.755082
 30
0.0
 11
231.590728
 21
238.755082
 31
0.0
  0
LINE
  5
2E
  8
05
 10
208.490728
 20
240.855082
 30
0.0
 11
211.190728
 21
240.855082
 31
0.0
  0
LINE
  5
2F
  8
05
 10
209.990728
 20
220.305082
 30
0.0
 11
225.080728
 21
220.305082
 31
0.0
  0
LINE
  5
30
  8
05
 10
209.990728
 20
219.405082
 30
0.0
 11
225.080728
 21
219.405082
 31
0.0
  0
LINE
  5
31
  8
025
 10
195.290728
 20
198.493481
 30
0.0
 11
217.490728
 21
198.493481
 31
0.0
  0
LINE
  5
33
  8
05
 10
195.290728
 20
203.355082
 30
0.0
 11
217.490728
 21
203.355082
 31
0.0
  0
LINE
  5
34
  8
05
 10
209.990728
 20
209.205082
 30
0.0
 11
225.080728
 21
209.205082
 31
0.0
  0
LINE
  5
35
  8
05
 10
209.990728
 20
206.205082
 30
0.0
 11
218.240728
 21
206.205082
 31
0.0
  0
LINE
  5
36
  8
05
 10
195.290728
 20
233.505082
 30
0.0
 11
225.080728
 21
233.505082
 31
0.0
  0
LINE
  5
37
  8
05
 10
195.290728
 20
230.505082
 30
0.0
 11
225.080728
 21
230.505082
 31
0.0
  0
LINE
  5
38
  8
035
 62
     3
 10
217.490728
 20
244.677896
 30
0.0
 11
208.490728
 21
244.677896
 31
0.0
  0
LINE
  5
39
  8
035
 62
     3
 10
208.490728
 20
245.805082
 30
0.0
 11
211.548552
 21
245.805082
 31
0.0
  0
LINE
  5
3A
  8
035
 62
     3
 10
217.490728
 20
243.477896
 30
0.0
 11
208.490728
 21
243.477896
 31
0.0
  0
LINE
  5
3B
  8
MITTE
 10
162.642575
 20
219.855082
 30
0.0
 11
254.604036
 21
219.855082
 31
0.0
  0
POLYLINE
  5
3C
  8
RAHMEN
 66
     1
 10
0.0
 20
0.0
 30
0.0
 70
     1
  0
VERTEX
  5
901
  8
RAHMEN
 10
10.0
 20
10.0
 30
0.0
  0
VERTEX
  5
902
  8
RAHMEN
 10
410.0
 20
10.0
 30
0.0
  0
VERTEX
  5
903
  8
RAHMEN
 10
410.0
 20
287.0
 30
0.0
  0
VERTEX
  5
904
  8
RAHMEN
 10
10.0
 20
287.0
 30
0.0
  0
SEQEND
  5
905
  8
RAHMEN
  0
LINE
  5
3E
  8
05
 10
57.717339
 20
87.978582
 30
0.0
 11
91.658465
 21
87.978582
 31
0.0
  0
LINE
  5
3F
  8
05
 10
90.887902
 20
95.078581
 30
0.0
 11
58.487902
 21
95.078581
 31
0.0
  0
LINE
  5
40
  8
05
 10
112.186387
 20
124.278581
 30
0.0
 11
37.189417
 21
124.278581
 31
0.0
  0
LINE
  5
41
  8
05
 10
105.917902
 20
55.878583
 30
0.0
 11
50.387901
 21
55.878583
 31
0.0
  0
LINE
  5
42
  8
05
 10
88.337904
 20
63.678583
 30
0.0
 11
61.0379
 21
63.678583
 31
0.0
  0
LINE
  5
43
  8
05
 10
45.815468
 20
79.878582
 30
0.0
 11
103.560331
 21
79.878582
 31
0.0
  0
LINE
  5
44
  8
05
 10
105.887902
 20
132.378581
 30
0.0
 11
43.487902
 21
132.378581
 31
0.0
  0
LINE
  5
45
  8
05
 10
99.317901
 20
45.378583
 30
0.0
 11
52.787905
 21
45.378581
 31
0.0
  0
LINE
  5
46
  8
05
 10
50.387901
 20
60.978583
 30
0.0
 11
50.387901
 21
47.778581
 31
0.0
  0
LINE
  5
47
  8
MITTE
 10
74.687902
 20
135.788664
 30
0.0
 11
74.687902
 21
43.778262
 31
0.0
  0
ARC
  5
48
  8
05
 10
52.787904
 20
47.778581
 30
0.0
 40
2.4
 50
180.0
 51
270.000003
  0
LINE
  5
49
  8
05
 10
47.087902
 20
105.378581
 30
0.0
 11
47.087902
 21
79.878582
 31
0.0
  0
LINE
  5
4A
  8
05
 10
58.487902
 20
119.778581
 30
0.0
 11
58.487902
 21
95.078581
 31
0.0
  0
LINE
  5
4B
  8
05
 10
57.717339
 20
105.378581
 30
0.0
 11
57.717339
 21
87.978582
 31
0.0
  0
LINE
  5
4C
  8
05
 10
52.187902
 20
119.778581
 30
0.0
 11
52.187902
 21
79.878582
 31
0.0
  0
LINE
  5
4D
  8
05
 10
41.687902
 20
124.278581
 30
0.0
 11
41.687902
 21
65.778581
 31
0.0
  0
LINE
  5
4E
  8
05
 10
65.687902
 20
119.178581
 30
0.0
 11
65.687902
 21
95.078581
 31
0.0
  0
LINE
  5
4F
  8
MITTE
 10
36.003483
 20
96.828581
 30
0.0
 11
46.026208
 21
96.828581
 31
0.0
  0
LINE
  5
50
  8
05
 10
44.0579
 20
61.878583
 30
0.0
 11
59.2379
 21
61.878583
 31
0.0
  0
LINE
  5
51
  8
05
 10
45.815468
 20
64.878582
 30
0.0
 11
45.815468
 21
79.878582
 31
0.0
  0
LINE
  5
52
  8
05
 10
41.687902
 20
65.778581
 30
0.0
 11
45.815468
 21
65.778581
 31
0.0
  0
LINE
  5
53
  8
05
 10
44.0579
 20
64.878582
 30
0.0
 11
45.815468
 21
64.878582
 31
0.0
  0
LINE
  5
54
  8
05
 10
44.0579
 20
65.778581
 30
0.0
 11
44.0579
 21
61.878583
 31
0.0
  0
LINE
  5
55
  8
05
 10
38.687902
 20
97.728581
 30
0.0
 11
38.687902
 21
95.928581
 31
0.0
  0
LINE
  5
56
  8
05
 10
39.437902
 20
95.178581
 30
0.0
 11
41.687902
 21
95.178581
 31
0.0
  0
LINE
  5
57
  8
05
 10
39.437902
 20
95.178581
 30
0.0
 11
38.687902
 21
95.928581
 31
0.0
  0
LINE
  5
58
  8
05
 10
39.437902
 20
98.478581
 30
0.0
 11
41.687902
 21
98.478581
 31
0.0
  0
LINE
  5
59
  8
05
 10
39.437902
 20
98.478581
 30
0.0
 11
38.687902
 21
97.728581
 31
0.0
  0
LINE
  5
5A
  8
05
 10
61.037902
 20
63.678586
 30
0.0
 11
64.037902
 21
63.678586
 31
0.0
  0
LINE
  5
5B
  8
05
 10
55.0379
 20
58.300259
 30
0.0
 11
53.670735
 21
61.232154
 31
0.0
  0
LINE
  5
5C
  8
05
 10
55.0379
 20
56.178581
 30
0.0
 11
53.387901
 21
56.178581
 31
0.0
  0
ARC
  5
5D
  8
05
 10
53.12695
 20
60.978583
 30
0.0
 40
0.6
 50
25.0
 51
90.0
  0
ARC
  5
5E
  8
05
 10
52.787901
 20
60.978583
 30
0.0
 40
0.6
 50
0.0
 51
90.0
  0
ARC
  5
5F
  8
05
 10
50.987901
 20
60.978583
 30
0.0
 40
0.6
 50
90.0
 51
180.0
  0
LINE
  5
60
  8
05
 10
53.387901
 20
60.978583
 30
0.0
 11
53.387901
 21
55.878583
 31
0.0
  0
LINE
  5
61
  8
05
 10
53.12695
 20
61.578583
 30
0.0
 11
50.987901
 21
61.578583
 31
0.0
  0
LINE
  5
62
  8
05
 10
56.8379
 20
61.878583
 30
0.0
 11
56.8379
 21
56.17858
 31
0.0
  0
LINE
  5
63
  8
05
 10
55.0379
 20
61.878583
 30
0.0
 11
55.0379
 21
55.878583
 31
0.0
  0
LINE
  5
64
  8
05
 10
59.2379
 20
61.878583
 30
0.0
 11
59.2379
 21
56.17858
 31
0.0
  0
LINE
  5
65
  8
05
 10
61.28016
 20
55.878583
 30
0.0
 11
61.487902
 21
63.678586
 31
0.0
  0
LINE
  5
66
  8
05
 10
59.2379
 20
61.878583
 30
0.0
 11
61.0379
 21
63.678583
 31
0.0
  0
LINE
  5
67
  8
05
 10
69.812902
 20
63.678583
 30
0.0
 11
69.812902
 21
56.17858
 31
0.0
  0
LINE
  5
68
  8
05
 10
67.412902
 20
63.678583
 30
0.0
 11
67.412902
 21
56.17858
 31
0.0
  0
LINE
  5
69
  8
05
 10
63.795644
 20
55.878583
 30
0.0
 11
63.587902
 21
63.678586
 31
0.0
  0
LINE
  5
6A
  8
MITTE
 10
62.537902
 20
55.878583
 30
0.0
 11
62.537902
 21
64.318863
 31
0.0
  0
LINE
  5
6B
  8
05
 10
73.43016
 20
55.878583
 30
0.0
 11
73.637902
 21
63.678586
 31
0.0
  0
LINE
  5
6C
  8
05
 10
75.945644
 20
55.878583
 30
0.0
 11
75.737902
 21
63.678586
 31
0.0
  0
LINE
  5
6D
  8
05
 10
73.187902
 20
63.678586
 30
0.0
 11
76.187902
 21
63.678586
 31
0.0
  0
LINE
  5
6E
  8
05
 10
62.987902
 20
87.378581
 30
0.0
 11
52.183486
 21
87.378581
 31
0.0
  0
LINE
  5
6F
  8
035
 10
62.987902
 20
95.078581
 30
0.0
 11
62.987902
 21
79.878582
 31
0.0
  0
LINE
  5
70
  8
05
 10
71.687902
 20
85.878582
 30
0.0
 11
71.687902
 21
79.878582
 31
0.0
  0
LINE
  5
71
  8
035
 10
72.437902
 20
79.878582
 30
0.0
 11
72.437902
 21
85.128582
 31
0.0
  0
LINE
  5
72
  8
035
 10
70.937902
 20
79.878582
 30
0.0
 11
70.937902
 21
85.128582
 31
0.0
  0
LINE
  5
73
  8
05
 10
77.687902
 20
85.878582
 30
0.0
 11
77.687902
 21
79.878582
 31
0.0
  0
LINE
  5
74
  8
035
 10
76.937902
 20
85.128582
 30
0.0
 11
76.937902
 21
79.878582
 31
0.0
  0
LINE
  5
75
  8
035
 10
78.437902
 20
85.128582
 30
0.0
 11
78.437902
 21
79.878582
 31
0.0
  0
ARC
  5
76
  8
05
 10
71.087902
 20
84.900714
 30
0.0
 40
0.6
 50
0.0
 51
90.0
  0
LINE
  5
77
  8
05
 10
72.339068
 20
85.500714
 30
0.0
 11
71.036736
 21
85.500714
 31
0.0
  0
ARC
  5
78
  8
035
 10
71.687902
 20
85.128582
 30
0.0
 40
0.75
 50
0.0
 51
180.0
  0
ARC
  5
79
  8
05
 10
78.287902
 20
84.900714
 30
0.0
 40
0.6
 50
90.0
 51
180.0
  0
ARC
  5
7A
  8
035
 10
77.687902
 20
85.128582
 30
0.0
 40
0.75
 50
0.0
 51
180.0
  0
LINE
  5
7B
  8
05
 10
78.339068
 20
85.500714
 30
0.0
 11
77.036736
 21
85.500714
 31
0.0
  0
LINE
  5
7C
  8
05
 10
50.687902
 20
113.778581
 30
0.0
 11
37.189417
 21
113.778581
 31
0.0
  0
LINE
  5
7D
  8
05
 10
58.487902
 20
105.378581
 30
0.0
 11
41.687902
 21
105.378581
 31
0.0
  0
LINE
  5
7E
  8
MITTE
 10
36.003483
 20
106.117681
 30
0.0
 11
46.026208
 21
106.117681
 31
0.0
  0
LINE
  5
7F
  8
05
 10
65.087902
 20
119.778581
 30
0.0
 11
38.549424
 21
119.778581
 31
0.0
  0
LINE
  5
80
  8
05
 10
41.987902
 20
130.878581
 30
0.0
 11
41.987902
 21
124.278581
 31
0.0
  0
LINE
  5
81
  8
05
 10
37.189417
 20
124.278581
 30
0.0
 11
37.189417
 21
110.778581
 31
0.0
  0
LINE
  5
82
  8
05
 10
41.687902
 20
110.778581
 30
0.0
 11
37.189417
 21
110.778581
 31
0.0
  0
LINE
  5
83
  8
05
 10
39.437902
 20
107.778581
 30
0.0
 11
41.687902
 21
107.778581
 31
0.0
  0
LINE
  5
84
  8
05
 10
39.437902
 20
104.478581
 30
0.0
 11
41.687902
 21
104.478581
 31
0.0
  0
LINE
  5
85
  8
05
 10
39.437902
 20
107.778581
 30
0.0
 11
38.687902
 21
107.028581
 31
0.0
  0
LINE
  5
86
  8
05
 10
39.437902
 20
104.478581
 30
0.0
 11
38.687902
 21
105.228581
 31
0.0
  0
LINE
  5
87
  8
05
 10
38.687902
 20
107.028581
 30
0.0
 11
38.687902
 21
105.228581
 31
0.0
  0
LINE
  5
88
  8
05
 10
42.370986
 20
119.778581
 30
0.0
 11
42.370986
 21
113.778581
 31
0.0
  0
LINE
  5
89
  8
05
 10
41.687902
 20
119.778581
 30
0.0
 11
41.687902
 21
113.778581
 31
0.0
  0
ARC
  5
8A
  8
05
 10
43.487902
 20
130.878581
 30
0.0
 40
1.5
 50
90.0
 51
180.0
  0
LINE
  5
8B
  8
05
 10
62.187902
 20
131.778581
 30
0.0
 11
62.187902
 21
124.278581
 31
0.0
  0
LINE
  5
8C
  8
05
 10
59.187902
 20
130.878581
 30
0.0
 11
59.187902
 21
124.278581
 31
0.0
  0
LINE
  5
8D
  8
05
 10
53.987902
 20
119.778581
 30
0.0
 11
53.987902
 21
105.378581
 31
0.0
  0
LINE
  5
8E
  8
05
 10
50.687902
 20
119.778581
 30
0.0
 11
50.687902
 21
113.778581
 31
0.0
  0
ARC
  5
8F
  8
05
 10
65.087902
 20
119.178581
 30
0.0
 40
0.6
 50
0.0
 51
90.0
  0
ARC
  5
90
  8
05
 10
62.787902
 20
131.778581
 30
0.0
 40
0.6
 50
90.0
 51
180.0
  0
ARC
  5
91
  8
05
 10
57.687902
 20
130.878581
 30
0.0
 40
1.5
 50
0.0
 51
90.0
  0
ARC
  5
92
  8
05
 10
106.877902
 20
56.17858
 30
0.0
 40
0.539998
 50
241.927468
 51
118.072597
  0
ARC
  5
93
  8
05
 10
106.877902
 20
56.17858
 30
0.0
 40
1.439998
 50
241.927468
 51
118.072597
  0
ARC
  5
94
  8
05
 10
99.317901
 20
51.378583
 30
0.0
 40
6.0
 50
270.000003
 51
0.0
  0
ARC
  5
95
  8
05
 10
105.917902
 20
54.378583
 30
0.0
 40
0.6
 50
61.927468
 51
172.284022
  0
LINE
  5
96
  8
05
 10
105.317901
 20
51.378583
 30
0.0
 11
105.317901
 21
54.378583
 31
0.0
  0
LINE
  5
97
  8
BEM1
 10
167.856772
 20
87.45433
 30
0.0
 11
136.55053
 21
87.480439
 31
0.0
  0
TEXT
  5
98
  8
BEM1
 62
     3
 10
141.241362
 20
89.22607
 30
0.0
 40
3.5
  1
%%C2.70 [0.106"]
 50
359.961444
 41
0.7
 51
15.0
 72
     1
 11
154.105036
 21
90.967414
 31
0.0
 73
     2
  0
LINE
  5
99
  8
05
 10
97.187902
 20
105.378581
 30
0.0
 11
97.187902
 21
79.878582
 31
0.0
  0
LINE
  5
9A
  8
05
 10
102.287902
 20
105.378581
 30
0.0
 11
102.287902
 21
79.878582
 31
0.0
  0
LINE
  5
9B
  8
05
 10
90.887902
 20
119.778581
 30
0.0
 11
90.887902
 21
95.078581
 31
0.0
  0
LINE
  5
9C
  8
05
 10
110.687902
 20
103.728581
 30
0.0
 11
110.687902
 21
101.928581
 31
0.0
  0
LINE
  5
9D
  8
05
 10
107.687902
 20
110.778581
 30
0.0
 11
107.687902
 21
65.778581
 31
0.0
  0
LINE
  5
9E
  8
05
 10
83.687902
 20
119.178581
 30
0.0
 11
83.687902
 21
95.078581
 31
0.0
  0
LINE
  5
9F
  8
MITTE
 10
103.000859
 20
93.528581
 30
0.0
 11
113.023585
 21
93.528581
 31
0.0
  0
LINE
  5
A0
  8
05
 10
103.560331
 20
64.878583
 30
0.0
 11
103.560331
 21
79.878582
 31
0.0
  0
LINE
  5
A1
  8
05
 10
105.317899
 20
61.878583
 30
0.0
 11
90.137904
 21
61.878583
 31
0.0
  0
LINE
  5
A2
  8
05
 10
94.337898
 20
58.300264
 30
0.0
 11
95.705061
 21
61.232154
 31
0.0
  0
LINE
  5
A3
  8
05
 10
94.337898
 20
56.178581
 30
0.0
 11
95.987895
 21
56.178581
 31
0.0
  0
LINE
  5
A4
  8
05
 10
85.337902
 20
63.678586
 30
0.0
 11
88.337902
 21
63.678586
 31
0.0
  0
LINE
  5
A5
  8
MITTE
 10
86.837902
 20
55.878583
 30
0.0
 11
86.837902
 21
64.318863
 31
0.0
  0
LINE
  5
A6
  8
05
 10
85.58016
 20
55.878583
 30
0.0
 11
85.787902
 21
63.678586
 31
0.0
  0
LINE
  5
A7
  8
05
 10
81.962902
 20
63.678581
 30
0.0
 11
81.962902
 21
56.178577
 31
0.0
  0
LINE
  5
A8
  8
05
 10
79.562902
 20
63.678581
 30
0.0
 11
79.562902
 21
56.178577
 31
0.0
  0
LINE
  5
A9
  8
05
 10
92.537904
 20
61.878583
 30
0.0
 11
92.537904
 21
56.17858
 31
0.0
  0
LINE
  5
AA
  8
05
 10
90.137904
 20
61.878583
 30
0.0
 11
90.137904
 21
56.17858
 31
0.0
  0
LINE
  5
AB
  8
05
 10
88.095644
 20
55.878583
 30
0.0
 11
87.887902
 21
63.678586
 31
0.0
  0
LINE
  5
AC
  8
05
 10
94.337898
 20
61.878583
 30
0.0
 11
94.337898
 21
55.878583
 31
0.0
  0
LINE
  5
AD
  8
05
 10
90.137904
 20
61.878583
 30
0.0
 11
88.337904
 21
63.678583
 31
0.0
  0
LINE
  5
AE
  8
05
 10
102.2879
 20
56.478576
 30
0.0
 11
105.9179
 21
56.478576
 31
0.0
  0
ARC
  5
AF
  8
05
 10
96.587895
 20
60.978583
 30
0.0
 40
0.6
 50
90.0
 51
180.0
  0
ARC
  5
B0
  8
05
 10
96.248846
 20
60.978583
 30
0.0
 40
0.6
 50
90.0
 51
155.0
  0
LINE
  5
B1
  8
05
 10
102.287899
 20
56.478576
 30
0.0
 11
96.887892
 21
61.878583
 31
0.0
  0
LINE
  5
B2
  8
05
 10
98.987895
 20
59.77858
 30
0.0
 11
98.987895
 21
55.878583
 31
0.0
  0
LINE
  5
B3
  8
05
 10
95.987895
 20
60.978583
 30
0.0
 11
95.987895
 21
55.878583
 31
0.0
  0
LINE
  5
B4
  8
05
 10
96.248846
 20
61.578583
 30
0.0
 11
97.187892
 21
61.578583
 31
0.0
  0
LINE
  5
B5
  8
05
 10
105.317899
 20
65.778581
 30
0.0
 11
105.317899
 21
57.978576
 31
0.0
  0
ARC
  5
B6
  8
05
 10
105.9179
 20
57.978576
 30
0.0
 40
0.6
 50
180.0
 51
298.072597
  0
ARC
  5
B7
  8
05
 10
105.9179
 20
57.978576
 30
0.0
 40
1.5
 50
270.0
 51
298.072597
  0
ARC
  5
B8
  8
05
 10
105.917902
 20
54.378583
 30
0.0
 40
1.5
 50
61.927468
 51
90.0
  0
LINE
  5
B9
  8
05
 10
107.687902
 20
65.778581
 30
0.0
 11
103.560331
 21
65.778581
 31
0.0
  0
LINE
  5
BA
  8
05
 10
105.317899
 20
64.878583
 30
0.0
 11
103.560331
 21
64.878583
 31
0.0
  0
LINE
  5
BB
  8
05
 10
97.192318
 20
87.378581
 30
0.0
 11
86.387902
 21
87.378581
 31
0.0
  0
LINE
  5
BC
  8
035
 10
86.387902
 20
95.078581
 30
0.0
 11
86.387902
 21
79.878582
 31
0.0
  0
LINE
  5
BD
  8
05
 10
91.658465
 20
87.978582
 30
0.0
 11
91.658465
 21
87.378581
 31
0.0
  0
LINE
  5
BE
  8
05
 10
109.937902
 20
95.178581
 30
0.0
 11
110.687902
 21
94.428581
 31
0.0
  0
LINE
  5
BF
  8
05
 10
110.687902
 20
94.428581
 30
0.0
 11
110.687902
 21
92.628581
 31
0.0
  0
LINE
  5
C0
  8
05
 10
109.937902
 20
95.178581
 30
0.0
 11
107.687902
 21
95.178581
 31
0.0
  0
LINE
  5
C1
  8
05
 10
109.937902
 20
91.878581
 30
0.0
 11
107.687902
 21
91.878581
 31
0.0
  0
LINE
  5
C2
  8
05
 10
109.937902
 20
91.878581
 30
0.0
 11
110.687902
 21
92.628581
 31
0.0
  0
LINE
  5
C3
  8
05
 10
109.937902
 20
101.178581
 30
0.0
 11
110.687902
 21
101.928581
 31
0.0
  0
LINE
  5
C4
  8
05
 10
109.937902
 20
101.178581
 30
0.0
 11
107.687902
 21
101.178581
 31
0.0
  0
LINE
  5
C5
  8
BEM1
 62
     3
 10
140.281266
 20
90.192479
 30
0.0
 11
137.151495
 21
90.192479
 31
0.0
  0
LINE
  5
C6
  8
BEM1
 62
     3
 10
140.281266
 20
90.657603
 30
0.0
 11
137.151495
 21
90.657603
 31
0.0
  0
LINE
  5
C7
  8
BEM1
 62
     3
 10
137.50715
 20
92.22511
 30
0.0
 11
140.281266
 21
90.657603
 31
0.0
  0
LINE
  5
C8
  8
05
 10
112.186387
 20
110.778581
 30
0.0
 11
91.864129
 21
110.778581
 31
0.0
  0
LINE
  5
C9
  8
MITTE
 10
103.000859
 20
102.828581
 30
0.0
 11
113.023585
 21
102.828581
 31
0.0
  0
LINE
  5
CA
  8
05
 10
87.187902
 20
131.778581
 30
0.0
 11
87.187902
 21
124.278581
 31
0.0
  0
LINE
  5
CB
  8
05
 10
90.187902
 20
130.878581
 30
0.0
 11
90.187902
 21
124.278581
 31
0.0
  0
LINE
  5
CC
  8
05
 10
107.387902
 20
130.878581
 30
0.0
 11
107.387902
 21
124.278581
 31
0.0
  0
LINE
  5
CD
  8
05
 10
107.687902
 20
105.378581
 30
0.0
 11
90.887902
 21
105.378581
 31
0.0
  0
LINE
  5
CE
  8
05
 10
100.781902
 20
119.778581
 30
0.0
 11
84.287902
 21
119.778581
 31
0.0
  0
ARC
  5
CF
  8
05
 10
84.287902
 20
119.178581
 30
0.0
 40
0.6
 50
90.0
 51
180.0
  0
LINE
  5
D0
  8
05
 10
96.586387
 20
119.778581
 30
0.0
 11
96.586387
 21
110.778581
 31
0.0
  0
LINE
  5
D1
  8
05
 10
109.937902
 20
104.478581
 30
0.0
 11
110.687902
 21
103.728581
 31
0.0
  0
LINE
  5
D2
  8
05
 10
109.937902
 20
104.478581
 30
0.0
 11
107.687902
 21
104.478581
 31
0.0
  0
ARC
  5
D3
  8
05
 10
86.587902
 20
131.778581
 30
0.0
 40
0.6
 50
0.0
 51
90.0
  0
ARC
  5
D4
  8
05
 10
91.687902
 20
130.878581
 30
0.0
 40
1.5
 50
90.0
 51
180.0
  0
ARC
  5
D5
  8
05
 10
105.887902
 20
130.878581
 30
0.0
 40
1.5
 50
360.0
 51
90.0
  0
LINE
  5
D6
  8
05
 10
112.186387
 20
124.278581
 30
0.0
 11
112.186387
 21
110.778581
 31
0.0
  0
LINE
  5
D7
  8
BEM1
 62
     3
 10
185.066608
 20
102.37888
 30
0.0
 11
187.840724
 21
100.811373
 31
0.0
  0
TEXT
  5
D8
  8
BEM1
 62
     3
 10
188.646524
 20
99.384437
 30
0.0
 40
3.5
  1
%%c22.00
 41
0.7
 51
15.0
  0
LINE
  5
D9
  8
MITTE
 10
205.265068
 20
141.814471
 30
0.0
 11
205.265068
 21
73.855204
 31
0.0
  0
LINE
  5
DA
  8
MITTE
 10
168.259653
 20
78.134837
 30
0.0
 11
183.125111
 21
78.134837
 31
0.0
  0
SOLID
  5
DB
  8
BEM1
 10
179.065068
 20
61.377637
 30
0.0
 11
179.065068
 21
62.544304
 31
0.0
 12
175.565068
 22
61.960971
 32
0.0
 13
175.565068
 23
61.960971
 33
0.0
  0
CIRCLE
  5
DC
  8
05
 10
175.565068
 20
78.134837
 30
0.0
 40
4.95
  0
LINE
  5
DD
  8
MITTE
 10
175.565068
 20
70.812102
 30
0.0
 11
175.565068
 21
85.171385
 31
0.0
  0
LINE
  5
DE
  8
BEM1
 10
175.565068
 20
69.579822
 30
0.0
 11
175.565068
 21
61.160971
 31
0.0
  0
LINE
  5
DF
  8
BEM1
 10
169.904605
 20
84.615954
 30
0.0
 11
167.856772
 21
87.45433
 31
0.0
  0
SOLID
  5
E0
  8
BEM1
 10
169.431542
 20
84.274649
 30
0.0
 11
170.377667
 21
84.95726
 31
0.0
 12
171.952437
 22
81.777578
 32
0.0
 13
171.952437
 23
81.777578
 33
0.0
  0
TEXT
  5
E1
  8
BEM1
 62
     3
 10
184.783494
 20
63.504692
 30
0.0
 40
3.5
  1
19.80
 41
0.7
 51
15.0
  0
INSERT
  5
E2
  8
BEM1
  2
3
 10
194.489846
 20
65.131089
 30
0.0
  0
SOLID
  5
E8
  8
BEM1
 10
180.631715
 20
91.593279
 30
0.0
 11
180.008901
 21
92.579795
 31
0.0
 12
177.36076
 22
90.218095
 32
0.0
 13
177.36076
 23
90.218095
 33
0.0
  0
LINE
  5
E9
  8
BEM1
 62
     3
 10
187.840724
 20
100.346249
 30
0.0
 11
184.710952
 21
100.346249
 31
0.0
  0
LINE
  5
EA
  8
BEM1
 62
     3
 10
187.840724
 20
100.811373
 30
0.0
 11
184.710952
 21
100.811373
 31
0.0
  0
LINE
  5
EB
  8
BEM1
 10
180.320308
 20
92.086537
 30
0.0
 11
188.188378
 21
97.053862
 31
0.0
  0
LINE
  5
EC
  8
05
 10
84.739213
 20
188.956597
 30
0.0
 11
76.467674
 21
188.956597
 31
0.0
  0
LINE
  5
ED
  8
MITTE
 10
36.554442
 20
219.855082
 30
0.0
 11
111.373497
 21
219.855082
 31
0.0
  0
ARC
  5
EE
  8
05
 10
73.939213
 20
219.855082
 30
0.0
 40
32.7
 50
67.5
 51
112.5
  0
ARC
  5
EF
  8
05
 10
73.939213
 20
219.855082
 30
0.0
 40
37.498485
 50
71.323952
 51
90.0
  0
ARC
  5
F0
  8
05
 10
73.939213
 20
219.855082
 30
0.0
 40
33.0
 50
66.458201
 51
113.541799
  0
LINE
  5
F1
  8
05
 10
75.289213
 20
183.856597
 30
0.0
 11
79.939213
 21
183.856597
 31
0.0
  0
LINE
  5
F2
  8
05
 10
75.289213
 20
182.356597
 30
0.0
 11
83.119213
 21
182.356597
 31
0.0
  0
LINE
  5
F3
  8
05
 10
57.139213
 20
182.356597
 30
0.0
 11
90.439213
 21
182.356597
 31
0.0
  0
LINE
  5
F4
  8
05
 10
52.039217
 20
198.180082
 30
0.0
 11
103.039218
 21
198.180082
 31
0.0
  0
LINE
  5
F5
  8
05
 10
54.439213
 20
189.856597
 30
0.0
 11
93.439213
 21
189.856597
 31
0.0
  0
LINE
  5
F6
  8
HILI
 10
61.939213
 20
183.856597
 30
0.0
 11
85.939213
 21
183.856597
 31
0.0
  0
LINE
  5
F7
  8
HILI
 10
57.139213
 20
182.356597
 30
0.0
 11
90.739213
 21
182.356597
 31
0.0
  0
LINE
  5
F8
  8
05
 10
57.139213
 20
179.356597
 30
0.0
 11
90.739213
 21
179.356597
 31
0.0
  0
LINE
  5
F9
  8
05
 10
57.589213
 20
183.856597
 30
0.0
 11
90.289213
 21
183.856597
 31
0.0
  0
LINE
  5
FA
  8
05
 10
57.589213
 20
188.956597
 30
0.0
 11
90.289213
 21
188.956597
 31
0.0
  0
LINE
  5
FB
  8
05
 10
52.039217
 20
229.680082
 30
0.0
 11
103.039218
 21
229.680082
 31
0.0
  0
LINE
  5
FC
  8
05
 10
92.722184
 20
249.855082
 30
0.0
 11
55.156242
 21
249.855082
 31
0.0
  0
LINE
  5
FD
  8
MITTE
 10
73.939213
 20
259.643724
 30
0.0
 11
73.939213
 21
176.425991
 31
0.0
  0
ARC
  5
FE
  8
05
 10
73.939213
 20
219.855082
 30
0.0
 40
37.498485
 50
90.0
 51
151.412194
  0
ARC
  5
FF
  8
05
 10
73.939213
 20
219.855082
 30
0.0
 40
36.0
 50
125.430945
 51
146.853236
  0
LINE
  5
100
  8
05
 10
60.289213
 20
249.855082
 30
0.0
 11
60.289213
 21
229.680082
 31
0.0
  0
LINE
  5
101
  8
05
 10
58.189211
 20
249.855082
 30
0.0
 11
58.189211
 21
229.680082
 31
0.0
  0
LINE
  5
102
  8
05
 10
47.540728
 20
192.970847
 30
0.0
 11
47.540728
 21
195.256597
 31
0.0
  0
LINE
  5
103
  8
05
 10
46.040728
 20
192.922461
 30
0.0
 11
46.040728
 21
196.756597
 31
0.0
  0
LINE
  5
104
  8
MITTE
 10
44.240728
 20
196.156597
 30
0.0
 11
44.240728
 21
184.156597
 31
0.0
  0
ARC
  5
105
  8
05
 10
44.240728
 20
190.156597
 30
0.0
 40
7.8
 50
103.4719
 51
270.0
  0
ARC
  5
106
  8
05
 10
22.939213
 20
204.712883
 30
0.0
 40
18.0
 50
325.653444
 51
0.0
  0
LINE
  5
107
  8
05
 10
69.064213
 20
198.180082
 30
0.0
 11
69.064213
 21
193.830082
 31
0.0
  0
LINE
  5
108
  8
05
 10
66.664213
 20
198.180082
 30
0.0
 11
66.664213
 21
193.830082
 31
0.0
  0
LINE
  5
109
  8
05
 10
58.189211
 20
198.180082
 30
0.0
 11
58.189211
 21
189.856597
 31
0.0
  0
LINE
  5
10A
  8
05
 10
60.289213
 20
198.180082
 30
0.0
 11
60.289213
 21
189.856597
 31
0.0
  0
LINE
  5
10B
  8
05
 10
53.622896
 20
195.782332
 30
0.0
 11
52.518369
 21
194.752344
 31
0.0
  0
LINE
  5
10C
  8
05
 10
55.792621
 20
196.72271
 30
0.0
 11
53.131871
 21
194.241521
 31
0.0
  0
ARC
  5
10D
  8
05
 10
73.939213
 20
219.855082
 30
0.0
 40
33.0
 50
215.088904
 51
230.865163
  0
ARC
  5
10E
  8
05
 10
73.939213
 20
219.855082
 30
0.0
 40
36.0
 50
213.461216
 51
230.865163
  0
LINE
  5
10F
  8
05
 10
44.240728
 20
182.356597
 30
0.0
 11
52.119253
 21
182.356597
 31
0.0
  0
ARC
  5
110
  8
05
 10
44.240728
 20
190.156597
 30
0.0
 40
3.3
 50
46.186939
 51
313.813092
  0
LINE
  5
111
  8
MITTE
 10
38.240728
 20
190.156597
 30
0.0
 11
50.240728
 21
190.156597
 31
0.0
  0
LINE
  5
112
  8
05
 10
60.259213
 20
178.456597
 30
0.0
 11
64.759213
 21
178.456597
 31
0.0
  0
LINE
  5
113
  8
05
 10
60.859213
 20
177.856597
 30
0.0
 11
64.159213
 21
177.856597
 31
0.0
  0
LINE
  5
114
  8
05
 10
61.939213
 20
182.356597
 30
0.0
 11
61.939213
 21
183.856597
 31
0.0
  0
LINE
  5
115
  8
05
 10
59.509213
 20
183.856597
 30
0.0
 11
59.509213
 21
182.356597
 31
0.0
  0
ARC
  5
116
  8
05
 10
57.139213
 20
185.056597
 30
0.0
 40
5.7
 50
180.0
 51
270.0
  0
ARC
  5
117
  8
05
 10
57.139213
 20
185.056597
 30
0.0
 40
2.7
 50
180.0
 51
270.0
  0
LINE
  5
118
  8
05
 10
60.859213
 20
177.856597
 30
0.0
 11
60.259213
 21
178.456597
 31
0.0
  0
LINE
  5
119
  8
05
 10
60.259213
 20
178.456597
 30
0.0
 11
60.259213
 21
179.356597
 31
0.0
  0
LINE
  5
11A
  8
05
 10
51.439213
 20
187.756597
 30
0.0
 11
54.439213
 21
187.756597
 31
0.0
  0
LINE
  5
11B
  8
05
 10
49.040728
 20
193.853824
 30
0.0
 11
49.040728
 21
185.056597
 31
0.0
  0
LINE
  5
11C
  8
05
 10
50.467602
 20
192.558865
 30
0.0
 11
50.467602
 21
183.629724
 31
0.0
  0
LINE
  5
11D
  8
05
 10
51.439213
 20
185.056597
 30
0.0
 11
51.439213
 21
191.465824
 31
0.0
  0
LINE
  5
11E
  8
05
 10
49.040728
 20
185.056597
 30
0.0
 11
50.467602
 21
183.629724
 31
0.0
  0
LINE
  5
11F
  8
05
 10
50.467602
 20
183.629724
 30
0.0
 11
46.040728
 21
183.629724
 31
0.0
  0
LINE
  5
120
  8
05
 10
47.540728
 20
187.342348
 30
0.0
 11
47.540728
 21
185.056597
 31
0.0
  0
LINE
  5
121
  8
05
 10
47.540728
 20
185.056597
 30
0.0
 11
49.040728
 21
185.056597
 31
0.0
  0
ARC
  5
122
  8
05
 10
46.940728
 20
187.342348
 30
0.0
 40
0.6
 50
0.0
 51
133.813061
  0
LINE
  5
123
  8
05
 10
46.040728
 20
183.629724
 30
0.0
 11
46.040728
 21
187.390734
 31
0.0
  0
LINE
  5
124
  8
05
 10
46.040728
 20
183.629724
 30
0.0
 11
47.540728
 21
185.056597
 31
0.0
  0
ARC
  5
125
  8
05
 10
46.940728
 20
192.970847
 30
0.0
 40
0.6
 50
226.186939
 51
0.0
  0
LINE
  5
126
  8
07
 10
49.040728
 20
190.034456
 30
0.0
 11
49.040728
 21
190.023311
 31
0.0
  0
ARC
  5
128
  8
HILI
 10
50.839213
 20
191.465824
 30
0.0
 40
0.6
 50
0.0
 51
50.865163
  0
LINE
  5
129
  8
05
 10
52.440034
 20
194.81906
 30
0.0
 11
52.440296
 21
194.818893
 31
0.0
  0
LINE
  5
12A
  8
05
 10
57.439213
 20
189.856597
 30
0.0
 11
57.439213
 21
188.952182
 31
0.0
  0
LINE
  5
12B
  8
05
 10
54.439213
 20
185.056597
 30
0.0
 11
54.439213
 21
189.856597
 31
0.0
  0
LINE
  5
12C
  8
05
 10
60.439213
 20
189.856597
 30
0.0
 11
60.439213
 21
183.856597
 31
0.0
  0
ARC
  5
12D
  8
05
 10
57.589213
 20
186.406597
 30
0.0
 40
2.55
 50
90.0
 51
270.0
  0
LINE
  5
12E
  8
MITTE
 10
62.509213
 20
185.261898
 30
0.0
 11
62.509213
 21
175.239172
 31
0.0
  0
LINE
  5
12F
  8
05
 10
65.509213
 20
183.856597
 30
0.0
 11
65.509213
 21
182.356597
 31
0.0
  0
LINE
  5
130
  8
05
 10
64.159213
 20
177.856597
 30
0.0
 11
64.759213
 21
178.456597
 31
0.0
  0
LINE
  5
131
  8
05
 10
64.759213
 20
179.356597
 30
0.0
 11
64.759213
 21
178.456597
 31
0.0
  0
LINE
  5
132
  8
05
 10
63.139213
 20
188.956597
 30
0.0
 11
63.139213
 21
183.856597
 31
0.0
  0
LINE
  5
133
  8
05
 10
63.139213
 20
188.956597
 30
0.0
 11
63.139213
 21
183.856597
 31
0.0
  0
LINE
  5
134
  8
05
 10
72.589213
 20
186.915443
 30
0.0
 11
71.410752
 21
188.956597
 31
0.0
  0
LINE
  5
135
  8
05
 10
72.589213
 20
186.915443
 30
0.0
 11
72.589213
 21
183.856597
 31
0.0
  0
LINE
  5
136
  8
05
 10
72.589213
 20
186.915443
 30
0.0
 11
71.410752
 21
188.956597
 31
0.0
  0
LINE
  5
137
  8
05
 10
75.289213
 20
186.915443
 30
0.0
 11
76.467674
 21
188.956597
 31
0.0
  0
LINE
  5
138
  8
05
 10
75.289213
 20
186.915443
 30
0.0
 11
75.289213
 21
183.856597
 31
0.0
  0
LINE
  5
139
  8
05
 10
75.289213
 20
186.915443
 30
0.0
 11
76.467674
 21
188.956597
 31
0.0
  0
LINE
  5
13A
  8
MITTE
 10
47.618719
 20
232.005082
 30
0.0
 11
39.365314
 21
232.005082
 31
0.0
  0
LINE
  5
13B
  8
MITTE
 10
46.756852
 20
207.705082
 30
0.0
 11
39.365314
 21
207.705082
 31
0.0
  0
LINE
  5
13C
  8
05
 10
38.689213
 20
217.605082
 30
0.0
 11
38.689213
 21
221.505082
 31
0.0
  0
LINE
  5
13D
  8
05
 10
38.689213
 20
217.605082
 30
0.0
 11
37.939213
 21
218.355082
 31
0.0
  0
LINE
  5
13E
  8
05
 10
40.939213
 20
222.855082
 30
0.0
 11
40.939213
 21
216.855082
 31
0.0
  0
LINE
  5
13F
  8
05
 10
40.939213
 20
204.712883
 30
0.0
 11
40.939213
 21
237.511191
 31
0.0
  0
LINE
  5
140
  8
05
 10
43.309214
 20
237.899004
 30
0.0
 11
43.309214
 21
201.990617
 31
0.0
  0
ARC
  5
141
  8
05
 10
46.909214
 20
201.990617
 30
0.0
 40
3.6
 50
180.0
 51
213.461216
  0
ARC
  5
142
  8
05
 10
41.724669
 20
200.659428
 30
0.0
 40
3.0
 50
283.4719
 51
332.794872
  0
LINE
  5
143
  8
05
 10
43.309214
 20
206.205082
 30
0.0
 11
40.939213
 21
206.205082
 31
0.0
  0
ARC
  5
144
  8
05
 10
73.939213
 20
219.855082
 30
0.0
 40
34.5
 50
203.306655
 51
207.39867
  0
ARC
  5
145
  8
05
 10
73.939213
 20
219.855082
 30
0.0
 40
33.0
 50
185.215909
 51
198.827939
  0
LINE
  5
146
  8
05
 10
42.190197
 20
210.855082
 30
0.0
 11
40.939213
 21
210.855082
 31
0.0
  0
LINE
  5
147
  8
05
 10
43.309214
 20
209.205082
 30
0.0
 11
40.939213
 21
209.205082
 31
0.0
  0
ARC
  5
148
  8
05
 10
73.939213
 20
219.855082
 30
0.0
 40
34.5
 50
196.957426
 51
197.980642
  0
LINE
  5
149
  8
05
 10
40.939213
 20
216.855082
 30
0.0
 11
43.309214
 21
216.855082
 31
0.0
  0
LINE
  5
14A
  8
05
 10
40.939213
 20
217.605082
 30
0.0
 11
38.689213
 21
217.605082
 31
0.0
  0
ARC
  5
14B
  8
05
 10
73.939213
 20
219.855082
 30
0.0
 40
33.0
 50
161.172061
 51
174.784091
  0
LINE
  5
14C
  8
05
 10
40.939213
 20
222.855082
 30
0.0
 11
43.309214
 21
222.855082
 31
0.0
  0
LINE
  5
14D
  8
05
 10
38.689213
 20
218.325376
 30
0.0
 11
40.939213
 21
218.325376
 31
0.0
  0
LINE
  5
14E
  8
05
 10
37.939213
 20
218.355082
 30
0.0
 11
37.939213
 21
221.505082
 31
0.0
  0
LINE
  5
14F
  8
05
 10
40.939213
 20
221.505082
 30
0.0
 11
37.939213
 21
221.505082
 31
0.0
  0
LINE
  5
150
  8
05
 10
37.939213
 20
218.655082
 30
0.0
 11
38.689213
 21
218.325376
 31
0.0
  0
LINE
  5
151
  8
05
 10
42.190197
 20
228.855082
 30
0.0
 11
40.939213
 21
228.855082
 31
0.0
  0
LINE
  5
152
  8
05
 10
41.15354
 20
236.412035
 30
0.0
 11
42.554579
 21
235.236425
 31
0.0
  0
LINE
  5
153
  8
05
 10
43.309214
 20
230.505082
 30
0.0
 11
40.939213
 21
230.505082
 31
0.0
  0
LINE
  5
154
  8
05
 10
43.309214
 20
233.505082
 30
0.0
 11
40.939213
 21
233.505082
 31
0.0
  0
LINE
  5
155
  8
05
 10
40.939213
 20
233.505082
 30
0.0
 11
40.939213
 21
230.505082
 31
0.0
  0
ARC
  5
156
  8
05
 10
73.939213
 20
219.855082
 30
0.0
 40
34.5
 50
162.019358
 51
163.042574
  0
ARC
  5
157
  8
05
 10
42.168906
 20
234.776798
 30
0.0
 40
0.6
 50
334.841734
 51
50.0
  0
ARC
  5
158
  8
05
 10
73.939213
 20
219.855082
 30
0.0
 40
34.5
 50
154.841734
 51
156.693345
  0
ARC
  5
159
  8
05
 10
41.539213
 20
237.511191
 30
0.0
 40
0.6
 50
151.412194
 51
180.0
  0
ARC
  5
15A
  8
05
 10
41.539213
 20
236.871662
 30
0.0
 40
0.6
 50
180.0
 51
230.0
  0
LINE
  5
15B
  8
05
 10
42.443355
 20
237.287863
 30
0.0
 11
43.309214
 21
236.561322
 31
0.0
  0
LINE
  5
15C
  8
05
 10
42.443355
 20
237.287863
 30
0.0
 11
43.309214
 21
237.443933
 31
0.0
  0
ARC
  5
15D
  8
05
 10
73.939213
 20
219.855082
 30
0.0
 40
35.998485
 50
147.011703
 51
151.035718
  0
ARC
  5
15E
  8
05
 10
46.309214
 20
237.899004
 30
0.0
 40
3.0
 50
146.853236
 51
180.0
  0
LINE
  5
15F
  8
05
 10
55.987477
 20
218.676082
 30
0.0
 11
55.987477
 21
209.184082
 31
0.0
  0
LINE
  5
160
  8
05
 10
54.439213
 20
218.676082
 30
0.0
 11
54.439213
 21
209.184082
 31
0.0
  0
LINE
  5
161
  8
05
 10
52.639213
 20
218.676082
 30
0.0
 11
52.639213
 21
209.184082
 31
0.0
  0
LINE
  5
162
  8
05
 10
49.639217
 20
227.280082
 30
0.0
 11
49.639217
 21
200.580082
 31
0.0
  0
TEXT
  5
163
  8
035
 10
58.496469
 20
215.457629
 30
0.0
 40
9.0
  1
2
  7
UNIV
  0
ARC
  5
165
  8
05
 10
73.939213
 20
219.855082
 30
0.0
 40
31.5
 50
216.162859
 51
220.232797
  0
LINE
  5
166
  8
05
 10
48.507908
 20
201.267485
 30
0.0
 11
47.403381
 21
200.237497
 31
0.0
  0
ARC
  5
167
  8
05
 10
52.039217
 20
200.580082
 30
0.0
 40
2.4
 50
180.0
 51
270.0
  0
LINE
  5
168
  8
05
 10
47.540728
 20
195.256597
 30
0.0
 11
47.65396
 21
195.256597
 31
0.0
  0
LINE
  5
169
  8
05
 10
46.040728
 20
196.756597
 30
0.0
 11
47.540728
 21
195.256597
 31
0.0
  0
LINE
  5
16A
  8
05
 10
46.040728
 20
196.756597
 30
0.0
 11
46.326535
 21
196.756597
 31
0.0
  0
ARC
  5
16B
  8
05
 10
73.939213
 20
219.855082
 30
0.0
 40
31.5
 50
222.471614
 51
229.837141
  0
LINE
  5
16C
  8
05
 10
49.59792
 20
203.366861
 30
0.0
 11
46.936598
 21
200.885138
 31
0.0
  0
LINE
  5
16D
  8
05
 10
55.792621
 20
196.72271
 30
0.0
 11
54.433835
 21
198.180082
 31
0.0
  0
LINE
  5
16E
  8
05
 10
55.789211
 20
198.180082
 30
0.0
 11
55.789211
 21
195.630082
 31
0.0
  0
LINE
  5
16F
  8
05
 10
52.639213
 20
209.184082
 30
0.0
 11
55.987477
 21
209.184082
 31
0.0
  0
LINE
  5
170
  8
05
 10
52.639213
 20
209.730082
 30
0.0
 11
54.439213
 21
209.730082
 31
0.0
  0
LINE
  5
171
  8
05
 10
54.439214
 20
209.580082
 30
0.0
 11
52.789214
 21
209.580082
 31
0.0
  0
LINE
  5
172
  8
05
 10
52.789214
 20
209.730082
 30
0.0
 11
52.789214
 21
209.580082
 31
0.0
  0
TEXT
  5
173
  8
035
 10
70.584888
 20
201.869451
 30
0.0
 40
9.0
  1
3
  7
UNIV
  0
LINE
  5
174
  8
05
 10
55.789211
 20
229.680082
 30
0.0
 11
55.789211
 21
232.230082
 31
0.0
  0
ARC
  5
175
  8
05
 10
52.039217
 20
227.280082
 30
0.0
 40
2.4
 50
90.0
 51
180.0
  0
LINE
  5
176
  8
05
 10
52.639213
 20
218.676082
 30
0.0
 11
55.987477
 21
218.676082
 31
0.0
  0
LINE
  5
177
  8
05
 10
52.639213
 20
218.130082
 30
0.0
 11
54.439213
 21
218.130082
 31
0.0
  0
LINE
  5
178
  8
05
 10
54.439214
 20
218.280082
 30
0.0
 11
52.789214
 21
218.280082
 31
0.0
  0
LINE
  5
179
  8
05
 10
52.789214
 20
218.280082
 30
0.0
 11
52.789214
 21
218.130082
 31
0.0
  0
LINE
  5
17A
  8
05
 10
66.664213
 20
229.680082
 30
0.0
 11
66.664213
 21
234.030082
 31
0.0
  0
LINE
  5
17B
  8
05
 10
69.064213
 20
229.680082
 30
0.0
 11
69.064213
 21
234.030082
 31
0.0
  0
ARC
  5
17C
  8
05
 10
73.939213
 20
219.855082
 30
0.0
 40
36.0
 50
104.477512
 51
118.386842
  0
ARC
  5
17D
  8
05
 10
55.156242
 20
246.255082
 30
0.0
 40
3.6
 50
90.0
 51
125.430945
  0
LINE
  5
17E
  8
05
 10
51.704126
 20
249.466028
 30
0.0
 11
52.514706
 21
248.785871
 31
0.0
  0
ARC
  5
17F
  8
05
 10
51.318453
 20
249.006401
 30
0.0
 40
0.6
 50
50.0
 51
127.810648
  0
LINE
  5
180
  8
05
 10
58.409182
 20
249.855082
 30
0.0
 11
57.354246
 21
251.807216
 31
0.0
  0
ARC
  5
181
  8
05
 10
73.939213
 20
219.855082
 30
0.0
 40
34.5
 50
118.386842
 51
119.591846
  0
LINE
  5
182
  8
05
 10
57.727176
 20
249.855082
 30
0.0
 11
56.824014
 21
251.526362
 31
0.0
  0
LINE
  5
183
  8
05
 10
61.512806
 20
249.855082
 30
0.0
 11
61.31066
 21
250.343107
 31
0.0
  0
LINE
  5
184
  8
05
 10
60.863371
 20
249.855082
 30
0.0
 11
60.75842
 21
250.108457
 31
0.0
  0
LINE
  5
185
  8
05
 10
77.689213
 20
246.855082
 30
0.0
 11
70.189213
 21
246.855082
 31
0.0
  0
LINE
  5
186
  8
05
 10
70.855301
 20
246.752001
 30
0.0
 11
70.483213
 21
246.608482
 31
0.0
  0
LINE
  5
187
  8
05
 10
70.483213
 20
242.949082
 30
0.0
 11
77.395213
 21
242.949082
 31
0.0
  0
LINE
  5
188
  8
05
 10
70.189213
 20
242.655082
 30
0.0
 11
77.689213
 21
242.655082
 31
0.0
  0
ARC
  5
189
  8
035
 10
73.939213
 20
219.855082
 30
0.0
 40
24.75
 50
81.973195
 51
98.026805
  0
ARC
  5
18A
  8
05
 10
73.939213
 20
219.855082
 30
0.0
 40
24.0
 50
81.720624
 51
98.279376
  0
ARC
  5
18B
  8
035
 10
73.939213
 20
219.855082
 30
0.0
 40
25.95
 50
82.346656
 51
97.653344
  0
LINE
  5
18C
  8
05
 10
70.189213
 20
246.855082
 30
0.0
 11
70.483213
 21
246.608482
 31
0.0
  0
LINE
  5
18D
  8
05
 10
70.189213
 20
242.655082
 30
0.0
 11
70.483213
 21
242.949082
 31
0.0
  0
LINE
  5
18E
  8
05
 10
70.483213
 20
242.949082
 30
0.0
 11
70.483213
 21
246.608482
 31
0.0
  0
LINE
  5
18F
  8
05
 10
70.189213
 20
242.655082
 30
0.0
 11
70.189213
 21
246.855082
 31
0.0
  0
LINE
  5
190
  8
05
 10
70.855301
 20
244.306597
 30
0.0
 11
77.023126
 21
244.306597
 31
0.0
  0
LINE
  5
191
  8
05
 10
70.855301
 20
244.306597
 30
0.0
 11
70.855301
 21
244.412199
 31
0.0
  0
LINE
  5
192
  8
05
 10
70.855301
 20
245.621184
 30
0.0
 11
70.855301
 21
246.855082
 31
0.0
  0
LINE
  5
193
  8
05
 10
77.395213
 20
246.608482
 30
0.0
 11
77.689213
 21
246.855082
 31
0.0
  0
LINE
  5
194
  8
05
 10
77.023126
 20
246.752001
 30
0.0
 11
77.395213
 21
246.608482
 31
0.0
  0
LINE
  5
195
  8
05
 10
77.395213
 20
242.949082
 30
0.0
 11
77.689213
 21
242.655082
 31
0.0
  0
LINE
  5
196
  8
05
 10
77.023126
 20
244.306597
 30
0.0
 11
77.023126
 21
244.412199
 31
0.0
  0
LINE
  5
197
  8
05
 10
77.023126
 20
245.621184
 30
0.0
 11
77.023126
 21
246.855082
 31
0.0
  0
LINE
  5
198
  8
05
 10
77.395213
 20
242.949082
 30
0.0
 11
77.395213
 21
246.608482
 31
0.0
  0
LINE
  5
199
  8
05
 10
77.689213
 20
242.655082
 30
0.0
 11
77.689213
 21
246.855082
 31
0.0
  0
LINE
  5
19A
  8
05
 10
64.939213
 20
256.257505
 30
0.0
 11
64.939213
 21
254.711932
 31
0.0
  0
ARC
  5
19B
  8
05
 10
124.939213
 20
234.997281
 30
0.0
 40
18.0
 50
145.653444
 51
180.0
  0
LINE
  5
19C
  8
05
 10
208.490728
 20
240.855082
 30
0.0
 11
208.490728
 21
252.555082
 31
0.0
  0
LINE
  5
19D
  8
05
 10
174.590728
 20
245.991859
 30
0.0
 11
174.590728
 21
239.059777
 31
0.0
  0
LINE
  5
19E
  8
05
 10
192.290728
 20
248.384195
 30
0.0
 11
192.290728
 21
183.856597
 31
0.0
  0
LINE
  5
19F
  8
05
 10
195.290728
 20
248.384195
 30
0.0
 11
195.290728
 21
222.855082
 31
0.0
  0
LINE
  5
1A0
  8
05
 10
164.990728
 20
188.655082
 30
0.0
 11
164.990728
 21
246.674109
 31
0.0
  0
LINE
  5
1A1
  8
05
 10
183.590728
 20
239.059777
 30
0.0
 11
183.590728
 21
248.23831
 31
0.0
  0
LINE
  5
1A2
  8
05
 10
192.290728
 20
249.606401
 30
0.0
 11
192.290728
 21
228.855082
 31
0.0
  0
LINE
  5
1A3
  8
05
 10
89.689216
 20
249.855082
 30
0.0
 11
89.689216
 21
229.680082
 31
0.0
  0
LINE
  5
1A4
  8
05
 10
87.589213
 20
249.855082
 30
0.0
 11
87.589213
 21
229.680082
 31
0.0
  0
ARC
  5
1A5
  8
05
 10
73.939213
 20
219.855082
 30
0.0
 40
36.0
 50
33.146764
 51
54.569055
  0
ARC
  5
1A6
  8
05
 10
73.939213
 20
219.855086
 30
0.0
 40
37.498485
 50
306.871635
 51
331.412194
  0
ARC
  5
1A7
  8
05
 10
73.939213
 20
219.855082
 30
0.0
 40
36.0
 50
309.134837
 51
322.980748
  0
LINE
  5
1A8
  8
05
 10
92.085805
 20
196.72271
 30
0.0
 11
94.746556
 21
194.241521
 31
0.0
  0
LINE
  5
1A9
  8
05
 10
94.255531
 20
195.782332
 30
0.0
 11
95.360057
 21
194.752344
 31
0.0
  0
LINE
  5
1AA
  8
05
 10
89.689216
 20
198.180082
 30
0.0
 11
89.689216
 21
189.856597
 31
0.0
  0
LINE
  5
1AB
  8
05
 10
87.589213
 20
198.180082
 30
0.0
 11
87.589213
 21
189.856597
 31
0.0
  0
LINE
  5
1AC
  8
HILI
 10
87.589213
 20
198.180082
 30
0.0
 11
87.589213
 21
189.856597
 31
0.0
  0
LINE
  5
1AD
  8
HILI
 10
89.689216
 20
198.180082
 30
0.0
 11
89.689216
 21
189.856597
 31
0.0
  0
LINE
  5
1AE
  8
05
 10
81.214213
 20
198.180082
 30
0.0
 11
81.214213
 21
193.830082
 31
0.0
  0
ARC
  5
1AF
  8
05
 10
73.939213
 20
219.855082
 30
0.0
 40
33.0
 50
309.134837
 51
318.942342
  0
LINE
  5
1B0
  8
05
 10
78.814213
 20
198.180082
 30
0.0
 11
78.814213
 21
193.830082
 31
0.0
  0
LINE
  5
1B1
  8
05
 10
93.439213
 20
187.756597
 30
0.0
 11
96.439213
 21
187.756597
 31
0.0
  0
ARC
  5
1B2
  8
05
 10
90.739213
 20
185.056597
 30
0.0
 40
5.7
 50
270.0
 51
0.0
  0
LINE
  5
1B3
  8
MITTE
 10
85.369213
 20
185.261898
 30
0.0
 11
85.369213
 21
175.239172
 31
0.0
  0
LINE
  5
1B4
  8
05
 10
90.439213
 20
183.861013
 30
0.0
 11
90.439213
 21
182.356597
 31
0.0
  0
LINE
  5
1B5
  8
05
 10
88.369213
 20
183.856597
 30
0.0
 11
88.369213
 21
182.356597
 31
0.0
  0
ARC
  5
1B6
  8
05
 10
90.739213
 20
185.056597
 30
0.0
 40
2.7
 50
270.0
 51
0.0
  0
LINE
  5
1B7
  8
05
 10
85.939213
 20
182.356597
 30
0.0
 11
85.939213
 21
183.856597
 31
0.0
  0
LINE
  5
1B8
  8
05
 10
82.369213
 20
183.856597
 30
0.0
 11
82.369213
 21
182.356597
 31
0.0
  0
LINE
  5
1B9
  8
05
 10
87.019213
 20
177.856597
 30
0.0
 11
83.719213
 21
177.856597
 31
0.0
  0
LINE
  5
1BA
  8
05
 10
87.619213
 20
178.456597
 30
0.0
 11
83.119213
 21
178.456597
 31
0.0
  0
LINE
  5
1BB
  8
05
 10
83.719213
 20
177.856597
 30
0.0
 11
83.119213
 21
178.456597
 31
0.0
  0
LINE
  5
1BC
  8
05
 10
83.119213
 20
179.356597
 30
0.0
 11
83.119213
 21
178.456597
 31
0.0
  0
LINE
  5
1BD
  8
05
 10
87.619213
 20
178.456597
 30
0.0
 11
87.619213
 21
179.356597
 31
0.0
  0
LINE
  5
1BE
  8
05
 10
87.019213
 20
177.856597
 30
0.0
 11
87.619213
 21
178.456597
 31
0.0
  0
LINE
  5
1BF
  8
05
 10
84.739213
 20
188.956597
 30
0.0
 11
84.739213
 21
183.856597
 31
0.0
  0
LINE
  5
1C0
  8
05
 10
90.439213
 20
189.856597
 30
0.0
 11
90.439213
 21
188.952182
 31
0.0
  0
LINE
  5
1C1
  8
05
 10
87.439213
 20
189.856597
 30
0.0
 11
87.439213
 21
183.856597
 31
0.0
  0
LINE
  5
1C2
  8
05
 10
93.439213
 20
185.056597
 30
0.0
 11
93.439213
 21
189.856597
 31
0.0
  0
ARC
  5
1C3
  8
05
 10
90.289213
 20
186.406597
 30
0.0
 40
2.55
 50
270.0
 51
90.0
  0
ARC
  5
1C4
  8
05
 10
73.939213
 20
219.855082
 30
0.0
 40
37.498485
 50
299.939292
 51
301.333661
  0
LINE
  5
1C5
  8
05
 10
96.439213
 20
185.056597
 30
0.0
 11
96.439213
 21
191.465824
 31
0.0
  0
ARC
  5
1C6
  8
05
 10
97.039213
 20
191.465824
 30
0.0
 40
0.6
 50
129.134837
 51
180.0
  0
LINE
  5
1C7
  8
05
 10
109.639218
 20
218.055087
 30
0.0
 11
109.939213
 21
218.355082
 31
0.0
  0
LINE
  5
1C8
  8
05
 10
91.89095
 20
218.676082
 30
0.0
 11
91.89095
 21
209.184082
 31
0.0
  0
LINE
  5
1C9
  8
05
 10
93.439213
 20
218.676082
 30
0.0
 11
93.439213
 21
209.184082
 31
0.0
  0
LINE
  5
1CA
  8
05
 10
95.239213
 20
218.676082
 30
0.0
 11
95.239213
 21
209.184082
 31
0.0
  0
TEXT
  5
1CB
  8
035
 10
83.120962
 20
215.563884
 30
0.0
 40
9.0
  1
1
  7
UNIV
  0
LINE
  5
1CC
  8
05
 10
109.639218
 20
224.130082
 30
0.0
 11
109.639218
 21
203.730082
 31
0.0
  0
LINE
  5
1CD
  8
05
 10
105.439218
 20
227.280082
 30
0.0
 11
105.439218
 21
200.580082
 31
0.0
  0
LINE
  5
1CE
  8
05
 10
95.239213
 20
209.184082
 30
0.0
 11
91.89095
 21
209.184082
 31
0.0
  0
LINE
  5
1CF
  8
05
 10
95.239213
 20
209.730082
 30
0.0
 11
93.439213
 21
209.730082
 31
0.0
  0
ARC
  5
1D0
  8
05
 10
73.939214
 20
219.855082
 30
0.0
 40
31.5
 50
310.162859
 51
316.520481
  0
LINE
  5
1D1
  8
05
 10
92.085805
 20
196.72271
 30
0.0
 11
93.444592
 21
198.180082
 31
0.0
  0
LINE
  5
1D2
  8
05
 10
92.089216
 20
198.180082
 30
0.0
 11
92.089216
 21
195.630082
 31
0.0
  0
LINE
  5
1D3
  8
05
 10
93.439212
 20
209.580082
 30
0.0
 11
95.089213
 21
209.580082
 31
0.0
  0
LINE
  5
1D4
  8
05
 10
95.089213
 20
209.730082
 30
0.0
 11
95.089213
 21
209.580082
 31
0.0
  0
ARC
  5
1D5
  8
05
 10
103.039218
 20
200.580082
 30
0.0
 40
2.4
 50
270.0
 51
0.0
  0
LINE
  5
1D6
  8
05
 10
105.439218
 20
203.730082
 30
0.0
 11
109.639218
 21
203.730082
 31
0.0
  0
ARC
  5
1D7
  8
05
 10
106.339213
 20
202.198977
 30
0.0
 40
0.6
 50
331.412194
 51
0.0
  0
LINE
  5
1D8
  8
05
 10
106.939213
 20
202.198977
 30
0.0
 11
106.939213
 21
203.730082
 31
0.0
  0
LINE
  5
1D9
  8
05
 10
95.239213
 20
218.676082
 30
0.0
 11
91.89095
 21
218.676082
 31
0.0
  0
LINE
  5
1DA
  8
05
 10
95.239213
 20
218.130082
 30
0.0
 11
93.439213
 21
218.130082
 31
0.0
  0
LINE
  5
1DB
  8
05
 10
92.089216
 20
229.680082
 30
0.0
 11
92.089216
 21
232.230082
 31
0.0
  0
LINE
  5
1DC
  8
05
 10
81.214213
 20
229.680082
 30
0.0
 11
81.214213
 21
234.030082
 31
0.0
  0
LINE
  5
1DD
  8
05
 10
78.814213
 20
229.680082
 30
0.0
 11
78.814213
 21
234.030082
 31
0.0
  0
LINE
  5
1DE
  8
05
 10
93.439212
 20
218.280082
 30
0.0
 11
95.089213
 21
218.280082
 31
0.0
  0
LINE
  5
1DF
  8
05
 10
95.089213
 20
218.280082
 30
0.0
 11
95.089213
 21
218.130082
 31
0.0
  0
LINE
  5
1E0
  8
05
 10
106.939213
 20
224.130082
 30
0.0
 11
106.939213
 21
234.997281
 31
0.0
  0
ARC
  5
1E1
  8
05
 10
103.039218
 20
227.280082
 30
0.0
 40
2.4
 50
0.0
 51
90.0
  0
LINE
  5
1E2
  8
05
 10
104.569213
 20
237.899004
 30
0.0
 11
104.569213
 21
229.129167
 31
0.0
  0
LINE
  5
1E3
  8
05
 10
109.939213
 20
218.655082
 30
0.0
 11
109.639218
 21
218.523202
 31
0.0
  0
LINE
  5
1E4
  8
05
 10
109.939213
 20
218.355082
 30
0.0
 11
109.939213
 21
221.505082
 31
0.0
  0
LINE
  5
1E5
  8
05
 10
109.639218
 20
221.505082
 30
0.0
 11
109.939213
 21
221.505082
 31
0.0
  0
LINE
  5
1E6
  8
05
 10
109.639218
 20
218.655087
 30
0.0
 11
109.939213
 21
218.955082
 31
0.0
  0
LINE
  5
1E7
  8
05
 10
109.639218
 20
221.505082
 30
0.0
 11
109.939213
 21
221.505082
 31
0.0
  0
LINE
  5
1E8
  8
05
 10
109.939213
 20
218.955082
 30
0.0
 11
109.939213
 21
221.505082
 31
0.0
  0
LINE
  5
1E9
  8
05
 10
105.439218
 20
224.130082
 30
0.0
 11
109.639218
 21
224.130082
 31
0.0
  0
ARC
  5
1EA
  8
05
 10
73.939213
 20
219.855082
 30
0.0
 40
33.0
 50
7.443327
 51
13.404139
  0
LINE
  5
1EB
  8
05
 10
105.428648
 20
227.505082
 30
0.0
 11
106.939213
 21
227.505082
 31
0.0
  0
ARC
  5
1EC
  8
05
 10
73.939213
 20
219.855082
 30
0.0
 40
34.5
 50
20.050501
 51
27.398668
  0
LINE
  5
1ED
  8
05
 10
106.939213
 20
230.505082
 30
0.0
 11
105.434414
 21
233.505082
 31
0.0
  0
LINE
  5
1EE
  8
05
 10
104.569213
 20
233.505082
 30
0.0
 11
105.434414
 21
233.505082
 31
0.0
  0
ARC
  5
1EF
  8
05
 10
101.569213
 20
237.899004
 30
0.0
 40
3.0
 50
0.0
 51
33.146764
  0
LINE
  5
1F0
  8
05
 10
188.438728
 20
191.759097
 30
0.0
 11
188.438728
 21
197.67891
 31
0.0
  0
LINE
  5
1F1
  8
05
 10
195.290728
 20
216.855082
 30
0.0
 11
195.290728
 21
191.276244
 31
0.0
  0
LINE
  5
1F2
  8
05
 10
173.090728
 20
182.356597
 30
0.0
 11
173.090728
 21
239.059777
 31
0.0
  0
LINE
  5
1F3
  8
05
 10
186.590728
 20
202.19508
 30
0.0
 11
186.590728
 21
182.356597
 31
0.0
  0
LINE
  5
1F4
  8
05
 10
186.590728
 20
182.356597
 30
0.0
 11
173.090728
 21
182.356597
 31
0.0
  0
LINE
  5
1F5
  8
05
 10
166.490728
 20
187.155082
 30
0.0
 11
173.090728
 21
187.155082
 31
0.0
  0
ARC
  5
1F6
  8
05
 10
166.490728
 20
188.655082
 30
0.0
 40
1.5
 50
180.0
 51
270.0
  0
LINE
  5
1F7
  8
05
 10
191.815105
 20
191.276244
 30
0.0
 11
195.290728
 21
191.276244
 31
0.0
  0
LINE
  5
1F8
  8
05
 10
186.770728
 20
185.355082
 30
0.0
 11
186.770728
 21
178.456597
 31
0.0
  0
LINE
  5
1F9
  8
MITTE
 10
184.520728
 20
185.261898
 30
0.0
 11
184.520728
 21
175.239172
 31
0.0
  0
LINE
  5
1FA
  8
05
 10
186.170728
 20
177.856597
 30
0.0
 11
182.870728
 21
177.856597
 31
0.0
  0
LINE
  5
1FB
  8
05
 10
186.770728
 20
178.456597
 30
0.0
 11
182.270728
 21
178.456597
 31
0.0
  0
LINE
  5
1FC
  8
05
 10
182.870728
 20
177.856597
 30
0.0
 11
182.270728
 21
178.456597
 31
0.0
  0
LINE
  5
1FD
  8
05
 10
182.270728
 20
182.356597
 30
0.0
 11
182.270728
 21
178.456597
 31
0.0
  0
LINE
  5
1FE
  8
05
 10
186.770728
 20
178.456597
 30
0.0
 11
186.170728
 21
177.856597
 31
0.0
  0
LINE
  5
1FF
  8
05
 10
192.290728
 20
191.276244
 30
0.0
 11
192.290728
 21
185.355082
 31
0.0
  0
LINE
  5
200
  8
05
 10
186.590728
 20
189.045597
 30
0.0
 11
192.290728
 21
189.045597
 31
0.0
  0
LINE
  5
201
  8
05
 10
186.590728
 20
185.355082
 30
0.0
 11
192.290728
 21
185.355082
 31
0.0
  0
LINE
  5
202
  8
05
 10
186.590728
 20
191.759097
 30
0.0
 11
191.390728
 21
191.759097
 31
0.0
  0
LINE
  5
203
  8
05
 10
186.590728
 20
193.422396
 30
0.0
 11
188.438728
 21
193.422396
 31
0.0
  0
LINE
  5
204
  8
05
 10
191.390728
 20
191.759097
 30
0.0
 11
192.290728
 21
190.735083
 31
0.0
  0
LINE
  5
205
  8
05
 10
202.010728
 20
183.856597
 30
0.0
 11
202.010728
 21
178.456597
 31
0.0
  0
LINE
  5
206
  8
05
 10
197.510728
 20
183.856597
 30
0.0
 11
197.510728
 21
178.456597
 31
0.0
  0
LINE
  5
207
  8
MITTE
 10
199.760728
 20
185.261898
 30
0.0
 11
199.760728
 21
175.239172
 31
0.0
  0
LINE
  5
208
  8
05
 10
202.010728
 20
178.456597
 30
0.0
 11
201.410728
 21
177.856597
 31
0.0
  0
LINE
  5
209
  8
05
 10
202.010728
 20
178.456597
 30
0.0
 11
197.510728
 21
178.456597
 31
0.0
  0
LINE
  5
20A
  8
05
 10
198.110728
 20
177.856597
 30
0.0
 11
197.510728
 21
178.456597
 31
0.0
  0
LINE
  5
20B
  8
05
 10
201.410728
 20
177.856597
 30
0.0
 11
198.110728
 21
177.856597
 31
0.0
  0
LINE
  5
20C
  8
025
 10
177.590728
 20
237.226583
 30
0.0
 11
173.090728
 21
237.226583
 31
0.0
  0
LINE
  5
20D
  8
05
 10
173.090728
 20
239.059777
 30
0.0
 11
183.590728
 21
239.059777
 31
0.0
  0
POLYLINE
  5
20E
  8
05
 66
     1
 10
0.0
 20
0.0
 30
0.0
  0
VERTEX
  5
906
  8
05
 10
174.590728
 20
237.050256
 30
0.0
  0
VERTEX
  5
907
  8
05
 10
174.590728
 20
237.050256
 30
0.0
 42
0.140967
  0
SEQEND
  5
908
  8
05
  0
ARC
  5
20F
  8
05
 10
203.570728
 20
219.855082
 30
0.0
 40
2.25
 50
222.833428
 51
317.166572
  0
ARC
  5
210
  8
05
 10
194.060728
 20
219.855082
 30
0.0
 40
2.25
 50
222.833428
 51
317.166572
  0
LINE
  5
211
  8
05
 10
209.990728
 20
222.855082
 30
0.0
 11
209.990728
 21
216.855082
 31
0.0
  0
ARC
  5
212
  8
05
 10
152.501639
 20
219.855082
 30
0.0
 40
34.18509
 50
344.73566
 51
15.26434
  0
LINE
  5
213
  8
05
 10
188.438728
 20
210.855082
 30
0.0
 11
188.438728
 21
228.855082
 31
0.0
  0
LINE
  5
214
  8
05
 10
192.290728
 20
216.855082
 30
0.0
 11
209.990728
 21
216.855082
 31
0.0
  0
LINE
  5
215
  8
05
 10
192.290728
 20
210.855082
 30
0.0
 11
192.290728
 21
197.67891
 31
0.0
  0
LINE
  5
216
  8
05
 10
177.590728
 20
198.146581
 30
0.0
 11
177.590728
 21
209.792776
 31
0.0
  0
LINE
  5
217
  8
05
 10
186.590728
 20
197.67891
 30
0.0
 11
192.290728
 21
197.67891
 31
0.0
  0
LINE
  5
218
  8
05
 10
192.290728
 20
209.792776
 30
0.0
 11
177.590728
 21
209.792776
 31
0.0
  0
LINE
  5
219
  8
05
 10
185.480728
 20
210.855082
 30
0.0
 11
192.290728
 21
210.855082
 31
0.0
  0
LINE
  5
21A
  8
05
 10
209.990728
 20
206.205082
 30
0.0
 11
209.990728
 21
209.205082
 31
0.0
  0
LINE
  5
21B
  8
05
 10
192.290728
 20
222.855082
 30
0.0
 11
209.990728
 21
222.855082
 31
0.0
  0
LINE
  5
21C
  8
05
 10
192.410728
 20
221.505082
 30
0.0
 11
195.710728
 21
221.505082
 31
0.0
  0
ARC
  5
21D
  8
05
 10
194.060728
 20
219.855082
 30
0.0
 40
1.5
 50
233.130102
 51
306.869898
  0
LINE
  5
21E
  8
05
 10
192.410728
 20
218.325376
 30
0.0
 11
193.160728
 21
218.655082
 31
0.0
  0
LINE
  5
21F
  8
05
 10
193.160728
 20
221.505082
 30
0.0
 11
193.160728
 21
218.655082
 31
0.0
  0
LINE
  5
220
  8
05
 10
192.410728
 20
221.505082
 30
0.0
 11
192.410728
 21
218.325376
 31
0.0
  0
LINE
  5
221
  8
05
 10
185.480728
 20
228.855082
 30
0.0
 11
192.290728
 21
228.855082
 31
0.0
  0
LINE
  5
222
  8
025
 10
177.590728
 20
234.997281
 30
0.0
 11
192.290728
 21
234.997281
 31
0.0
  0
LINE
  5
223
  8
05
 10
177.590728
 20
237.226583
 30
0.0
 11
192.290728
 21
237.226583
 31
0.0
  0
LINE
  5
224
  8
05
 10
192.290728
 20
229.917388
 30
0.0
 11
177.590728
 21
229.917388
 31
0.0
  0
LINE
  5
225
  8
05
 10
177.590728
 20
229.917388
 30
0.0
 11
177.590728
 21
237.226583
 31
0.0
  0
LINE
  5
226
  8
05
 10
194.960728
 20
218.655082
 30
0.0
 11
195.710728
 21
218.325376
 31
0.0
  0
LINE
  5
227
  8
05
 10
194.960728
 20
221.505082
 30
0.0
 11
194.960728
 21
218.655082
 31
0.0
  0
LINE
  5
228
  8
05
 10
195.710728
 20
221.505082
 30
0.0
 11
195.710728
 21
218.325376
 31
0.0
  0
LINE
  5
229
  8
05
 10
204.470728
 20
218.655082
 30
0.0
 11
205.220728
 21
218.325376
 31
0.0
  0
ARC
  5
22A
  8
05
 10
203.570728
 20
219.855082
 30
0.0
 40
1.5
 50
233.130102
 51
306.869898
  0
LINE
  5
22B
  8
05
 10
202.670728
 20
221.505082
 30
0.0
 11
202.670728
 21
218.655082
 31
0.0
  0
LINE
  5
22C
  8
05
 10
204.470728
 20
221.505082
 30
0.0
 11
204.470728
 21
218.655082
 31
0.0
  0
LINE
  5
22D
  8
05
 10
205.220728
 20
221.505082
 30
0.0
 11
205.220728
 21
218.325376
 31
0.0
  0
LINE
  5
22E
  8
05
 10
201.920728
 20
221.505082
 30
0.0
 11
201.920728
 21
218.325376
 31
0.0
  0
LINE
  5
22F
  8
05
 10
201.920728
 20
221.505082
 30
0.0
 11
205.220728
 21
221.505082
 31
0.0
  0
LINE
  5
230
  8
05
 10
201.920728
 20
218.325376
 30
0.0
 11
202.670728
 21
218.655082
 31
0.0
  0
ARC
  5
231
  8
05
 10
91.710771
 20
272.431251
 30
0.0
 40
18.0
 50
251.323951
 51
297.534586
  0
ARC
  5
232
  8
05
 10
73.939213
 20
219.855082
 30
0.0
 40
36.0
 50
61.613158
 51
75.522488
  0
LINE
  5
233
  8
05
 10
86.36562
 20
249.855082
 30
0.0
 11
86.567766
 21
250.343107
 31
0.0
  0
LINE
  5
234
  8
05
 10
90.15125
 20
249.855082
 30
0.0
 11
91.054412
 21
251.526362
 31
0.0
  0
ARC
  5
235
  8
05
 10
73.939213
 20
219.855082
 30
0.0
 40
34.5
 50
60.408154
 51
61.613158
  0
LINE
  5
236
  8
05
 10
89.469244
 20
249.855082
 30
0.0
 11
90.52418
 21
251.807216
 31
0.0
  0
LINE
  5
237
  8
05
 10
87.015055
 20
249.855082
 30
0.0
 11
87.120006
 21
250.108457
 31
0.0
  0
ARC
  5
238
  8
05
 10
92.722184
 20
246.255082
 30
0.0
 40
3.6
 50
54.569055
 51
90.0
  0
LINE
  5
239
  8
05
 10
82.939213
 20
256.257505
 30
0.0
 11
82.939213
 21
254.711932
 31
0.0
  0
ARC
  5
23A
  8
05
 10
103.637698
 20
249.553567
 30
0.0
 40
7.8
 50
261.18229
 51
188.817711
  0
LINE
  5
23B
  8
MITTE
 10
103.637698
 20
256.453567
 30
0.0
 11
103.637698
 21
242.653567
 31
0.0
  0
CIRCLE
  5
23C
  8
05
 10
103.637698
 20
249.553567
 30
0.0
 40
3.3
  0
LINE
  5
23D
  8
MITTE
 10
109.637698
 20
249.553567
 30
0.0
 11
97.637698
 21
249.553567
 31
0.0
  0
LINE
  5
23E
  8
05
 10
173.090728
 20
257.353567
 30
0.0
 11
203.090728
 21
257.353567
 31
0.0
  0
LINE
  5
23F
  8
05
 10
173.090728
 20
248.23831
 30
0.0
 11
183.590728
 21
248.23831
 31
0.0
  0
LINE
  5
240
  8
05
 10
182.990728
 20
246.870817
 30
0.0
 11
175.135005
 21
246.386395
 31
0.0
  0
LINE
  5
241
  8
05
 10
173.090728
 20
245.107742
 30
0.0
 11
173.090728
 21
257.353567
 31
0.0
  0
LINE
  5
242
  8
05
 10
166.490728
 20
248.174109
 30
0.0
 11
173.090728
 21
248.174109
 31
0.0
  0
LINE
  5
243
  8
05
 10
173.090728
 20
248.174109
 30
0.0
 11
166.490728
 21
248.174109
 31
0.0
  0
LINE
  5
244
  8
05
 10
173.090728
 20
250.065943
 30
0.0
 11
166.490728
 21
250.065943
 31
0.0
  0
LINE
  5
245
  8
05
 10
173.090728
 20
252.555082
 30
0.0
 11
166.490728
 21
252.555082
 31
0.0
  0
LINE
  5
246
  8
05
 10
164.990728
 20
251.055082
 30
0.0
 11
164.990728
 21
246.674109
 31
0.0
  0
ARC
  5
247
  8
05
 10
166.490728
 20
246.674109
 30
0.0
 40
1.5
 50
90.0
 51
180.0
  0
ARC
  5
248
  8
05
 10
166.490728
 20
251.055082
 30
0.0
 40
1.5
 50
90.0
 51
180.0
  0
POLYLINE
  5
249
  8
05
 66
     1
 10
0.0
 20
0.0
 30
0.0
  0
VERTEX
  5
909
  8
05
 10
166.490728
 20
250.065943
 30
0.0
 42
0.091628
  0
VERTEX
  5
90A
  8
05
 10
165.911302
 20
249.958861
 30
0.0
 42
0.095378
  0
VERTEX
  5
90B
  8
05
 10
165.430068
 20
249.660046
 30
0.0
 42
0.101211
  0
VERTEX
  5
90C
  8
05
 10
165.10301
 20
249.205017
 30
0.0
 42
0.10576
  0
VERTEX
  5
90D
  8
05
 10
164.990728
 20
248.680124
 30
0.0
 42
0.10576
  0
SEQEND
  5
90E
  8
05
  0
POLYLINE
  5
24A
  8
05
 66
     1
 10
0.0
 20
0.0
 30
0.0
  0
VERTEX
  5
90F
  8
05
 10
175.135005
 20
246.386395
 30
0.0
 42
0.051404
  0
VERTEX
  5
910
  8
05
 10
174.951839
 20
246.356027
 30
0.0
 42
0.079327
  0
VERTEX
  5
911
  8
05
 10
174.766464
 20
246.272052
 30
0.0
 42
0.107145
  0
VERTEX
  5
912
  8
05
 10
174.631614
 20
246.133997
 30
0.0
 42
0.140967
  0
VERTEX
  5
913
  8
05
 10
174.590728
 20
245.991859
 30
0.0
 42
0.140967
  0
SEQEND
  5
914
  8
05
  0
LINE
  5
24B
  8
05
 10
173.090728
 20
245.107742
 30
0.0
 11
174.590728
 21
245.107742
 31
0.0
  0
LINE
  5
24C
  8
05
 10
203.090728
 20
254.711932
 30
0.0
 11
177.590728
 21
254.711932
 31
0.0
  0
LINE
  5
24D
  8
05
 10
202.490728
 20
251.526362
 30
0.0
 11
177.590728
 21
251.526362
 31
0.0
  0
LINE
  5
24E
  8
05
 10
177.590728
 20
256.257505
 30
0.0
 11
203.090728
 21
256.257505
 31
0.0
  0
LINE
  5
24F
  8
05
 10
192.290728
 20
248.384195
 30
0.0
 11
195.290728
 21
248.384195
 31
0.0
  0
LINE
  5
250
  8
05
 10
177.590728
 20
249.606401
 30
0.0
 11
177.590728
 21
256.257505
 31
0.0
  0
LINE
  5
251
  8
05
 10
177.590728
 20
249.606401
 30
0.0
 11
192.290728
 21
249.606401
 31
0.0
  0
LINE
  5
252
  8
05
 10
183.590728
 20
246.870817
 30
0.0
 11
182.990728
 21
246.870817
 31
0.0
  0
LINE
  5
253
  8
05
 10
203.090728
 20
245.867836
 30
0.0
 11
203.090728
 21
257.353567
 31
0.0
  0
LINE
  5
254
  8
025
 10
196.427995
 20
244.081422
 30
0.0
 11
207.540146
 21
244.081422
 31
0.0
  0
LINE
  5
255
  8
05
 10
195.290728
 20
245.587997
 30
0.0
 11
202.490728
 21
245.587997
 31
0.0
  0
LINE
  5
256
  8
05
 10
202.490728
 20
245.587997
 30
0.0
 11
202.490728
 21
251.526362
 31
0.0
  0
LINE
  5
257
  8
025
 10
203.379533
 20
245.578548
 30
0.0
 11
207.540146
 21
245.578548
 31
0.0
  0
LINE
  5
258
  8
05
 10
202.490728
 20
245.587997
 30
0.0
 11
203.090728
 21
245.867836
 31
0.0
  0
LINE
  5
259
  8
05
 10
208.490728
 20
252.555082
 30
0.0
 11
203.090728
 21
252.555082
 31
0.0
  0
LINE
  5
25A
  8
025
 10
203.090728
 20
247.67012
 30
0.0
 11
207.540146
 21
247.67012
 31
0.0
  0
LINE
  5
25B
  8
05
 10
208.490728
 20
250.065943
 30
0.0
 11
203.090728
 21
250.065943
 31
0.0
  0
LINE
  5
25C
  8
05
 10
203.090728
 20
251.807216
 30
0.0
 11
202.490728
 21
251.526362
 31
0.0
  0
ARC
  5
25D
  8
035
 10
339.996271
 20
118.485507
 30
0.0
 40
1.0
 50
322.958832
 51
127.041168
  0
LINE
  5
25E
  8
035
 10
342.287085
 20
111.220074
 30
0.0
 11
340.930838
 21
111.220074
 31
0.0
  0
LINE
  5
25F
  8
035
 10
342.287085
 20
114.720074
 30
0.0
 11
340.930838
 21
114.720074
 31
0.0
  0
ARC
  5
260
  8
035
 10
334.480838
 20
112.970074
 30
0.0
 40
8.0
 50
52.11123
 51
37.88877
  0
LINE
  5
261
  8
MITTE
 10
346.83854
 20
112.970074
 30
0.0
 11
322.058483
 21
112.970074
 31
0.0
  0
LINE
  5
262
  8
035
 10
344.380333
 20
100.470579
 30
0.0
 11
328.980838
 21
100.470579
 31
0.0
  0
LINE
  5
263
  8
BEM1
 10
337.980838
 20
132.129376
 30
0.0
 11
353.980838
 21
132.129376
 31
0.0
  0
TEXT
  5
264
  8
BEM1
 62
     3
 10
332.777194
 20
133.897878
 30
0.0
 40
3.5
  1
23.00 [0.906"]
 41
0.7
 51
15.0
  0
ARC
  5
265
  8
035
 10
334.480838
 20
112.970074
 30
0.0
 40
9.75
 50
113.641106
 51
66.358894
  0
ARC
  5
266
  8
035
 10
334.480838
 20
112.970074
 30
0.0
 40
12.499495
 50
28.587806
 51
90.0
  0
ARC
  5
267
  8
035
 10
334.480838
 20
112.970074
 30
0.0
 40
10.9
 50
122.755667
 51
57.244333
  0
LINE
  5
268
  8
035
 10
341.530838
 20
112.470074
 30
0.0
 11
340.930838
 21
111.870074
 31
0.0
  0
LINE
  5
269
  8
035
 10
341.530838
 20
113.470074
 30
0.0
 11
340.930838
 21
114.070074
 31
0.0
  0
INSERT
  5
26A
  8
05
 66
     1
  2
ZKOPF
 10
410.0
 20
10.0
 30
0.0
  0
ATTRIB
  5
26B
  8
0
 62
     4
 10
396.142857
 20
47.0
 30
0.0
 40
2.5
  1
Alinjak
  7
SCRIPTS
 72
     1
 11
401.5
 21
47.0
 31
0.0
  2
NAME
 70
     0
  0
ATTRIB
  5
26D
  8
0
 62
     4
 10
380.395833
 20
47.0
 30
0.0
 40
2.5
  1
18.02.98
 41
0.7
 51
15.0
 72
     1
 11
385.5
 21
47.0
 31
0.0
  2
DATE
 70
     0
  0
ATTRIB
  5
26E
  8
0
 62
     4
 10
329.5
 20
46.0
 30
0.0
 40
2.5
  1

 41
0.7
 51
15.0
 72
     1
 11
329.5
 21
46.0
 31
0.0
  2
WERKSTOFF
 70
     0
  0
ATTRIB
  5
26F
  8
0
 62
     2
 10
308.083333
 20
22.5
 30
0.0
 40
5.0
  1
NC3MBY
 41
0.7
 51
15.0
 72
     1
 11
318.0
 21
22.5
 31
0.0
  2
BENENNUNG
 70
     0
  0
ATTRIB
  5
270
  8
0
 62
     3
 10
320.959543
 20
31.082191
 30
0.0
 40
3.5
  1

 41
0.7
 51
15.0
 72
     1
 11
320.959543
 21
31.082191
 31
0.0
  2
TEIL
 70
     0
  0
ATTRIB
  5
271
  8
0
 62
     3
 10
374.953948
 20
11.976541
 30
0.0
 40
3.5
  1
3102 St 18 48
 41
0.7
 51
15.0
 72
     1
 11
389.449781
 21
11.976541
 31
0.0
  2
NUMMER
 70
     0
  0
ATTRIB
  5
272
  8
0
 62
     2
 10
346.517328
 20
44.656056
 30
0.0
 40
5.0
  1
3:1
 41
0.7
 51
15.0
 72
     1
 11
349.433995
 21
44.656056
 31
0.0
  2
MASS
 70
     0
  0
ATTRIB
  5
273
  8
0
 62
     3
 10
347.885966
 20
38.210451
 30
0.0
 40
3.5
  1
1:1
 41
0.7
 51
15.0
 72
     1
 11
349.519299
 21
38.210451
 31
0.0
  2
MASS2
 70
     0
  0
ATTRIB
  5
274
  8
0
 62
     4
 10
329.0
 20
39.0
 30
0.0
 40
2.5
  1

 41
0.7
 51
15.0
 72
     1
 11
329.0
 21
39.0
 31
0.0
  2
TEIL
 70
     0
  0
ATTRIB
  5
275
  8
0
 62
     3
 10
302.288548
 20
69.004319
 30
0.0
 40
3.5
  1

 41
0.7
 51
15.0
  2
TOL
 70
     0
  0
ATTRIB
  5
276
  8
0
 62
     3
 10
302.288548
 20
64.004319
 30
0.0
 40
3.5
  1

 41
0.7
 51
15.0
  2
RADIEN
 70
     0
  0
ATTRIB
  5
277
  8
0
 62
     3
 10
302.288548
 20
59.004319
 30
0.0
 40
3.5
  1

 41
0.7
 51
15.0
  2
FACETTE
 70
     0
  0
ATTRIB
  5
278
  8
0
 62
     4
 10
212.813733
 20
17.0
 30
0.0
 40
2.5
  1

 41
0.7
 51
15.0
  2
INDEX1
 70
     0
  0
ATTRIB
  5
279
  8
0
 62
     4
 10
219.651257
 20
17.0
 30
0.0
 40
2.5
  1

 41
0.7
 51
15.0
  2
A1
 70
     0
  0
ATTRIB
  5
27A
  8
0
 62
     4
 10
252.651257
 20
17.0
 30
0.0
 40
2.5
  1

 41
0.7
 51
15.0
  2
DATUM1
 70
     0
  0
ATTRIB
  5
27B
  8
0
 62
     4
 10
265.53501
 20
17.0
 30
0.0
 40
2.5
  1

 41
0.7
 51
15.0
  2
NAME1
 70
     0
  0
ATTRIB
  5
27C
  8
0
 62
     4
 10
212.813733
 20
22.0
 30
0.0
 40
2.5
  1

 41
0.7
 51
15.0
  2
INDEX2
 70
     0
  0
ATTRIB
  5
27D
  8
0
 62
     4
 10
219.651257
 20
22.0
 30
0.0
 40
2.5
  1

 41
0.7
 51
15.0
  2
A2
 70
     0
  0
ATTRIB
  5
27E
  8
0
 62
     4
 10
252.651257
 20
22.0
 30
0.0
 40
2.5
  1

 41
0.7
 51
15.0
  2
DATUM2
 70
     0
  0
ATTRIB
  5
27F
  8
0
 62
     4
 10
265.53501
 20
22.0
 30
0.0
 40
2.5
  1

 41
0.7
 51
15.0
  2
NAME2
 70
     0
  0
ATTRIB
  5
280
  8
0
 62
     4
 10
212.813733
 20
27.0
 30
0.0
 40
2.5
  1

 41
0.7
 51
15.0
  2
INDEX3
 70
     0
  0
ATTRIB
  5
281
  8
0
 62
     4
 10
219.651257
 20
27.0
 30
0.0
 40
2.5
  1

 41
0.7
 51
15.0
  2
A3
 70
     0
  0
ATTRIB
  5
282
  8
0
 62
     4
 10
252.651257
 20
27.0
 30
0.0
 40
2.5
  1

 41
0.7
 51
15.0
  2
DATUM3
 70
     0
  0
ATTRIB
  5
283
  8
0
 62
     4
 10
265.53501
 20
27.0
 30
0.0
 40
2.5
  1

 41
0.7
 51
15.0
  2
NAME3
 70
     0
  0
ATTRIB
  5
284
  8
0
 62
     4
 10
212.813733
 20
32.0
 30
0.0
 40
2.5
  1

 41
0.7
 51
15.0
  2
INDEX4
 70
     0
  0
ATTRIB
  5
285
  8
0
 62
     4
 10
219.651257
 20
32.0
 30
0.0
 40
2.5
  1

 41
0.7
 51
15.0
  2
A4
 70
     0
  0
ATTRIB
  5
286
  8
0
 62
     4
 10
252.651257
 20
32.0
 30
0.0
 40
2.5
  1

 41
0.7
 51
15.0
  2
DATUM4
 70
     0
  0
ATTRIB
  5
287
  8
0
 62
     4
 10
265.53501
 20
32.0
 30
0.0
 40
2.5
  1

 41
0.7
 51
15.0
  2
NAME4
 70
     0
  0
ATTRIB
  5
288
  8
0
 62
     4
 10
212.813733
 20
37.0
 30
0.0
 40
2.5
  1

 41
0.7
 51
15.0
  2
INDEX5
 70
     0
  0
ATTRIB
  5
289
  8
0
 62
     4
 10
219.651257
 20
37.0
 30
0.0
 40
2.5
  1

 41
0.7
 51
15.0
  2
A5
 70
     0
  0
ATTRIB
  5
28A
  8
0
 62
     4
 10
252.651257
 20
37.0
 30
0.0
 40
2.5
  1

 41
0.7
 51
15.0
  2
DATUM5
 70
     0
  0
ATTRIB
  5
28B
  8
0
 62
     4
 10
265.53501
 20
37.0
 30
0.0
 40
2.5
  1

 41
0.7
 51
15.0
  2
NAME5
 70
     0
  0
ATTRIB
  5
28C
  8
0
 62
     4
 10
212.813733
 20
42.0
 30
0.0
 40
2.5
  1

 41
0.7
 51
15.0
  2
INDEX6
 70
     0
  0
ATTRIB
  5
28D
  8
0
 62
     4
 10
219.651257
 20
42.0
 30
0.0
 40
2.5
  1

 41
0.7
 51
15.0
  2
A6
 70
     0
  0
ATTRIB
  5
28E
  8
0
 62
     4
 10
252.651257
 20
42.0
 30
0.0
 40
2.5
  1

 41
0.7
 51
15.0
  2
DATUM6
 70
     0
  0
ATTRIB
  5
28F
  8
0
 62
     4
 10
265.53501
 20
42.0
 30
0.0
 40
2.5
  1

 41
0.7
 51
15.0
  2
NAME6
 70
     0
  0
ATTRIB
  5
290
  8
0
 62
     4
 10
212.813733
 20
47.0
 30
0.0
 40
2.5
  1

 41
0.7
 51
15.0
  2
INDEX7
 70
     0
  0
ATTRIB
  5
291
  8
0
 62
     4
 10
219.651257
 20
47.0
 30
0.0
 40
2.5
  1

 41
0.7
 51
15.0
  2
A7
 70
     0
  0
ATTRIB
  5
292
  8
0
 62
     4
 10
252.651257
 20
47.0
 30
0.0
 40
2.5
  1

 41
0.7
 51
15.0
  2
DATUM7
 70
     0
  0
ATTRIB
  5
293
  8
0
 62
     4
 10
265.53501
 20
47.0
 30
0.0
 40
2.5
  1

 41
0.7
 51
15.0
  2
NAME7
 70
     0
  0
ATTRIB
  5
294
  8
0
 62
     4
 10
212.813733
 20
52.0
 30
0.0
 40
2.5
  1

 41
0.7
 51
15.0
  2
INDEX8
 70
     0
  0
ATTRIB
  5
295
  8
0
 62
     4
 10
219.651257
 20
52.0
 30
0.0
 40
2.5
  1

 41
0.7
 51
15.0
  2
A8
 70
     0
  0
ATTRIB
  5
296
  8
0
 62
     4
 10
252.651257
 20
52.0
 30
0.0
 40
2.5
  1

 41
0.7
 51
15.0
  2
DATUM8
 70
     0
  0
ATTRIB
  5
297
  8
0
 62
     4
 10
265.53501
 20
52.0
 30
0.0
 40
2.5
  1

 41
0.7
 51
15.0
  2
NAME8
 70
     0
  0
SEQEND
  5
578
  8
05
  0
TEXT
  5
579
  8
025
 10
320.89467
 20
46.494965
 30
0.0
 40
2.5
  1
Plastic:
 41
0.7
 51
15.0
  0
TEXT
  5
57A
  8
025
 10
320.89467
 20
42.328298
 30
0.0
 40
2.5
  1
Zytel FR 51
 41
0.7
 51
15.0
  0
TEXT
  5
57B
  8
025
 10
320.89467
 20
38.161631
 30
0.0
 40
2.5
  1
- UL94V-0
 41
0.7
 51
15.0
  0
INSERT
  5
57C
  8
BEM1
  2
3
 10
248.825524
 20
99.063734
 30
0.0
 50
90.0
  0
LINE
  5
57D
  8
BEM1
 10
252.637575
 20
81.634837
 30
0.0
 11
252.637575
 21
134.034837
 31
0.0
  0
LINE
  5
57E
  8
BEM1
 10
234.965068
 20
128.979822
 30
0.0
 11
234.965068
 21
79.699412
 31
0.0
  0
TEXT
  5
57F
  8
SCHRAFFIERT
 10
214.204974
 20
64.199375
 30
0.0
 40
2.5
  1
%%p0.004
 41
0.7
 51
15.0
  0
LINE
  5
580
  8
BEM1
 10
234.965068
 20
76.553238
 30
0.0
 11
234.965068
 21
61.160971
 31
0.0
  0
SOLID
  5
581
  8
BEM1
 10
231.465068
 20
61.377637
 30
0.0
 11
231.465068
 21
62.544304
 31
0.0
 12
234.965068
 22
61.960971
 32
0.0
 13
234.965068
 23
61.960971
 33
0.0
  0
SOLID
  5
582
  8
BEM1
 10
253.220908
 20
81.634837
 30
0.0
 11
252.054241
 21
81.634837
 31
0.0
 12
252.637575
 22
78.134837
 32
0.0
 13
252.637575
 23
78.134837
 33
0.0
  0
TEXT
  5
583
  8
BEM1
 62
     3
 10
250.451922
 20
89.357381
 30
0.0
 40
3.5
  1
19.80
 50
90.0
 41
0.7
 51
15.0
  0
SOLID
  5
584
  8
BEM1
 10
230.521235
 20
123.08988
 30
0.0
 11
229.89842
 21
124.076396
 31
0.0
 12
233.169375
 22
125.45158
 32
0.0
 13
233.169375
 23
125.45158
 33
0.0
  0
LINE
  5
585
  8
MITTE
 10
234.965068
 20
130.363679
 30
0.0
 11
234.965068
 21
144.722962
 31
0.0
  0
CIRCLE
  5
586
  8
05
 10
234.965068
 20
137.534837
 30
0.0
 40
4.95
  0
LINE
  5
587
  8
MITTE
 10
227.659653
 20
137.534837
 30
0.0
 11
242.525111
 21
137.534837
 31
0.0
  0
TEXT
  5
588
  8
BEM1
 62
     3
 10
250.252807
 20
106.448436
 30
0.0
 40
3.5
  1
[0.780"   ]
 50
90.0
 41
0.7
 51
15.0
  0
TEXT
  5
589
  8
SCHRAFFIERT
 10
249.65893
 20
119.145834
 30
0.0
 40
2.5
  1
%%p0.004
 50
90.0
 41
0.7
 51
15.0
  0
SOLID
  5
58A
  8
BEM1
 10
253.220908
 20
134.034837
 30
0.0
 11
252.054241
 21
134.034837
 31
0.0
 12
252.637575
 22
137.534837
 32
0.0
 13
252.637575
 23
137.534837
 33
0.0
  0
LINE
  5
58B
  8
BEM1
 10
243.325111
 20
137.534837
 30
0.0
 11
253.437575
 21
137.534837
 31
0.0
  0
LINE
  5
58C
  8
MITTE
 10
334.480838
 20
126.311577
 30
0.0
 11
334.480838
 21
98.589581
 31
0.0
  0
ARC
  5
58D
  8
035
 10
334.480838
 20
112.970076
 30
0.0
 40
12.499495
 50
208.587806
 51
243.719557
  0
ARC
  5
58E
  8
035
 10
329.030838
 20
101.320579
 30
0.0
 40
0.85
 50
128.010035
 51
266.627713
  0
ARC
  5
58F
  8
035
 10
328.680838
 20
101.224576
 30
0.0
 40
0.6
 50
0.0
 51
63.719557
  0
LINE
  5
590
  8
035
 10
329.280838
 20
101.224576
 30
0.0
 11
329.280838
 21
100.470579
 31
0.0
  0
LINE
  5
591
  8
035
 10
331.220838
 20
98.970579
 30
0.0
 11
330.120838
 21
98.970579
 31
0.0
  0
LINE
  5
592
  8
035
 10
331.420838
 20
99.170579
 30
0.0
 11
329.920838
 21
99.170579
 31
0.0
  0
LINE
  5
593
  8
035
 10
331.420838
 20
99.170579
 30
0.0
 11
331.220838
 21
98.970579
 31
0.0
  0
LINE
  5
594
  8
035
 10
330.120838
 20
98.970579
 30
0.0
 11
329.920838
 21
99.170579
 31
0.0
  0
LINE
  5
595
  8
035
 10
331.420838
 20
100.470579
 30
0.0
 11
331.420838
 21
99.170579
 31
0.0
  0
LINE
  5
596
  8
035
 10
329.920838
 20
100.470579
 30
0.0
 11
329.920838
 21
99.170579
 31
0.0
  0
LINE
  5
597
  8
035
 10
338.840838
 20
98.970579
 30
0.0
 11
337.740838
 21
98.970579
 31
0.0
  0
LINE
  5
598
  8
035
 10
339.040838
 20
99.170579
 30
0.0
 11
337.540838
 21
99.170579
 31
0.0
  0
LINE
  5
599
  8
035
 10
339.040838
 20
99.170579
 30
0.0
 11
338.840838
 21
98.970579
 31
0.0
  0
LINE
  5
59A
  8
035
 10
337.740838
 20
98.970579
 30
0.0
 11
337.540838
 21
99.170579
 31
0.0
  0
LINE
  5
59B
  8
035
 10
339.040838
 20
100.470579
 30
0.0
 11
339.040838
 21
99.170579
 31
0.0
  0
LINE
  5
59C
  8
035
 10
337.540838
 20
100.470579
 30
0.0
 11
337.540838
 21
99.170579
 31
0.0
  0
ARC
  5
59D
  8
035
 10
334.480838
 20
112.970074
 30
0.0
 40
12.499495
 50
90.0
 51
108.676048
  0
ARC
  5
59E
  8
035
 10
324.581343
 20
122.869569
 30
0.0
 40
2.6
 50
62.465414
 51
214.346556
  0
LINE
  5
59F
  8
035
 10
323.781006
 20
106.508576
 30
0.0
 11
324.951264
 21
107.678834
 31
0.0
  0
CIRCLE
  5
5A0
  8
035
 10
324.581343
 20
122.869569
 30
0.0
 40
1.1
  0
CIRCLE
  5
5A1
  8
035
 10
324.581343
 20
122.869569
 30
0.0
 40
1.4
  0
ARC
  5
5A2
  8
035
 10
334.480838
 20
112.970074
 30
0.0
 40
11.8
 50
210.286897
 51
239.713104
  0
LINE
  5
5A3
  8
035
 10
323.480838
 20
107.084706
 30
0.0
 11
323.480838
 21
118.017474
 31
0.0
  0
LINE
  5
5A4
  8
035
 10
322.480838
 20
112.670074
 30
0.0
 11
322.480838
 21
113.470074
 31
0.0
  0
LINE
  5
5A5
  8
035
 10
322.680838
 20
112.470074
 30
0.0
 11
322.680838
 21
113.470074
 31
0.0
  0
LINE
  5
5A6
  8
035
 10
323.480838
 20
112.470074
 30
0.0
 11
322.680838
 21
112.470074
 31
0.0
  0
LINE
  5
5A7
  8
035
 10
323.480838
 20
113.470074
 30
0.0
 11
322.480838
 21
113.470074
 31
0.0
  0
LINE
  5
5A8
  8
035
 10
322.680838
 20
112.470074
 30
0.0
 11
322.480838
 21
112.670074
 31
0.0
  0
ARC
  5
5A9
  8
035
 10
317.480838
 20
118.017474
 30
0.0
 40
6.0
 50
360.0
 51
34.346556
  0
CIRCLE
  5
5AA
  8
025
 10
338.530838
 20
112.970074
 30
0.0
 40
1.19
  0
LINE
  5
5AB
  8
MITTE
 10
338.530838
 20
114.270074
 30
0.0
 11
338.530838
 21
111.670074
 31
0.0
  0
CIRCLE
  5
5AC
  8
025
 10
330.430838
 20
112.970074
 30
0.0
 40
1.19
  0
LINE
  5
5AD
  8
035
 10
327.430838
 20
113.470074
 30
0.0
 11
328.030838
 21
114.070074
 31
0.0
  0
LINE
  5
5AE
  8
MITTE
 10
330.430838
 20
114.270074
 30
0.0
 11
330.430838
 21
111.670074
 31
0.0
  0
INSERT
  5
5AF
  8
025
  2
NT
 10
334.480838
 20
112.970074
 30
0.0
 41
3.0
 42
3.0
 43
3.0
  0
LINE
  5
5B8
  8
035
 10
336.230838
 20
106.620074
 30
0.0
 11
332.730838
 21
106.620074
 31
0.0
  0
LINE
  5
5B9
  8
MITTE
 10
337.44837
 20
109.020074
 30
0.0
 11
331.694027
 21
109.020074
 31
0.0
  0
LINE
  5
5BA
  8
035
 10
333.300329
 20
108.870074
 30
0.0
 11
332.280838
 21
108.870074
 31
0.0
  0
LINE
  5
5BB
  8
035
 10
333.300329
 20
109.170074
 30
0.0
 11
332.280838
 21
109.170074
 31
0.0
  0
LINE
  5
5BC
  8
035
 10
328.01934
 20
102.270243
 30
0.0
 11
329.189597
 21
103.440501
 31
0.0
  0
LINE
  5
5BD
  8
035
 10
332.730838
 20
105.163827
 30
0.0
 11
332.730838
 21
106.620074
 31
0.0
  0
LINE
  5
5BE
  8
035
 10
329.250329
 20
113.120074
 30
0.0
 11
328.230838
 21
113.120074
 31
0.0
  0
LINE
  5
5BF
  8
035
 10
329.250329
 20
112.820074
 30
0.0
 11
328.230838
 21
112.820074
 31
0.0
  0
LINE
  5
5C0
  8
035
 10
327.430838
 20
112.470074
 30
0.0
 11
328.030838
 21
111.870074
 31
0.0
  0
LINE
  5
5C1
  8
035
 10
327.430838
 20
113.470074
 30
0.0
 11
327.430838
 21
112.470074
 31
0.0
  0
LINE
  5
5C2
  8
035
 10
328.230838
 20
113.120074
 30
0.0
 11
328.230838
 21
112.820074
 31
0.0
  0
LINE
  5
5C3
  8
035
 10
326.67459
 20
111.220074
 30
0.0
 11
328.030838
 21
111.220074
 31
0.0
  0
LINE
  5
5C4
  8
035
 10
328.030838
 20
111.220074
 30
0.0
 11
328.030838
 21
111.870074
 31
0.0
  0
LINE
  5
5C5
  8
035
 10
331.611346
 20
113.120074
 30
0.0
 11
332.630838
 21
113.120074
 31
0.0
  0
LINE
  5
5C6
  8
035
 10
331.611346
 20
112.820074
 30
0.0
 11
332.630838
 21
112.820074
 31
0.0
  0
LINE
  5
5C7
  8
035
 10
332.630838
 20
113.120074
 30
0.0
 11
332.630838
 21
112.820074
 31
0.0
  0
LINE
  5
5C8
  8
035
 10
332.280838
 20
109.170074
 30
0.0
 11
332.280838
 21
108.870074
 31
0.0
  0
TEXT
  5
5C9
  8
035
 10
330.207459
 20
109.193207
 30
0.0
 40
1.4985
  1
1
  7
HELV
  0
CIRCLE
  5
5CA
  8
025
 10
334.480838
 20
109.020074
 30
0.0
 40
1.19
  0
LINE
  5
5CB
  8
035
 10
336.230838
 20
105.163827
 30
0.0
 11
336.230838
 21
106.620074
 31
0.0
  0
LINE
  5
5CC
  8
035
 10
337.350329
 20
113.120074
 30
0.0
 11
336.330838
 21
113.120074
 31
0.0
  0
LINE
  5
5CD
  8
035
 10
337.350329
 20
112.820074
 30
0.0
 11
336.330838
 21
112.820074
 31
0.0
  0
LINE
  5
5CE
  8
035
 10
336.330838
 20
113.120074
 30
0.0
 11
336.330838
 21
112.820074
 31
0.0
  0
LINE
  5
5CF
  8
035
 10
336.680838
 20
109.170074
 30
0.0
 11
336.680838
 21
108.870074
 31
0.0
  0
LINE
  5
5D0
  8
035
 10
335.661346
 20
108.870074
 30
0.0
 11
336.680838
 21
108.870074
 31
0.0
  0
LINE
  5
5D1
  8
035
 10
335.661346
 20
109.170074
 30
0.0
 11
336.680838
 21
109.170074
 31
0.0
  0
TEXT
  5
5D2
  8
035
 10
335.655682
 20
110.206102
 30
0.0
 40
1.4985
  1
3
  7
HELV
  0
LINE
  5
5D3
  8
035
 10
340.730838
 20
113.120074
 30
0.0
 11
340.730838
 21
112.820074
 31
0.0
  0
LINE
  5
5D4
  8
035
 10
339.711346
 20
113.120074
 30
0.0
 11
340.730838
 21
113.120074
 31
0.0
  0
LINE
  5
5D5
  8
035
 10
339.711346
 20
112.820074
 30
0.0
 11
340.730838
 21
112.820074
 31
0.0
  0
LINE
  5
5D6
  8
035
 10
340.930838
 20
111.220074
 30
0.0
 11
340.930838
 21
111.870074
 31
0.0
  0
TEXT
  5
5D7
  8
035
 10
338.664862
 20
109.079261
 30
0.0
 40
1.4985
  1
2
  7
HELV
  0
ARC
  5
5D8
  8
035
 10
334.480838
 20
112.970074
 30
0.0
 40
8.65
 50
69.353504
 51
110.646496
  0
ARC
  5
5D9
  8
035
 10
334.480838
 20
112.970074
 30
0.0
 40
10.9
 50
68.571012
 51
111.428988
  0
ARC
  5
5DA
  8
035
 10
334.480838
 20
112.970074
 30
0.0
 40
11.0
 50
67.5
 51
112.5
  0
POLYLINE
  5
5DB
  8
025
 66
     1
 10
0.0
 20
0.0
 30
0.0
  0
VERTEX
  5
9A6
  8
025
 10
332.747128
 20
115.769986
 30
0.0
 42
0.199105
  0
VERTEX
  5
9A7
  8
025
 10
332.763932
 20
115.72946
 30
0.0
 42
0.098437
  0
VERTEX
  5
9A8
  8
025
 10
332.835621
 20
115.681624
 30
0.0
 42
0.055684
  0
VERTEX
  5
9A9
  8
025
 10
332.926193
 20
115.655489
 30
0.0
 42
0.042444
  0
VERTEX
  5
9AA
  8
025
 10
333.049262
 20
115.645023
 30
0.0
 42
0.042444
  0
VERTEX
  5
9AB
  8
025
 10
333.172332
 20
115.655489
 30
0.0
 42
0.055684
  0
VERTEX
  5
9AC
  8
025
 10
333.262904
 20
115.681624
 30
0.0
 42
0.098437
  0
VERTEX
  5
9AD
  8
025
 10
333.334592
 20
115.72946
 30
0.0
 42
0.141327
  0
VERTEX
  5
9AE
  8
025
 10
333.349959
 20
115.757234
 30
0.0
 42
0.199105
  0
SEQEND
  5
9AF
  8
025
  0
POLYLINE
  5
5DC
  8
025
 66
     1
 10
0.0
 20
0.0
 30
0.0
  0
VERTEX
  5
9B0
  8
025
 10
332.182889
 20
115.695008
 30
0.0
 42
0.242955
  0
VERTEX
  5
9B1
  8
025
 10
332.221449
 20
115.620337
 30
0.0
 42
0.083039
  0
VERTEX
  5
9B2
  8
025
 10
332.431775
 20
115.518284
 30
0.0
 42
0.041229
  0
VERTEX
  5
9B3
  8
025
 10
332.683711
 20
115.466258
 30
0.0
 42
0.030317
  0
VERTEX
  5
9B4
  8
025
 10
333.03264
 20
115.445082
 30
0.0
 42
0.030317
  0
VERTEX
  5
9B5
  8
025
 10
333.381568
 20
115.466258
 30
0.0
 42
0.041229
  0
VERTEX
  5
9B6
  8
025
 10
333.633504
 20
115.518284
 30
0.0
 42
0.083039
  0
VERTEX
  5
9B7
  8
025
 10
333.843831
 20
115.620337
 30
0.0
 42
0.186877
  0
VERTEX
  5
9B8
  8
025
 10
333.880294
 20
115.675527
 30
0.0
 42
0.242955
  0
SEQEND
  5
9B9
  8
025
  0
LINE
  5
5DD
  8
025
 10
328.881753
 20
115.470074
 30
0.0
 11
328.981487
 21
115.919942
 31
0.0
  0
LINE
  5
5DE
  8
025
 10
328.509218
 20
116.26984
 30
0.0
 11
329.159028
 21
116.26984
 31
0.0
  0
LINE
  5
5DF
  8
035
 10
326.67459
 20
114.720074
 30
0.0
 11
328.030838
 21
114.720074
 31
0.0
  0
LINE
  5
5E0
  8
025
 10
328.331915
 20
115.470074
 30
0.0
 11
328.509218
 21
116.26984
 31
0.0
  0
LINE
  5
5E1
  8
025
 10
328.331915
 20
115.470074
 30
0.0
 11
328.881753
 21
115.470074
 31
0.0
  0
LINE
  5
5E2
  8
035
 10
328.030838
 20
114.070074
 30
0.0
 11
328.030838
 21
114.720074
 31
0.0
  0
POLYLINE
  5
5E3
  8
025
 66
     1
 10
0.0
 20
0.0
 30
0.0
  0
VERTEX
  5
9BA
  8
025
 10
332.748665
 20
115.783166
 30
0.0
 42
0.058115
  0
VERTEX
  5
9BB
  8
025
 10
332.747128
 20
115.769986
 30
0.0
 42
0.199105
  0
SEQEND
  5
9BC
  8
025
  0
POLYLINE
  5
5E4
  8
025
 66
     1
 10
0.0
 20
0.0
 30
0.0
  0
VERTEX
  5
9BD
  8
025
 10
332.184959
 20
115.714369
 30
0.0
 42
0.053304
  0
VERTEX
  5
9BE
  8
025
 10
332.182889
 20
115.695008
 30
0.0
 42
0.242955
  0
SEQEND
  5
9BF
  8
025
  0
LINE
  5
5E5
  8
025
 10
332.308104
 20
116.26984
 30
0.0
 11
332.856558
 21
116.26984
 31
0.0
  0
LINE
  5
5E6
  8
025
 10
332.748665
 20
115.783166
 30
0.0
 11
332.856558
 21
116.26984
 31
0.0
  0
LINE
  5
5E7
  8
025
 10
332.184959
 20
115.714369
 30
0.0
 11
332.308104
 21
116.26984
 31
0.0
  0
LINE
  5
5E8
  8
025
 10
332.016067
 20
116.079895
 30
0.0
 11
332.058177
 21
116.26984
 31
0.0
  0
LINE
  5
5E9
  8
025
 10
331.040859
 20
115.964929
 30
0.0
 11
331.066346
 21
116.079895
 31
0.0
  0
LINE
  5
5EA
  8
025
 10
330.998749
 20
115.774985
 30
0.0
 11
331.873492
 21
115.774985
 31
0.0
  0
LINE
  5
5EB
  8
025
 10
331.040859
 20
115.964929
 30
0.0
 11
331.915602
 21
115.964929
 31
0.0
  0
LINE
  5
5EC
  8
025
 10
330.558617
 20
116.26984
 30
0.0
 11
332.058177
 21
116.26984
 31
0.0
  0
LINE
  5
5ED
  8
025
 10
330.381313
 20
115.470074
 30
0.0
 11
331.880873
 21
115.470074
 31
0.0
  0
LINE
  5
5EE
  8
025
 10
331.066346
 20
116.079895
 30
0.0
 11
332.016067
 21
116.079895
 31
0.0
  0
LINE
  5
5EF
  8
025
 10
330.973262
 20
115.660019
 30
0.0
 11
331.922983
 21
115.660019
 31
0.0
  0
LINE
  5
5F0
  8
025
 10
331.880873
 20
115.470074
 30
0.0
 11
331.922983
 21
115.660019
 31
0.0
  0
LINE
  5
5F1
  8
025
 10
331.873492
 20
115.774985
 30
0.0
 11
331.915602
 21
115.964929
 31
0.0
  0
LINE
  5
5F2
  8
025
 10
330.973262
 20
115.660019
 30
0.0
 11
330.998749
 21
115.774985
 31
0.0
  0
LINE
  5
5F3
  8
025
 10
330.381313
 20
115.470074
 30
0.0
 11
330.558617
 21
116.26984
 31
0.0
  0
LINE
  5
5F4
  8
025
 10
329.481577
 20
115.470074
 30
0.0
 11
330.106394
 21
115.470074
 31
0.0
  0
LINE
  5
5F5
  8
025
 10
329.733859
 20
116.26984
 30
0.0
 11
330.283698
 21
116.26984
 31
0.0
  0
LINE
  5
5F6
  8
025
 10
329.159028
 20
116.26984
 30
0.0
 11
329.656289
 21
115.919942
 31
0.0
  0
LINE
  5
5F7
  8
025
 10
329.656289
 20
115.919942
 30
0.0
 11
329.733859
 21
116.26984
 31
0.0
  0
LINE
  5
5F8
  8
025
 10
330.106394
 20
115.470074
 30
0.0
 11
330.283698
 21
116.26984
 31
0.0
  0
LINE
  5
5F9
  8
025
 10
328.981487
 20
115.919942
 30
0.0
 11
329.481577
 21
115.470074
 31
0.0
  0
ARC
  5
5FA
  8
035
 10
328.556985
 20
130.495464
 30
0.0
 40
6.0
 50
242.465414
 51
288.676049
  0
ARC
  5
5FB
  8
035
 10
328.853838
 20
121.716324
 30
0.0
 40
0.5
 50
30.0
 51
122.755667
  0
LINE
  5
5FC
  8
035
 10
331.430838
 20
121.064517
 30
0.0
 11
331.660028
 21
120.456264
 31
0.0
  0
LINE
  5
5FD
  8
035
 10
330.826211
 20
121.793124
 30
0.0
 11
330.807077
 21
121.839318
 31
0.0
  0
ARC
  5
5FE
  8
035
 10
330.711406
 20
122.070288
 30
0.0
 40
0.25
 50
226.746295
 51
112.5
  0
ARC
  5
5FF
  8
035
 10
330.571616
 20
122.930395
 30
0.0
 40
0.2
 50
111.428988
 51
202.5
  0
LINE
  5
600
  8
035
 10
330.615735
 20
122.301258
 30
0.0
 11
330.27132
 21
123.132749
 31
0.0
  0
LINE
  5
601
  8
035
 10
330.474277
 20
121.85883
 30
0.0
 11
329.994156
 21
123.017944
 31
0.0
  0
ARC
  5
602
  8
035
 10
328.928926
 20
121.586267
 30
0.0
 40
0.5
 50
302.796026
 51
30.0
  0
ARC
  5
603
  8
035
 10
330.651227
 20
121.718593
 30
0.0
 40
0.2
 50
84.110395
 51
113.641106
  0
ARC
  5
604
  8
035
 10
330.692272
 20
122.116482
 30
0.0
 40
0.2
 50
264.110395
 51
112.5
  0
ARC
  5
605
  8
035
 10
334.480837
 20
112.970074
 30
0.0
 40
11.0
 50
112.499998
 51
119.999998
  0
LINE
  5
606
  8
035
 10
329.361939
 20
121.836267
 30
0.0
 11
328.980838
 21
122.496354
 31
0.0
  0
LINE
  5
607
  8
025
 10
335.907048
 20
116.26984
 30
0.0
 11
337.310232
 21
116.26984
 31
0.0
  0
LINE
  5
608
  8
025
 10
336.878141
 20
115.470074
 30
0.0
 11
337.434794
 21
115.470074
 31
0.0
  0
POLYLINE
  5
609
  8
025
 66
     1
 10
0.0
 20
0.0
 30
0.0
  0
VERTEX
  5
9C0
  8
025
 10
336.868936
 20
115.680298
 30
0.0
 42
0.082344
  0
VERTEX
  5
9C1
  8
025
 10
336.867995
 20
115.68992
 30
0.0
 42
0.153048
  0
VERTEX
  5
9C2
  8
025
 10
336.858523
 20
115.704845
 30
0.0
 42
0.106894
  0
VERTEX
  5
9C3
  8
025
 10
336.836436
 20
115.716584
 30
0.0
 42
0.067948
  0
VERTEX
  5
9C4
  8
025
 10
336.812167
 20
115.720001
 30
0.0
 42
0.060506
  0
SEQEND
  5
9C5
  8
025
  0
POLYLINE
  5
60A
  8
025
 66
     1
 10
0.0
 20
0.0
 30
0.0
  0
VERTEX
  5
9C6
  8
025
 10
336.804352
 20
115.909945
 30
0.0
 42
0.065514
  0
VERTEX
  5
9C7
  8
025
 10
336.862447
 20
115.917795
 30
0.0
 42
0.060566
  0
VERTEX
  5
9C8
  8
025
 10
336.912707
 20
115.938032
 30
0.0
 42
0.073981
  0
VERTEX
  5
9C9
  8
025
 10
336.948042
 20
115.964976
 30
0.0
 42
0.106894
  0
VERTEX
  5
9CA
  8
025
 10
336.970139
 20
116.000325
 30
0.0
 42
0.153048
  0
VERTEX
  5
9CB
  8
025
 10
336.971374
 20
116.029761
 30
0.0
 42
0.153048
  0
VERTEX
  5
9CC
  8
025
 10
336.955586
 20
116.054635
 30
0.0
 42
0.106894
  0
VERTEX
  5
9CD
  8
025
 10
336.918775
 20
116.074201
 30
0.0
 42
0.067948
  0
VERTEX
  5
9CE
  8
025
 10
336.878327
 20
116.079895
 30
0.0
 42
0.060506
  0
SEQEND
  5
9CF
  8
025
  0
ARC
  5
60B
  8
025
 10
336.979212
 20
115.535415
 30
0.0
 40
0.120353
 50
180.772005
 51
212.881875
  0
LINE
  5
60C
  8
025
 10
336.414777
 20
116.079895
 30
0.0
 11
336.878327
 21
116.079895
 31
0.0
  0
LINE
  5
60D
  8
025
 10
336.3771
 20
115.909945
 30
0.0
 11
336.414777
 21
116.079895
 31
0.0
  0
LINE
  5
60E
  8
025
 10
336.3771
 20
115.909945
 30
0.0
 11
336.804352
 21
115.909945
 31
0.0
  0
LINE
  5
60F
  8
025
 10
336.33499
 20
115.720001
 30
0.0
 11
336.812167
 21
115.720001
 31
0.0
  0
LINE
  5
610
  8
025
 10
336.85887
 20
115.533794
 30
0.0
 11
336.868936
 21
115.680298
 31
0.0
  0
LINE
  5
611
  8
025
 10
335.729744
 20
115.470074
 30
0.0
 11
336.279583
 21
115.470074
 31
0.0
  0
LINE
  5
612
  8
025
 10
336.279583
 20
115.470074
 30
0.0
 11
336.33499
 21
115.720001
 31
0.0
  0
LINE
  5
613
  8
025
 10
335.729744
 20
115.470074
 30
0.0
 11
335.907048
 21
116.26984
 31
0.0
  0
LINE
  5
614
  8
025
 10
335.162927
 20
116.069898
 30
0.0
 11
335.687773
 21
116.069898
 31
0.0
  0
LINE
  5
615
  8
025
 10
334.157561
 20
116.26984
 30
0.0
 11
335.732099
 21
116.26984
 31
0.0
  0
LINE
  5
616
  8
025
 10
334.480111
 20
115.470074
 30
0.0
 11
335.02995
 21
115.470074
 31
0.0
  0
LINE
  5
617
  8
025
 10
334.113235
 20
116.069898
 30
0.0
 11
334.613089
 21
116.069898
 31
0.0
  0
LINE
  5
618
  8
025
 10
335.687773
 20
116.069898
 30
0.0
 11
335.732099
 21
116.26984
 31
0.0
  0
LINE
  5
619
  8
025
 10
335.02995
 20
115.470074
 30
0.0
 11
335.162927
 21
116.069898
 31
0.0
  0
LINE
  5
61A
  8
025
 10
334.480111
 20
115.470074
 30
0.0
 11
334.613089
 21
116.069898
 31
0.0
  0
LINE
  5
61B
  8
025
 10
334.113235
 20
116.069898
 30
0.0
 11
334.157561
 21
116.26984
 31
0.0
  0
LINE
  5
61C
  8
025
 10
333.463601
 20
116.26984
 30
0.0
 11
334.01205
 21
116.26984
 31
0.0
  0
LINE
  5
61D
  8
025
 10
333.880294
 20
115.675527
 30
0.0
 11
334.01205
 21
116.26984
 31
0.0
  0
LINE
  5
61E
  8
025
 10
333.349959
 20
115.757234
 30
0.0
 11
333.463601
 21
116.26984
 31
0.0
  0
LINE
  5
61F
  8
025
 10
339.653593
 20
115.470074
 30
0.0
 11
340.403373
 21
115.470074
 31
0.0
  0
LINE
  5
620
  8
025
 10
339.196095
 20
115.999331
 30
0.0
 11
339.256065
 21
116.26984
 31
0.0
  0
LINE
  5
621
  8
025
 10
339.88554
 20
115.99492
 30
0.0
 11
340.530691
 21
116.26984
 31
0.0
  0
LINE
  5
622
  8
025
 10
339.88554
 20
115.99492
 30
0.0
 11
340.403373
 21
115.470074
 31
0.0
  0
LINE
  5
623
  8
025
 10
339.357688
 20
115.769986
 30
0.0
 11
339.653593
 21
115.470074
 31
0.0
  0
LINE
  5
624
  8
025
 10
339.830897
 20
116.26984
 30
0.0
 11
340.530691
 21
116.26984
 31
0.0
  0
LINE
  5
625
  8
025
 10
339.196095
 20
115.999331
 30
0.0
 11
339.830897
 21
116.26984
 31
0.0
  0
LINE
  5
626
  8
025
 10
339.123088
 20
115.670016
 30
0.0
 11
339.357688
 21
115.769986
 31
0.0
  0
LINE
  5
627
  8
025
 10
338.553916
 20
115.470074
 30
0.0
 11
339.078762
 21
115.470074
 31
0.0
  0
LINE
  5
628
  8
025
 10
338.731219
 20
116.26984
 30
0.0
 11
339.256065
 21
116.26984
 31
0.0
  0
LINE
  5
629
  8
025
 10
339.078762
 20
115.470074
 30
0.0
 11
339.123088
 21
115.670016
 31
0.0
  0
LINE
  5
62A
  8
025
 10
338.553916
 20
115.470074
 30
0.0
 11
338.731219
 21
116.26984
 31
0.0
  0
LINE
  5
62B
  8
025
 10
337.856476
 20
116.26984
 30
0.0
 11
338.406315
 21
116.26984
 31
0.0
  0
LINE
  5
62C
  8
025
 10
337.679172
 20
115.470074
 30
0.0
 11
338.229011
 21
115.470074
 31
0.0
  0
LINE
  5
62D
  8
025
 10
338.229011
 20
115.470074
 30
0.0
 11
338.406315
 21
116.26984
 31
0.0
  0
LINE
  5
62E
  8
025
 10
337.679172
 20
115.470074
 30
0.0
 11
337.856476
 21
116.26984
 31
0.0
  0
POLYLINE
  5
62F
  8
025
 66
     1
 10
0.0
 20
0.0
 30
0.0
  0
VERTEX
  5
9D0
  8
025
 10
337.423129
 20
115.740015
 30
0.0
 42
0.084831
  0
VERTEX
  5
9D1
  8
025
 10
337.420273
 20
115.770786
 30
0.0
 42
0.153048
  0
VERTEX
  5
9D2
  8
025
 10
337.39087
 20
115.817113
 30
0.0
 42
0.025315
  0
VERTEX
  5
9D3
  8
025
 10
337.376085
 20
115.828374
 30
0.0
 42
0.067948
  0
SEQEND
  5
9D4
  8
025
  0
ARC
  5
630
  8
025
 10
337.534764
 20
115.545052
 30
0.0
 40
0.124963
 50
176.0
 51
216.869898
  0
LINE
  5
631
  8
025
 10
337.410105
 20
115.553769
 30
0.0
 11
337.423129
 21
115.740015
 31
0.0
  0
LINE
  5
632
  8
035
 10
340.930838
 20
114.070074
 30
0.0
 11
340.930838
 21
114.720074
 31
0.0
  0
POLYLINE
  5
633
  8
025
 66
     1
 10
0.0
 20
0.0
 30
0.0
  0
VERTEX
  5
9D5
  8
025
 10
337.376085
 20
115.828374
 30
0.0
 42
0.015369
  0
VERTEX
  5
9D6
  8
025
 10
337.41268
 20
115.847103
 30
0.0
 42
0.073981
  0
VERTEX
  5
9D7
  8
025
 10
337.517975
 20
115.927392
 30
0.0
 42
0.106894
  0
VERTEX
  5
9D8
  8
025
 10
337.583821
 20
116.03273
 30
0.0
 42
0.153048
  0
VERTEX
  5
9D9
  8
025
 10
337.587502
 20
116.120445
 30
0.0
 42
0.153048
  0
VERTEX
  5
9DA
  8
025
 10
337.540456
 20
116.194568
 30
0.0
 42
0.106894
  0
VERTEX
  5
9DB
  8
025
 10
337.430764
 20
116.25287
 30
0.0
 42
0.067948
  0
VERTEX
  5
9DC
  8
025
 10
337.310232
 20
116.26984
 30
0.0
 42
0.060566
  0
SEQEND
  5
9DD
  8
025
  0
LINE
  5
634
  8
035
 10
338.135465
 20
121.793124
 30
0.0
 11
338.154599
 21
121.839318
 31
0.0
  0
ARC
  5
635
  8
035
 10
338.25027
 20
122.070288
 30
0.0
 40
0.25
 50
67.5
 51
313.253705
  0
ARC
  5
636
  8
035
 10
338.390059
 20
122.930395
 30
0.0
 40
0.2
 50
337.5
 51
68.571012
  0
ARC
  5
637
  8
035
 10
334.480838
 20
112.970074
 30
0.0
 40
11.0
 50
60.000002
 51
67.500002
  0
LINE
  5
638
  8
035
 10
339.599737
 20
121.836267
 30
0.0
 11
339.980838
 21
122.496354
 31
0.0
  0
LINE
  5
639
  8
035
 10
338.487398
 20
121.85883
 30
0.0
 11
338.967519
 21
123.017944
 31
0.0
  0
ARC
  5
63A
  8
035
 10
340.032749
 20
121.586267
 30
0.0
 40
0.5
 50
150.0
 51
237.203974
  0
ARC
  5
63B
  8
035
 10
340.107837
 20
121.716324
 30
0.0
 40
0.5
 50
57.244333
 51
150.0
  0
LINE
  5
63C
  8
035
 10
338.34594
 20
122.301258
 30
0.0
 11
338.690355
 21
123.132749
 31
0.0
  0
ARC
  5
63D
  8
035
 10
338.269404
 20
122.116482
 30
0.0
 40
0.2
 50
67.5
 51
275.889605
  0
ARC
  5
63E
  8
035
 10
338.310449
 20
121.718593
 30
0.0
 40
0.2
 50
66.358894
 51
95.889605
  0
LINE
  5
63F
  8
035
 10
337.530838
 20
121.064517
 30
0.0
 11
337.301647
 21
120.456264
 31
0.0
  0
LINE
  5
640
  8
BEM1
 10
334.480838
 20
126.311577
 30
0.0
 11
334.480838
 21
132.613099
 31
0.0
  0
SOLID
  5
641
  8
BEM1
 10
337.980838
 20
131.546043
 30
0.0
 11
337.980838
 21
132.71271
 31
0.0
 12
334.480838
 22
132.129376
 32
0.0
 13
334.480838
 23
132.129376
 33
0.0
  0
CIRCLE
  5
642
  8
035
 10
367.380333
 20
103.070579
 30
0.0
 40
1.1
  0
ARC
  5
643
  8
035
 10
367.380333
 20
103.070579
 30
0.0
 40
2.6
 50
270.0
 51
34.346556
  0
CIRCLE
  5
644
  8
035
 10
367.380333
 20
103.070579
 30
0.0
 40
1.6
  0
CIRCLE
  5
645
  8
035
 10
344.380333
 20
103.070579
 30
0.0
 40
1.1
  0
CIRCLE
  5
646
  8
035
 10
344.380333
 20
103.070579
 30
0.0
 40
1.6
  0
ARC
  5
647
  8
035
 10
344.380333
 20
103.070579
 30
0.0
 40
2.6
 50
270.0
 51
34.346556
  0
LINE
  5
648
  8
MITTE
 10
357.480838
 20
126.311577
 30
0.0
 11
357.480838
 21
98.589581
 31
0.0
  0
ARC
  5
649
  8
035
 10
357.480838
 20
112.970074
 30
0.0
 40
10.9
 50
122.755667
 51
57.244333
  0
ARC
  5
64A
  8
035
 10
357.480838
 20
112.970076
 30
0.0
 40
12.499495
 50
208.587806
 51
243.719557
  0
LINE
  5
64B
  8
035
 10
367.380333
 20
100.470579
 30
0.0
 11
351.980838
 21
100.470579
 31
0.0
  0
LINE
  5
64C
  8
035
 10
354.420838
 20
99.170579
 30
0.0
 11
352.920838
 21
99.170579
 31
0.0
  0
LINE
  5
64D
  8
035
 10
354.220838
 20
98.970579
 30
0.0
 11
353.120838
 21
98.970579
 31
0.0
  0
ARC
  5
64E
  8
035
 10
352.030838
 20
101.320579
 30
0.0
 40
0.85
 50
128.010035
 51
266.627713
  0
LINE
  5
64F
  8
035
 10
352.280838
 20
101.224576
 30
0.0
 11
352.280838
 21
100.470579
 31
0.0
  0
ARC
  5
650
  8
035
 10
351.680838
 20
101.224576
 30
0.0
 40
0.6
 50
0.0
 51
63.719557
  0
LINE
  5
651
  8
035
 10
353.120838
 20
98.970579
 30
0.0
 11
352.920838
 21
99.170579
 31
0.0
  0
LINE
  5
652
  8
035
 10
352.920838
 20
100.470579
 30
0.0
 11
352.920838
 21
99.170579
 31
0.0
  0
LINE
  5
653
  8
035
 10
354.420838
 20
99.170579
 30
0.0
 11
354.220838
 21
98.970579
 31
0.0
  0
LINE
  5
654
  8
035
 10
354.420838
 20
100.470579
 30
0.0
 11
354.420838
 21
99.170579
 31
0.0
  0
LINE
  5
655
  8
035
 10
361.840838
 20
98.970579
 30
0.0
 11
360.740838
 21
98.970579
 31
0.0
  0
LINE
  5
656
  8
035
 10
362.040838
 20
99.170579
 30
0.0
 11
360.540838
 21
99.170579
 31
0.0
  0
LINE
  5
657
  8
035
 10
360.740838
 20
98.970579
 30
0.0
 11
360.540838
 21
99.170579
 31
0.0
  0
LINE
  5
658
  8
035
 10
360.540838
 20
100.470579
 30
0.0
 11
360.540838
 21
99.170579
 31
0.0
  0
LINE
  5
659
  8
035
 10
362.040838
 20
99.170579
 30
0.0
 11
361.840838
 21
98.970579
 31
0.0
  0
LINE
  5
65A
  8
035
 10
362.040838
 20
100.470579
 30
0.0
 11
362.040838
 21
99.170579
 31
0.0
  0
ARC
  5
65B
  8
035
 10
357.480838
 20
112.970074
 30
0.0
 40
12.499495
 50
90.0
 51
108.676048
  0
ARC
  5
65C
  8
035
 10
347.581343
 20
122.869569
 30
0.0
 40
2.6
 50
62.465414
 51
214.346556
  0
ARC
  5
65D
  8
035
 10
357.480838
 20
112.970074
 30
0.0
 40
12.499495
 50
28.587806
 51
90.0
  0
LINE
  5
65E
  8
MITTE
 10
360.117764
 20
109.020074
 30
0.0
 11
354.706792
 21
109.020074
 31
0.0
  0
LINE
  5
65F
  8
MITTE
 10
369.83854
 20
112.970074
 30
0.0
 11
345.058483
 21
112.970074
 31
0.0
  0
LINE
  5
660
  8
025
 10
357.480111
 20
115.470074
 30
0.0
 11
358.02995
 21
115.470074
 31
0.0
  0
LINE
  5
661
  8
025
 10
357.157561
 20
116.26984
 30
0.0
 11
358.732099
 21
116.26984
 31
0.0
  0
ARC
  5
662
  8
035
 10
357.480838
 20
112.970074
 30
0.0
 40
8.65
 50
69.353504
 51
110.646496
  0
LINE
  5
663
  8
035
 10
359.230838
 20
106.620074
 30
0.0
 11
355.730838
 21
106.620074
 31
0.0
  0
CIRCLE
  5
664
  8
025
 10
357.480838
 20
109.020074
 30
0.0
 40
1.19
  0
ARC
  5
665
  8
035
 10
357.480838
 20
112.970074
 30
0.0
 40
11.0
 50
67.5
 51
112.5
  0
ARC
  5
666
  8
035
 10
357.480838
 20
112.970074
 30
0.0
 40
10.9
 50
68.571012
 51
111.428988
  0
INSERT
  5
667
  8
025
  2
NT
 10
357.480838
 20
112.970074
 30
0.0
 41
3.0
 42
3.0
 43
3.0
  0
ARC
  5
668
  8
035
 10
357.480838
 20
112.970074
 30
0.0
 40
8.0
 50
52.11123
 51
37.88877
  0
ARC
  5
669
  8
035
 10
357.480838
 20
112.970074
 30
0.0
 40
9.75
 50
113.641106
 51
66.358894
  0
LINE
  5
66A
  8
035
 10
350.430838
 20
113.470074
 30
0.0
 11
351.030838
 21
114.070074
 31
0.0
  0
CIRCLE
  5
66B
  8
025
 10
353.430838
 20
112.970074
 30
0.0
 40
1.19
  0
LINE
  5
66C
  8
MITTE
 10
353.430838
 20
114.270074
 30
0.0
 11
353.430838
 21
111.670074
 31
0.0
  0
LINE
  5
66D
  8
035
 10
345.480838
 20
107.922675
 30
0.0
 11
345.480838
 21
118.855444
 31
0.0
  0
LINE
  5
66E
  8
035
 10
346.480838
 20
107.084706
 30
0.0
 11
346.480838
 21
118.017474
 31
0.0
  0
ARC
  5
66F
  8
035
 10
357.480838
 20
112.970074
 30
0.0
 40
11.8
 50
210.286897
 51
239.713104
  0
ARC
  5
670
  8
035
 10
351.480838
 20
107.922675
 30
0.0
 40
6.0
 50
180.0
 51
214.346556
  0
LINE
  5
671
  8
035
 10
346.781006
 20
106.508576
 30
0.0
 11
347.951264
 21
107.678834
 31
0.0
  0
LINE
  5
672
  8
035
 10
345.334869
 20
111.970074
 30
0.0
 11
345.480838
 21
111.970074
 31
0.0
  0
LINE
  5
673
  8
035
 10
341.530838
 20
113.470074
 30
0.0
 11
341.530838
 21
112.470074
 31
0.0
  0
LINE
  5
674
  8
035
 10
346.480838
 20
112.470074
 30
0.0
 11
345.680838
 21
112.470074
 31
0.0
  0
LINE
  5
675
  8
035
 10
346.480838
 20
112.670074
 30
0.0
 11
346.480838
 21
113.470074
 31
0.0
  0
LINE
  5
676
  8
035
 10
345.480838
 20
112.670074
 30
0.0
 11
345.480838
 21
113.470074
 31
0.0
  0
LINE
  5
677
  8
035
 10
346.480838
 20
113.470074
 30
0.0
 11
345.480838
 21
113.470074
 31
0.0
  0
LINE
  5
678
  8
035
 10
345.480838
 20
113.470074
 30
0.0
 11
346.480838
 21
113.470074
 31
0.0
  0
LINE
  5
679
  8
035
 10
345.480838
 20
112.470074
 30
0.0
 11
346.280838
 21
112.470074
 31
0.0
  0
LINE
  5
67A
  8
035
 10
351.01934
 20
102.270243
 30
0.0
 11
352.189597
 21
103.440501
 31
0.0
  0
LINE
  5
67B
  8
035
 10
355.730838
 20
105.163827
 30
0.0
 11
355.730838
 21
106.620074
 31
0.0
  0
TEXT
  5
67C
  8
035
 10
353.309764
 20
109.193207
 30
0.0
 40
1.4985
  1
1
  7
HELV
  0
LINE
  5
67D
  8
035
 10
350.430838
 20
112.470074
 30
0.0
 11
351.030838
 21
111.870074
 31
0.0
  0
LINE
  5
67E
  8
035
 10
350.430838
 20
113.470074
 30
0.0
 11
350.430838
 21
112.470074
 31
0.0
  0
LINE
  5
67F
  8
035
 10
352.250329
 20
112.820074
 30
0.0
 11
351.230838
 21
112.820074
 31
0.0
  0
LINE
  5
680
  8
035
 10
351.230838
 20
113.120074
 30
0.0
 11
351.230838
 21
112.820074
 31
0.0
  0
LINE
  5
681
  8
035
 10
352.250329
 20
113.120074
 30
0.0
 11
351.230838
 21
113.120074
 31
0.0
  0
LINE
  5
682
  8
035
 10
349.67459
 20
111.220074
 30
0.0
 11
351.030838
 21
111.220074
 31
0.0
  0
LINE
  5
683
  8
035
 10
351.030838
 20
111.220074
 30
0.0
 11
351.030838
 21
111.870074
 31
0.0
  0
LINE
  5
684
  8
035
 10
354.611346
 20
112.820074
 30
0.0
 11
355.630838
 21
112.820074
 31
0.0
  0
LINE
  5
685
  8
035
 10
354.611346
 20
113.120074
 30
0.0
 11
355.630838
 21
113.120074
 31
0.0
  0
LINE
  5
686
  8
035
 10
355.630838
 20
113.120074
 30
0.0
 11
355.630838
 21
112.820074
 31
0.0
  0
LINE
  5
687
  8
035
 10
355.280838
 20
109.170074
 30
0.0
 11
355.280838
 21
108.870074
 31
0.0
  0
LINE
  5
688
  8
035
 10
356.300329
 20
109.170074
 30
0.0
 11
355.280838
 21
109.170074
 31
0.0
  0
LINE
  5
689
  8
035
 10
356.300329
 20
108.870074
 30
0.0
 11
355.280838
 21
108.870074
 31
0.0
  0
ARC
  5
68A
  8
035
 10
351.556985
 20
130.495464
 30
0.0
 40
6.0
 50
242.465414
 51
288.676049
  0
ARC
  5
68B
  8
035
 10
334.480838
 20
112.970074
 30
0.0
 40
11.8
 50
30.25675
 51
49.74325
  0
ARC
  5
68C
  8
035
 10
340.480838
 20
118.017474
 30
0.0
 40
6.0
 50
360.0
 51
34.346556
  0
LINE
  5
68D
  8
035
 10
345.216635
 20
119.371639
 30
0.0
 11
343.973013
 21
118.328116
 31
0.0
  0
ARC
  5
68E
  8
035
 10
345.280838
 20
118.855444
 30
0.0
 40
0.2
 50
0.0
 51
28.587806
  0
LINE
  5
68F
  8
035
 10
342.6494
 20
122.43115
 30
0.0
 11
341.405778
 21
121.387628
 31
0.0
  0
CIRCLE
  5
690
  8
035
 10
347.581343
 20
122.869569
 30
0.0
 40
1.1
  0
CIRCLE
  5
691
  8
035
 10
347.581343
 20
122.869569
 30
0.0
 40
1.4
  0
LINE
  5
692
  8
025
 10
353.381313
 20
115.470074
 30
0.0
 11
353.558617
 21
116.26984
 31
0.0
  0
LINE
  5
693
  8
025
 10
353.381313
 20
115.470074
 30
0.0
 11
354.880873
 21
115.470074
 31
0.0
  0
LINE
  5
694
  8
025
 10
351.331915
 20
115.470074
 30
0.0
 11
351.881753
 21
115.470074
 31
0.0
  0
LINE
  5
695
  8
025
 10
351.509218
 20
116.26984
 30
0.0
 11
352.159028
 21
116.26984
 31
0.0
  0
LINE
  5
696
  8
025
 10
351.331915
 20
115.470074
 30
0.0
 11
351.509218
 21
116.26984
 31
0.0
  0
LINE
  5
697
  8
025
 10
351.881753
 20
115.470074
 30
0.0
 11
351.981487
 21
115.919942
 31
0.0
  0
LINE
  5
698
  8
025
 10
353.106394
 20
115.470074
 30
0.0
 11
353.283698
 21
116.26984
 31
0.0
  0
LINE
  5
699
  8
025
 10
352.656289
 20
115.919942
 30
0.0
 11
352.733859
 21
116.26984
 31
0.0
  0
LINE
  5
69A
  8
025
 10
351.981487
 20
115.919942
 30
0.0
 11
352.481577
 21
115.470074
 31
0.0
  0
LINE
  5
69B
  8
025
 10
352.159028
 20
116.26984
 30
0.0
 11
352.656289
 21
115.919942
 31
0.0
  0
LINE
  5
69C
  8
025
 10
352.733859
 20
116.26984
 30
0.0
 11
353.283698
 21
116.26984
 31
0.0
  0
LINE
  5
69D
  8
025
 10
352.481577
 20
115.470074
 30
0.0
 11
353.106394
 21
115.470074
 31
0.0
  0
LINE
  5
69E
  8
035
 10
349.67459
 20
114.720074
 30
0.0
 11
351.030838
 21
114.720074
 31
0.0
  0
LINE
  5
69F
  8
035
 10
351.030838
 20
114.070074
 30
0.0
 11
351.030838
 21
114.720074
 31
0.0
  0
LINE
  5
6A0
  8
025
 10
353.973262
 20
115.660019
 30
0.0
 11
353.998749
 21
115.774985
 31
0.0
  0
LINE
  5
6A1
  8
025
 10
354.873492
 20
115.774985
 30
0.0
 11
354.915602
 21
115.964929
 31
0.0
  0
LINE
  5
6A2
  8
025
 10
354.880873
 20
115.470074
 30
0.0
 11
354.922983
 21
115.660019
 31
0.0
  0
LINE
  5
6A3
  8
025
 10
353.973262
 20
115.660019
 30
0.0
 11
354.922983
 21
115.660019
 31
0.0
  0
LINE
  5
6A4
  8
025
 10
354.066346
 20
116.079895
 30
0.0
 11
355.016067
 21
116.079895
 31
0.0
  0
LINE
  5
6A5
  8
025
 10
354.040859
 20
115.964929
 30
0.0
 11
354.915602
 21
115.964929
 31
0.0
  0
LINE
  5
6A6
  8
025
 10
353.998749
 20
115.774985
 30
0.0
 11
354.873492
 21
115.774985
 31
0.0
  0
LINE
  5
6A7
  8
025
 10
354.040859
 20
115.964929
 30
0.0
 11
354.066346
 21
116.079895
 31
0.0
  0
LINE
  5
6A8
  8
025
 10
355.016067
 20
116.079895
 30
0.0
 11
355.058177
 21
116.26984
 31
0.0
  0
LINE
  5
6A9
  8
025
 10
355.184959
 20
115.714369
 30
0.0
 11
355.308104
 21
116.26984
 31
0.0
  0
LINE
  5
6AA
  8
025
 10
355.748665
 20
115.783166
 30
0.0
 11
355.856558
 21
116.26984
 31
0.0
  0
LINE
  5
6AB
  8
025
 10
356.349959
 20
115.757234
 30
0.0
 11
356.463601
 21
116.26984
 31
0.0
  0
LINE
  5
6AC
  8
025
 10
356.880294
 20
115.675527
 30
0.0
 11
357.01205
 21
116.26984
 31
0.0
  0
LINE
  5
6AD
  8
025
 10
355.308104
 20
116.26984
 30
0.0
 11
355.856558
 21
116.26984
 31
0.0
  0
POLYLINE
  5
6AE
  8
025
 66
     1
 10
0.0
 20
0.0
 30
0.0
  0
VERTEX
  5
9DE
  8
025
 10
355.184959
 20
115.714369
 30
0.0
 42
0.053304
  0
VERTEX
  5
9DF
  8
025
 10
355.182889
 20
115.695008
 30
0.0
 42
0.242955
  0
SEQEND
  5
9E0
  8
025
  0
POLYLINE
  5
6AF
  8
025
 66
     1
 10
0.0
 20
0.0
 30
0.0
  0
VERTEX
  5
9E1
  8
025
 10
355.182889
 20
115.695008
 30
0.0
 42
0.242955
  0
VERTEX
  5
9E2
  8
025
 10
355.221449
 20
115.620337
 30
0.0
 42
0.083039
  0
VERTEX
  5
9E3
  8
025
 10
355.431775
 20
115.518284
 30
0.0
 42
0.041229
  0
VERTEX
  5
9E4
  8
025
 10
355.683711
 20
115.466258
 30
0.0
 42
0.030317
  0
VERTEX
  5
9E5
  8
025
 10
356.03264
 20
115.445082
 30
0.0
 42
0.030317
  0
VERTEX
  5
9E6
  8
025
 10
356.381568
 20
115.466258
 30
0.0
 42
0.041229
  0
VERTEX
  5
9E7
  8
025
 10
356.633504
 20
115.518284
 30
0.0
 42
0.083039
  0
VERTEX
  5
9E8
  8
025
 10
356.843831
 20
115.620337
 30
0.0
 42
0.186877
  0
VERTEX
  5
9E9
  8
025
 10
356.880294
 20
115.675527
 30
0.0
 42
0.242955
  0
SEQEND
  5
9EA
  8
025
  0
POLYLINE
  5
6B0
  8
025
 66
     1
 10
0.0
 20
0.0
 30
0.0
  0
VERTEX
  5
9EB
  8
025
 10
355.747128
 20
115.769986
 30
0.0
 42
0.199105
  0
VERTEX
  5
9EC
  8
025
 10
355.763932
 20
115.72946
 30
0.0
 42
0.098437
  0
VERTEX
  5
9ED
  8
025
 10
355.835621
 20
115.681624
 30
0.0
 42
0.055684
  0
VERTEX
  5
9EE
  8
025
 10
355.926193
 20
115.655489
 30
0.0
 42
0.042444
  0
VERTEX
  5
9EF
  8
025
 10
356.049262
 20
115.645023
 30
0.0
 42
0.042444
  0
VERTEX
  5
9F0
  8
025
 10
356.172332
 20
115.655489
 30
0.0
 42
0.055684
  0
VERTEX
  5
9F1
  8
025
 10
356.262904
 20
115.681624
 30
0.0
 42
0.098437
  0
VERTEX
  5
9F2
  8
025
 10
356.334592
 20
115.72946
 30
0.0
 42
0.141327
  0
VERTEX
  5
9F3
  8
025
 10
356.349959
 20
115.757234
 30
0.0
 42
0.199105
  0
SEQEND
  5
9F4
  8
025
  0
POLYLINE
  5
6B1
  8
025
 66
     1
 10
0.0
 20
0.0
 30
0.0
  0
VERTEX
  5
9F5
  8
025
 10
355.748665
 20
115.783166
 30
0.0
 42
0.058115
  0
VERTEX
  5
9F6
  8
025
 10
355.747128
 20
115.769986
 30
0.0
 42
0.199105
  0
SEQEND
  5
9F7
  8
025
  0
LINE
  5
6B2
  8
025
 10
356.463601
 20
116.26984
 30
0.0
 11
357.01205
 21
116.26984
 31
0.0
  0
LINE
  5
6B3
  8
025
 10
357.113235
 20
116.069898
 30
0.0
 11
357.157561
 21
116.26984
 31
0.0
  0
LINE
  5
6B4
  8
025
 10
357.480111
 20
115.470074
 30
0.0
 11
357.613089
 21
116.069898
 31
0.0
  0
LINE
  5
6B5
  8
025
 10
357.113235
 20
116.069898
 30
0.0
 11
357.613089
 21
116.069898
 31
0.0
  0
LINE
  5
6B6
  8
025
 10
353.558617
 20
116.26984
 30
0.0
 11
355.058177
 21
116.26984
 31
0.0
  0
LINE
  5
6B7
  8
035
 10
353.615735
 20
122.301258
 30
0.0
 11
353.27132
 21
123.132749
 31
0.0
  0
ARC
  5
6B8
  8
035
 10
353.692272
 20
122.116482
 30
0.0
 40
0.2
 50
264.110395
 51
112.5
  0
ARC
  5
6B9
  8
035
 10
353.711406
 20
122.070288
 30
0.0
 40
0.25
 50
226.746295
 51
112.5
  0
ARC
  5
6BA
  8
035
 10
351.928926
 20
121.586267
 30
0.0
 40
0.5
 50
302.796026
 51
30.0
  0
LINE
  5
6BB
  8
035
 10
352.361939
 20
121.836267
 30
0.0
 11
351.980838
 21
122.496354
 31
0.0
  0
ARC
  5
6BC
  8
035
 10
357.480837
 20
112.970074
 30
0.0
 40
11.0
 50
112.499998
 51
119.999998
  0
ARC
  5
6BD
  8
035
 10
351.853838
 20
121.716324
 30
0.0
 40
0.5
 50
30.0
 51
122.755667
  0
ARC
  5
6BE
  8
035
 10
353.571616
 20
122.930395
 30
0.0
 40
0.2
 50
111.428988
 51
202.5
  0
LINE
  5
6BF
  8
035
 10
353.474277
 20
121.85883
 30
0.0
 11
352.994156
 21
123.017944
 31
0.0
  0
LINE
  5
6C0
  8
035
 10
354.430838
 20
121.064517
 30
0.0
 11
354.660028
 21
120.456264
 31
0.0
  0
LINE
  5
6C1
  8
035
 10
353.826211
 20
121.793124
 30
0.0
 11
353.807077
 21
121.839318
 31
0.0
  0
ARC
  5
6C2
  8
035
 10
353.651227
 20
121.718593
 30
0.0
 40
0.2
 50
84.110395
 51
113.641106
  0
LINE
  5
6C3
  8
035
 10
364.530838
 20
113.470074
 30
0.0
 11
363.930838
 21
114.070074
 31
0.0
  0
CIRCLE
  5
6C4
  8
025
 10
361.530838
 20
112.970074
 30
0.0
 40
1.19
  0
LINE
  5
6C5
  8
MITTE
 10
361.530838
 20
114.270074
 30
0.0
 11
361.530838
 21
111.670074
 31
0.0
  0
LINE
  5
6C6
  8
035
 10
368.480838
 20
107.922675
 30
0.0
 11
368.480838
 21
118.855444
 31
0.0
  0
LINE
  5
6C7
  8
035
 10
359.230838
 20
105.163827
 30
0.0
 11
359.230838
 21
106.620074
 31
0.0
  0
LINE
  5
6C8
  8
035
 10
359.330838
 20
113.120074
 30
0.0
 11
359.330838
 21
112.820074
 31
0.0
  0
LINE
  5
6C9
  8
035
 10
360.350329
 20
113.120074
 30
0.0
 11
359.330838
 21
113.120074
 31
0.0
  0
LINE
  5
6CA
  8
035
 10
360.350329
 20
112.820074
 30
0.0
 11
359.330838
 21
112.820074
 31
0.0
  0
LINE
  5
6CB
  8
035
 10
358.661346
 20
109.170074
 30
0.0
 11
359.680838
 21
109.170074
 31
0.0
  0
LINE
  5
6CC
  8
035
 10
358.661346
 20
108.870074
 30
0.0
 11
359.680838
 21
108.870074
 31
0.0
  0
LINE
  5
6CD
  8
035
 10
359.680838
 20
109.170074
 30
0.0
 11
359.680838
 21
108.870074
 31
0.0
  0
TEXT
  5
6CE
  8
035
 10
358.757987
 20
110.206102
 30
0.0
 40
1.4985
  1
3
  7
HELV
  0
LINE
  5
6CF
  8
035
 10
362.711346
 20
113.120074
 30
0.0
 11
363.730838
 21
113.120074
 31
0.0
  0
LINE
  5
6D0
  8
035
 10
362.711346
 20
112.820074
 30
0.0
 11
363.730838
 21
112.820074
 31
0.0
  0
LINE
  5
6D1
  8
035
 10
363.730838
 20
113.120074
 30
0.0
 11
363.730838
 21
112.820074
 31
0.0
  0
LINE
  5
6D2
  8
035
 10
364.530838
 20
113.470074
 30
0.0
 11
364.530838
 21
112.470074
 31
0.0
  0
LINE
  5
6D3
  8
035
 10
364.530838
 20
112.470074
 30
0.0
 11
363.930838
 21
111.870074
 31
0.0
  0
LINE
  5
6D4
  8
035
 10
365.287085
 20
111.220074
 30
0.0
 11
363.930838
 21
111.220074
 31
0.0
  0
LINE
  5
6D5
  8
035
 10
363.930838
 20
111.220074
 30
0.0
 11
363.930838
 21
111.870074
 31
0.0
  0
TEXT
  5
6D6
  8
035
 10
361.767167
 20
109.079261
 30
0.0
 40
1.4985
  1
2
  7
HELV
  0
ARC
  5
6D7
  8
035
 10
374.480838
 20
107.922675
 30
0.0
 40
6.0
 50
180.0
 51
214.346556
  0
LINE
  5
6D8
  8
035
 10
369.480838
 20
112.670074
 30
0.0
 11
369.480838
 21
113.470074
 31
0.0
  0
LINE
  5
6D9
  8
035
 10
369.280838
 20
112.470074
 30
0.0
 11
369.280838
 21
113.470074
 31
0.0
  0
LINE
  5
6DA
  8
035
 10
368.480838
 20
112.470074
 30
0.0
 11
369.280838
 21
112.470074
 31
0.0
  0
LINE
  5
6DB
  8
035
 10
368.480838
 20
113.470074
 30
0.0
 11
369.480838
 21
113.470074
 31
0.0
  0
LINE
  5
6DC
  8
035
 10
369.280838
 20
112.470074
 30
0.0
 11
369.480838
 21
112.670074
 31
0.0
  0
LINE
  5
6DD
  8
035
 10
368.334869
 20
111.970074
 30
0.0
 11
368.480838
 21
111.970074
 31
0.0
  0
ARC
  5
6DE
  8
035
 10
357.480838
 20
112.970074
 30
0.0
 40
11.8
 50
30.25675
 51
49.74325
  0
ARC
  5
6DF
  8
035
 10
362.996271
 20
118.485507
 30
0.0
 40
1.0
 50
322.958832
 51
127.041168
  0
LINE
  5
6E0
  8
025
 10
361.731219
 20
116.26984
 30
0.0
 11
362.256065
 21
116.26984
 31
0.0
  0
LINE
  5
6E1
  8
025
 10
361.553916
 20
115.470074
 30
0.0
 11
362.078762
 21
115.470074
 31
0.0
  0
LINE
  5
6E2
  8
025
 10
358.02995
 20
115.470074
 30
0.0
 11
358.162927
 21
116.069898
 31
0.0
  0
LINE
  5
6E3
  8
025
 10
358.687773
 20
116.069898
 30
0.0
 11
358.732099
 21
116.26984
 31
0.0
  0
LINE
  5
6E4
  8
025
 10
358.162927
 20
116.069898
 30
0.0
 11
358.687773
 21
116.069898
 31
0.0
  0
LINE
  5
6E5
  8
025
 10
358.729744
 20
115.470074
 30
0.0
 11
358.907048
 21
116.26984
 31
0.0
  0
LINE
  5
6E6
  8
025
 10
359.279583
 20
115.470074
 30
0.0
 11
359.33499
 21
115.720001
 31
0.0
  0
LINE
  5
6E7
  8
025
 10
358.729744
 20
115.470074
 30
0.0
 11
359.279583
 21
115.470074
 31
0.0
  0
LINE
  5
6E8
  8
025
 10
358.907048
 20
116.26984
 30
0.0
 11
360.310232
 21
116.26984
 31
0.0
  0
LINE
  5
6E9
  8
025
 10
360.410105
 20
115.553769
 30
0.0
 11
360.423129
 21
115.740015
 31
0.0
  0
LINE
  5
6EA
  8
025
 10
359.85887
 20
115.533794
 30
0.0
 11
359.868936
 21
115.680298
 31
0.0
  0
LINE
  5
6EB
  8
025
 10
359.33499
 20
115.720001
 30
0.0
 11
359.812167
 21
115.720001
 31
0.0
  0
LINE
  5
6EC
  8
025
 10
359.3771
 20
115.909945
 30
0.0
 11
359.804352
 21
115.909945
 31
0.0
  0
LINE
  5
6ED
  8
025
 10
359.3771
 20
115.909945
 30
0.0
 11
359.414777
 21
116.079895
 31
0.0
  0
LINE
  5
6EE
  8
025
 10
359.414777
 20
116.079895
 30
0.0
 11
359.878327
 21
116.079895
 31
0.0
  0
ARC
  5
6EF
  8
025
 10
360.534764
 20
115.545052
 30
0.0
 40
0.124963
 50
176.0
 51
216.869898
  0
ARC
  5
6F0
  8
025
 10
359.979212
 20
115.535415
 30
0.0
 40
0.120353
 50
180.772005
 51
212.881875
  0
LINE
  5
6F1
  8
025
 10
359.878141
 20
115.470074
 30
0.0
 11
360.434794
 21
115.470074
 31
0.0
  0
POLYLINE
  5
6F2
  8
025
 66
     1
 10
0.0
 20
0.0
 30
0.0
  0
VERTEX
  5
9F8
  8
025
 10
360.423129
 20
115.740015
 30
0.0
 42
0.084831
  0
VERTEX
  5
9F9
  8
025
 10
360.420273
 20
115.770786
 30
0.0
 42
0.153048
  0
VERTEX
  5
9FA
  8
025
 10
360.39087
 20
115.817113
 30
0.0
 42
0.025315
  0
VERTEX
  5
9FB
  8
025
 10
360.376085
 20
115.828374
 30
0.0
 42
0.067948
  0
SEQEND
  5
9FC
  8
025
  0
POLYLINE
  5
6F3
  8
025
 66
     1
 10
0.0
 20
0.0
 30
0.0
  0
VERTEX
  5
9FD
  8
025
 10
360.376085
 20
115.828374
 30
0.0
 42
0.015369
  0
VERTEX
  5
9FE
  8
025
 10
360.41268
 20
115.847103
 30
0.0
 42
0.073981
  0
VERTEX
  5
9FF
  8
025
 10
360.517975
 20
115.927392
 30
0.0
 42
0.106894
  0
VERTEX
  5
A00
  8
025
 10
360.583821
 20
116.03273
 30
0.0
 42
0.153048
  0
VERTEX
  5
A01
  8
025
 10
360.587502
 20
116.120445
 30
0.0
 42
0.153048
  0
VERTEX
  5
A02
  8
025
 10
360.540456
 20
116.194568
 30
0.0
 42
0.106894
  0
VERTEX
  5
A03
  8
025
 10
360.430764
 20
116.25287
 30
0.0
 42
0.067948
  0
VERTEX
  5
A04
  8
025
 10
360.310232
 20
116.26984
 30
0.0
 42
0.060566
  0
SEQEND
  5
A05
  8
025
  0
POLYLINE
  5
6F4
  8
025
 66
     1
 10
0.0
 20
0.0
 30
0.0
  0
VERTEX
  5
A06
  8
025
 10
359.804352
 20
115.909945
 30
0.0
 42
0.065514
  0
VERTEX
  5
A07
  8
025
 10
359.862447
 20
115.917795
 30
0.0
 42
0.060566
  0
VERTEX
  5
A08
  8
025
 10
359.912707
 20
115.938032
 30
0.0
 42
0.073981
  0
VERTEX
  5
A09
  8
025
 10
359.948042
 20
115.964976
 30
0.0
 42
0.106894
  0
VERTEX
  5
A0A
  8
025
 10
359.970139
 20
116.000325
 30
0.0
 42
0.153048
  0
VERTEX
  5
A0B
  8
025
 10
359.971374
 20
116.029761
 30
0.0
 42
0.153048
  0
VERTEX
  5
A0C
  8
025
 10
359.955586
 20
116.054635
 30
0.0
 42
0.106894
  0
VERTEX
  5
A0D
  8
025
 10
359.918775
 20
116.074201
 30
0.0
 42
0.067948
  0
VERTEX
  5
A0E
  8
025
 10
359.878327
 20
116.079895
 30
0.0
 42
0.060506
  0
SEQEND
  5
A0F
  8
025
  0
POLYLINE
  5
6F5
  8
025
 66
     1
 10
0.0
 20
0.0
 30
0.0
  0
VERTEX
  5
A10
  8
025
 10
359.868936
 20
115.680298
 30
0.0
 42
0.082344
  0
VERTEX
  5
A11
  8
025
 10
359.867995
 20
115.68992
 30
0.0
 42
0.153048
  0
VERTEX
  5
A12
  8
025
 10
359.858523
 20
115.704845
 30
0.0
 42
0.106894
  0
VERTEX
  5
A13
  8
025
 10
359.836436
 20
115.716584
 30
0.0
 42
0.067948
  0
VERTEX
  5
A14
  8
025
 10
359.812167
 20
115.720001
 30
0.0
 42
0.060506
  0
SEQEND
  5
A15
  8
025
  0
LINE
  5
6F6
  8
025
 10
360.679172
 20
115.470074
 30
0.0
 11
360.856476
 21
116.26984
 31
0.0
  0
LINE
  5
6F7
  8
025
 10
361.229011
 20
115.470074
 30
0.0
 11
361.406315
 21
116.26984
 31
0.0
  0
LINE
  5
6F8
  8
025
 10
360.679172
 20
115.470074
 30
0.0
 11
361.229011
 21
115.470074
 31
0.0
  0
LINE
  5
6F9
  8
025
 10
360.856476
 20
116.26984
 30
0.0
 11
361.406315
 21
116.26984
 31
0.0
  0
LINE
  5
6FA
  8
025
 10
361.553916
 20
115.470074
 30
0.0
 11
361.731219
 21
116.26984
 31
0.0
  0
LINE
  5
6FB
  8
025
 10
362.078762
 20
115.470074
 30
0.0
 11
362.123088
 21
115.670016
 31
0.0
  0
LINE
  5
6FC
  8
025
 10
362.123088
 20
115.670016
 30
0.0
 11
362.357688
 21
115.769986
 31
0.0
  0
LINE
  5
6FD
  8
025
 10
362.196095
 20
115.999331
 30
0.0
 11
362.830897
 21
116.26984
 31
0.0
  0
LINE
  5
6FE
  8
025
 10
362.830897
 20
116.26984
 30
0.0
 11
363.530691
 21
116.26984
 31
0.0
  0
LINE
  5
6FF
  8
025
 10
362.357688
 20
115.769986
 30
0.0
 11
362.653593
 21
115.470074
 31
0.0
  0
LINE
  5
700
  8
025
 10
362.88554
 20
115.99492
 30
0.0
 11
363.403373
 21
115.470074
 31
0.0
  0
LINE
  5
701
  8
025
 10
362.88554
 20
115.99492
 30
0.0
 11
363.530691
 21
116.26984
 31
0.0
  0
LINE
  5
702
  8
025
 10
362.196095
 20
115.999331
 30
0.0
 11
362.256065
 21
116.26984
 31
0.0
  0
LINE
  5
703
  8
025
 10
362.653593
 20
115.470074
 30
0.0
 11
363.403373
 21
115.470074
 31
0.0
  0
LINE
  5
704
  8
035
 10
365.287085
 20
114.720074
 30
0.0
 11
363.930838
 21
114.720074
 31
0.0
  0
LINE
  5
705
  8
035
 10
363.930838
 20
114.070074
 30
0.0
 11
363.930838
 21
114.720074
 31
0.0
  0
LINE
  5
706
  8
035
 10
361.487398
 20
121.85883
 30
0.0
 11
361.967519
 21
123.017944
 31
0.0
  0
ARC
  5
707
  8
035
 10
357.480838
 20
112.970074
 30
0.0
 40
11.0
 50
60.000002
 51
67.500002
  0
LINE
  5
708
  8
035
 10
360.530838
 20
121.064517
 30
0.0
 11
360.301647
 21
120.456264
 31
0.0
  0
ARC
  5
709
  8
035
 10
361.310449
 20
121.718593
 30
0.0
 40
0.2
 50
66.358894
 51
95.889605
  0
ARC
  5
70A
  8
035
 10
361.269404
 20
122.116482
 30
0.0
 40
0.2
 50
67.5
 51
275.889605
  0
LINE
  5
70B
  8
035
 10
361.34594
 20
122.301258
 30
0.0
 11
361.690355
 21
123.132749
 31
0.0
  0
ARC
  5
70C
  8
035
 10
361.25027
 20
122.070288
 30
0.0
 40
0.25
 50
67.5
 51
313.253705
  0
LINE
  5
70D
  8
035
 10
361.135465
 20
121.793124
 30
0.0
 11
361.154599
 21
121.839318
 31
0.0
  0
ARC
  5
70E
  8
035
 10
361.390059
 20
122.930395
 30
0.0
 40
0.2
 50
337.5
 51
68.571012
  0
ARC
  5
70F
  8
035
 10
363.107837
 20
121.716324
 30
0.0
 40
0.5
 50
57.244333
 51
150.0
  0
ARC
  5
710
  8
035
 10
363.032749
 20
121.586267
 30
0.0
 40
0.5
 50
150.0
 51
237.203974
  0
LINE
  5
711
  8
035
 10
362.599737
 20
121.836267
 30
0.0
 11
362.980838
 21
122.496354
 31
0.0
  0
LINE
  5
712
  8
035
 10
365.6494
 20
122.43115
 30
0.0
 11
364.405778
 21
121.387628
 31
0.0
  0
LINE
  5
713
  8
035
 10
368.216635
 20
119.371639
 30
0.0
 11
366.973013
 21
118.328116
 31
0.0
  0
ARC
  5
714
  8
035
 10
368.280838
 20
118.855444
 30
0.0
 40
0.2
 50
0.0
 51
28.587806
  0
LINE
  5
715
  8
BEM1
 10
357.480838
 20
126.311577
 30
0.0
 11
357.480838
 21
132.613099
 31
0.0
  0
SOLID
  5
716
  8
BEM1
 10
353.980838
 20
131.546043
 30
0.0
 11
353.980838
 21
132.71271
 31
0.0
 12
357.480838
 22
132.129376
 32
0.0
 13
357.480838
 23
132.129376
 33
0.0
  0
LINE
  5
717
  8
BEM1
 10
365.635035
 20
190.156597
 30
0.0
 11
297.084965
 21
190.156597
 31
0.0
  0
LINE
  5
718
  8
BEM1
 10
311.457353
 20
274.626691
 30
0.0
 11
379.454323
 21
274.626691
 31
0.0
  0
LINE
  5
719
  8
BEM1
 10
319.257353
 20
267.239725
 30
0.0
 11
371.654323
 21
267.239725
 31
0.0
  0
LINE
  5
71A
  8
05
 10
350.705838
 20
200.805082
 30
0.0
 11
340.205838
 21
200.805082
 31
0.0
  0
ARC
  5
71B
  8
05
 10
345.455838
 20
219.855082
 30
0.0
 40
25.95
 50
69.353504
 51
110.646496
  0
INSERT
  5
71C
  8
035
 62
     4
  2
*X3
 10
276.199648
 20
-23.864439
 30
0.0
 41
1.285714
 42
1.285714
 43
1.285714
  0
CIRCLE
  5
754
  8
035
 62
     4
 10
345.455838
 20
235.226595
 30
0.0
 40
4.5
  0
POLYLINE
  5
755
  8
035
 66
     1
 10
0.0
 20
0.0
 30
0.0
  0
VERTEX
  5
A16
  8
035
 10
340.254707
 20
226.754818
 30
0.0
 42
0.199105
  0
VERTEX
  5
A17
  8
035
 10
340.30512
 20
226.633238
 30
0.0
 42
0.098437
  0
VERTEX
  5
A18
  8
035
 10
340.520187
 20
226.489731
 30
0.0
 42
0.055684
  0
VERTEX
  5
A19
  8
035
 10
340.791903
 20
226.411326
 30
0.0
 42
0.042444
  0
VERTEX
  5
A1A
  8
035
 10
341.161111
 20
226.379928
 30
0.0
 42
0.042444
  0
VERTEX
  5
A1B
  8
035
 10
341.530319
 20
226.411326
 30
0.0
 42
0.055684
  0
VERTEX
  5
A1C
  8
035
 10
341.802035
 20
226.489731
 30
0.0
 42
0.098437
  0
VERTEX
  5
A1D
  8
035
 10
342.017102
 20
226.633238
 30
0.0
 42
0.141327
  0
VERTEX
  5
A1E
  8
035
 10
342.063202
 20
226.716561
 30
0.0
 42
0.199105
  0
SEQEND
  5
A1F
  8
035
  0
POLYLINE
  5
756
  8
035
 66
     1
 10
0.0
 20
0.0
 30
0.0
  0
VERTEX
  5
A20
  8
035
 10
338.561992
 20
226.529884
 30
0.0
 42
0.242955
  0
VERTEX
  5
A21
  8
035
 10
338.67767
 20
226.30587
 30
0.0
 42
0.083039
  0
VERTEX
  5
A22
  8
035
 10
339.30865
 20
225.99971
 30
0.0
 42
0.041229
  0
VERTEX
  5
A23
  8
035
 10
340.064458
 20
225.843633
 30
0.0
 42
0.030317
  0
VERTEX
  5
A24
  8
035
 10
341.111244
 20
225.780104
 30
0.0
 42
0.030317
  0
VERTEX
  5
A25
  8
035
 10
342.15803
 20
225.843633
 30
0.0
 42
0.041229
  0
VERTEX
  5
A26
  8
035
 10
342.913837
 20
225.99971
 30
0.0
 42
0.083039
  0
VERTEX
  5
A27
  8
035
 10
343.544817
 20
226.30587
 30
0.0
 42
0.186877
  0
VERTEX
  5
A28
  8
035
 10
343.654207
 20
226.471439
 30
0.0
 42
0.242955
  0
SEQEND
  5
A29
  8
035
  0
LINE
  5
757
  8
MITTE
 10
382.618362
 20
219.855082
 30
0.0
 11
308.619306
 21
219.855082
 31
0.0
  0
LINE
  5
758
  8
05
 10
337.543001
 20
240.855082
 30
0.0
 11
353.368674
 21
240.855082
 31
0.0
  0
ARC
  5
759
  8
05
 10
345.455838
 20
219.855082
 30
0.0
 40
24.0
 50
110.646496
 51
37.88877
  0
LINE
  5
75A
  8
05
 10
375.154323
 20
182.356597
 30
0.0
 11
329.855838
 21
182.356597
 31
0.0
  0
ARC
  5
75B
  8
035
 10
345.455838
 20
219.855082
 30
0.0
 40
24.75
 50
72.494437
 51
107.44911
  0
LINE
  5
75C
  8
MITTE
 10
338.275919
 20
208.005082
 30
0.0
 11
352.675095
 21
208.005082
 31
0.0
  0
TEXT
  5
75D
  8
BEM1
 62
     3
 10
333.643659
 20
276.376691
 30
0.0
 40
3.5
  1
25.00 [0.984"]
 41
0.7
 51
15.0
  0
ARC
  5
75E
  8
05
 10
345.455838
 20
219.855082
 30
0.0
 40
32.7
 50
122.755667
 51
57.244333
  0
ARC
  5
75F
  8
05
 10
345.455838
 20
219.855082
 30
0.0
 40
29.25
 50
113.641106
 51
66.358894
  0
ARC
  5
760
  8
05
 10
345.455838
 20
219.855082
 30
0.0
 40
37.498485
 50
90.0
 51
108.676048
  0
ARC
  5
761
  8
05
 10
345.455838
 20
219.855082
 30
0.0
 40
33.0
 50
67.5
 51
112.5
  0
ARC
  5
762
  8
05
 10
345.455838
 20
219.855082
 30
0.0
 40
32.7
 50
68.571012
 51
111.428988
  0
LINE
  5
763
  8
05
 10
341.914313
 20
208.455082
 30
0.0
 11
338.855838
 21
208.455082
 31
0.0
  0
LINE
  5
764
  8
05
 10
341.914313
 20
207.555082
 30
0.0
 11
338.855838
 21
207.555082
 31
0.0
  0
TEXT
  5
765
  8
035
 10
322.104977
 20
149.617287
 30
0.0
 40
3.0
  1
min assembling distance
  7
ARIAL
  0
TEXT
  5
766
  8
035
 10
322.104977
 20
155.617287
 30
0.0
 40
3.5
  1
min. Einbauabstand
  7
ARIAL
  0
LINE
  5
767
  8
05
 10
336.305838
 20
244.13841
 30
0.0
 11
337.543001
 21
240.855082
 31
0.0
  0
ARC
  5
768
  8
05
 10
294.455838
 20
234.997281
 30
0.0
 40
18.0
 50
360.0
 51
34.346556
  0
LINE
  5
769
  8
BEM1
 10
297.884965
 20
246.053567
 30
0.0
 11
297.884965
 21
193.656597
 31
0.0
  0
LINE
  5
76A
  8
BEM1
 10
289.238139
 20
253.853567
 30
0.0
 11
289.238139
 21
185.856597
 31
0.0
  0
LINE
  5
76B
  8
05
 10
232.490726
 20
206.355082
 30
0.0
 11
232.490726
 21
241.768126
 31
0.0
  0
LINE
  5
76C
  8
05
 10
235.490726
 20
189.856597
 30
0.0
 11
235.490726
 21
249.255082
 31
0.0
  0
LINE
  5
76D
  8
05
 10
217.490728
 20
249.855082
 30
0.0
 11
217.490728
 21
238.755082
 31
0.0
  0
LINE
  5
76E
  8
05
 10
217.490728
 20
205.455082
 30
0.0
 11
217.490728
 21
179.356597
 31
0.0
  0
LINE
  5
76F
  8
05
 10
233.090726
 20
179.356597
 30
0.0
 11
217.490728
 21
179.356597
 31
0.0
  0
LINE
  5
770
  8
05
 10
233.690726
 20
179.956597
 30
0.0
 11
233.690726
 21
188.056597
 31
0.0
  0
ARC
  5
771
  8
05
 10
233.090726
 20
179.956597
 30
0.0
 40
0.6
 50
270.0
 51
0.0
  0
LINE
  5
772
  8
05
 10
233.690726
 20
188.056597
 30
0.0
 11
235.490726
 21
189.856597
 31
0.0
  0
LINE
  5
773
  8
05
 10
249.590728
 20
229.680082
 30
0.0
 11
241.490728
 21
229.680082
 31
0.0
  0
LINE
  5
774
  8
05
 10
249.590728
 20
198.180082
 30
0.0
 11
241.490728
 21
198.180082
 31
0.0
  0
LINE
  5
775
  8
05
 10
231.590728
 20
221.730082
 30
0.0
 11
231.590728
 21
217.564875
 31
0.0
  0
ARC
  5
776
  8
05
 10
230.990728
 20
217.980082
 30
0.0
 40
0.6
 50
0.0
 51
90.0
  0
LINE
  5
777
  8
05
 10
235.790728
 20
218.539639
 30
0.0
 11
235.790728
 21
209.320526
 31
0.0
  0
LINE
  5
778
  8
MITTE
 10
223.005473
 20
207.705082
 30
0.0
 11
232.883222
 21
207.705082
 31
0.0
  0
LINE
  5
779
  8
05
 10
225.680728
 20
206.430082
 30
0.0
 11
230.990728
 21
206.430082
 31
0.0
  0
LINE
  5
77A
  8
05
 10
225.680728
 20
208.980082
 30
0.0
 11
230.990728
 21
208.980082
 31
0.0
  0
LINE
  5
77B
  8
05
 10
232.490726
 20
206.355082
 30
0.0
 11
218.390728
 21
206.355082
 31
0.0
  0
LINE
  5
77C
  8
MITTE
 10
223.005473
 20
207.705082
 30
0.0
 11
232.883222
 21
207.705082
 31
0.0
  0
ARC
  5
77D
  8
05
 10
225.680728
 20
207.030082
 30
0.0
 40
0.6
 50
180.0
 51
270.0
  0
LINE
  5
77E
  8
05
 10
226.190728
 20
208.980082
 30
0.0
 11
226.190728
 21
206.430082
 31
0.0
  0
LINE
  5
77F
  8
05
 10
225.080728
 20
209.205082
 30
0.0
 11
225.080728
 21
206.355082
 31
0.0
  0
LINE
  5
780
  8
05
 10
217.490728
 20
205.455082
 30
0.0
 11
218.390728
 21
206.355082
 31
0.0
  0
ARC
  5
781
  8
05
 10
225.680728
 20
208.380082
 30
0.0
 40
0.6
 50
90.0
 51
180.0
  0
LINE
  5
782
  8
035
 10
228.228997
 20
206.655082
 30
0.0
 11
227.839285
 21
206.430082
 31
0.0
  0
ARC
  5
783
  8
035
 10
228.228997
 20
206.055082
 30
0.0
 40
0.6
 50
38.682187
 51
90.0
  0
ARC
  5
784
  8
035
 10
228.228997
 20
206.055082
 30
0.0
 40
3.3
 50
5.215909
 51
62.419801
  0
LINE
  5
785
  8
05
 10
241.490728
 20
201.180082
 30
0.0
 11
235.790728
 21
209.320526
 31
0.0
  0
ARC
  5
786
  8
05
 10
241.190726
 20
195.630082
 30
0.0
 40
5.7
 50
90.0
 51
180.0
  0
ARC
  5
787
  8
05
 10
230.990728
 20
205.830082
 30
0.0
 40
0.6
 50
61.044976
 51
90.0
  0
LINE
  5
788
  8
05
 10
240.890726
 20
201.322182
 30
0.0
 11
240.890726
 21
198.180082
 31
0.0
  0
LINE
  5
789
  8
05
 10
241.490728
 20
201.180082
 30
0.0
 11
241.490728
 21
198.180082
 31
0.0
  0
LINE
  5
78A
  8
05
 10
236.092933
 20
198.180082
 30
0.0
 11
240.890726
 21
198.180082
 31
0.0
  0
LINE
  5
78B
  8
05
 10
241.385697
 20
201.330082
 30
0.0
 11
235.490726
 21
201.330082
 31
0.0
  0
LINE
  5
78C
  8
05
 10
231.590728
 20
217.980082
 30
0.0
 11
231.590728
 21
209.580082
 31
0.0
  0
LINE
  5
78D
  8
035
 10
228.228997
 20
206.655082
 30
0.0
 11
228.228997
 21
208.980082
 31
0.0
  0
ARC
  5
78E
  8
05
 10
230.990728
 20
209.580082
 30
0.0
 40
0.6
 50
270.0
 51
0.0
  0
LINE
  5
78F
  8
035
 10
230.687474
 20
208.25642
 30
0.0
 11
230.751558
 21
208.980082
 31
0.0
  0
LINE
  5
790
  8
MITTE
 10
223.005473
 20
232.005082
 30
0.0
 11
232.771046
 21
232.005082
 31
0.0
  0
LINE
  5
791
  8
05
 10
225.680728
 20
230.730082
 30
0.0
 11
230.990728
 21
230.730082
 31
0.0
  0
LINE
  5
792
  8
05
 10
225.680728
 20
233.280082
 30
0.0
 11
230.990728
 21
233.280082
 31
0.0
  0
LINE
  5
793
  8
05
 10
225.680728
 20
218.580082
 30
0.0
 11
230.990728
 21
218.580082
 31
0.0
  0
LINE
  5
794
  8
05
 10
225.680728
 20
221.130082
 30
0.0
 11
230.990728
 21
221.130082
 31
0.0
  0
LINE
  5
795
  8
05
 10
218.390728
 20
239.055082
 30
0.0
 11
232.490726
 21
239.055082
 31
0.0
  0
LINE
  5
796
  8
MITTE
 10
223.005473
 20
232.005082
 30
0.0
 11
232.771046
 21
232.005082
 31
0.0
  0
LINE
  5
797
  8
05
 10
225.080728
 20
219.405082
 30
0.0
 11
225.080728
 21
219.180082
 31
0.0
  0
ARC
  5
798
  8
05
 10
225.680728
 20
219.180082
 30
0.0
 40
0.6
 50
180.0
 51
270.0
  0
ARC
  5
799
  8
05
 10
225.680728
 20
220.530082
 30
0.0
 40
0.6
 50
90.0
 51
180.0
  0
LINE
  5
79A
  8
05
 10
226.190728
 20
221.130082
 30
0.0
 11
226.190728
 21
218.580082
 31
0.0
  0
LINE
  5
79B
  8
05
 10
225.080728
 20
220.530082
 30
0.0
 11
225.080728
 21
220.305082
 31
0.0
  0
LINE
  5
79C
  8
05
 10
217.490728
 20
239.955082
 30
0.0
 11
218.390728
 21
239.055082
 31
0.0
  0
LINE
  5
79D
  8
05
 10
211.190728
 20
238.755082
 30
0.0
 11
211.190728
 21
240.855082
 31
0.0
  0
ARC
  5
79E
  8
05
 10
225.680728
 20
231.330082
 30
0.0
 40
0.6
 50
180.0
 51
270.0
  0
ARC
  5
79F
  8
05
 10
225.680728
 20
232.680082
 30
0.0
 40
0.6
 50
90.0
 51
180.0
  0
LINE
  5
7A0
  8
05
 10
226.190728
 20
233.280082
 30
0.0
 11
226.190728
 21
230.730082
 31
0.0
  0
LINE
  5
7A1
  8
05
 10
225.080728
 20
233.505082
 30
0.0
 11
225.080728
 21
230.505082
 31
0.0
  0
LINE
  5
7A2
  8
05
 10
218.390728
 20
239.055082
 30
0.0
 11
218.390728
 21
238.755082
 31
0.0
  0
LINE
  5
7A3
  8
05
 10
231.590728
 20
230.130082
 30
0.0
 11
231.590728
 21
221.730082
 31
0.0
  0
ARC
  5
7A4
  8
05
 10
241.190726
 20
232.230082
 30
0.0
 40
5.7
 50
180.0
 51
270.0
  0
ARC
  5
7A5
  8
035
 10
228.228997
 20
217.905082
 30
0.0
 40
3.3
 50
11.802892
 51
77.761244
  0
LINE
  5
7A6
  8
035
 10
228.228997
 20
218.580082
 30
0.0
 11
228.228997
 21
221.130082
 31
0.0
  0
ARC
  5
7A7
  8
05
 10
230.990728
 20
221.730082
 30
0.0
 40
0.6
 50
270.0
 51
0.0
  0
LINE
  5
7A8
  8
05
 10
241.490728
 20
226.680082
 30
0.0
 11
235.790728
 21
218.539639
 31
0.0
  0
LINE
  5
7A9
  8
05
 10
236.092933
 20
229.680082
 30
0.0
 11
240.890726
 21
229.680082
 31
0.0
  0
LINE
  5
7AA
  8
05
 10
241.385697
 20
226.530082
 30
0.0
 11
235.490726
 21
226.530082
 31
0.0
  0
LINE
  5
7AB
  8
05
 10
240.890726
 20
226.537982
 30
0.0
 11
240.890726
 21
229.680082
 31
0.0
  0
LINE
  5
7AC
  8
05
 10
241.490728
 20
226.680082
 30
0.0
 11
241.490728
 21
229.680082
 31
0.0
  0
LINE
  5
7AD
  8
05
 10
231.590728
 20
238.755082
 30
0.0
 11
231.590728
 21
233.880082
 31
0.0
  0
ARC
  5
7AE
  8
05
 10
230.990728
 20
230.130082
 30
0.0
 40
0.6
 50
0.0
 51
90.0
  0
ARC
  5
7AF
  8
05
 10
230.990728
 20
233.880082
 30
0.0
 40
0.6
 50
270.0
 51
0.0
  0
LINE
  5
7B0
  8
05
 10
251.990728
 20
227.280082
 30
0.0
 11
251.990728
 21
200.580082
 31
0.0
  0
ARC
  5
7B1
  8
05
 10
249.590728
 20
200.580082
 30
0.0
 40
2.4
 50
270.0
 51
360.0
  0
ARC
  5
7B2
  8
05
 10
249.590728
 20
227.280082
 30
0.0
 40
2.4
 50
360.0
 51
90.0
  0
ARC
  5
7B3
  8
05
 10
345.455838
 20
219.855086
 30
0.0
 40
37.498485
 50
208.587806
 51
244.835805
  0
ARC
  5
7B4
  8
05
 10
345.455837
 20
219.855082
 30
0.0
 40
35.4
 50
210.286897
 51
239.713104
  0
LINE
  5
7B5
  8
BEM1
 10
326.56898
 20
182.356597
 30
0.0
 11
288.438139
 21
182.356597
 31
0.0
  0
SOLID
  5
7B6
  8
BEM1
 10
289.821473
 20
185.856597
 30
0.0
 11
288.654806
 21
185.856597
 31
0.0
 12
289.238139
 22
182.356597
 32
0.0
 13
289.238139
 23
182.356597
 33
0.0
  0
SOLID
  5
7B7
  8
BEM1
 10
298.468298
 20
193.656597
 30
0.0
 11
297.301631
 21
193.656597
 31
0.0
 12
297.884965
 22
190.156597
 32
0.0
 13
297.884965
 23
190.156597
 33
0.0
  0
LINE
  5
7B8
  8
05
 10
329.855838
 20
185.372416
 30
0.0
 11
329.855838
 21
182.356597
 31
0.0
  0
LINE
  5
7B9
  8
MITTE
 10
334.025838
 20
185.261898
 30
0.0
 11
334.025838
 21
175.239172
 31
0.0
  0
ARC
  5
7BA
  8
05
 10
330.005838
 20
184.906597
 30
0.0
 40
2.55
 50
138.074991
 51
266.627713
  0
LINE
  5
7BB
  8
05
 10
336.275838
 20
178.456597
 30
0.0
 11
331.775838
 21
178.456597
 31
0.0
  0
LINE
  5
7BC
  8
05
 10
335.675838
 20
177.856597
 30
0.0
 11
332.375838
 21
177.856597
 31
0.0
  0
LINE
  5
7BD
  8
05
 10
332.375838
 20
177.856597
 30
0.0
 11
331.775838
 21
178.456597
 31
0.0
  0
LINE
  5
7BE
  8
05
 10
331.775838
 20
182.356597
 30
0.0
 11
331.775838
 21
178.456597
 31
0.0
  0
LINE
  5
7BF
  8
05
 10
336.275838
 20
178.456597
 30
0.0
 11
335.675838
 21
177.856597
 31
0.0
  0
LINE
  5
7C0
  8
05
 10
336.275838
 20
182.356597
 30
0.0
 11
336.275838
 21
178.456597
 31
0.0
  0
LINE
  5
7C1
  8
05
 10
326.071343
 20
187.755589
 30
0.0
 11
329.582116
 21
191.266361
 31
0.0
  0
ARC
  5
7C2
  8
05
 10
329.255838
 20
185.372416
 30
0.0
 40
0.6
 50
0.0
 51
64.835805
  0
TEXT
  5
7C3
  8
BEM1
 62
     3
 10
287.488139
 20
207.270828
 30
0.0
 40
3.5
  1
25.00 [0.984"]
 50
90.0
 41
0.7
 51
15.0
  0
TEXT
  5
7C4
  8
BEM1
 62
     3
 10
296.064056
 20
217.267386
 30
0.0
 40
3.5
  1
[0.780"   ]
 50
90.0
 41
0.7
 51
15.0
  0
TEXT
  5
7C5
  8
BEM1
 62
     3
 10
296.064056
 20
199.448066
 30
0.0
 40
3.5
  1
19.80
 50
90.0
 41
0.7
 51
15.0
  0
INSERT
  5
7C6
  8
BEM1
  2
3
 10
294.59308
 20
209.39184
 30
0.0
 50
90.0
  0
TEXT
  5
7C7
  8
SCHRAFFIERT
 10
295.550697
 20
230.029408
 30
0.0
 40
2.5
  1
%%p0.004
 50
90.0
 41
0.7
 51
15.0
  0
LINE
  5
7C8
  8
05
 10
310.205838
 20
217.605082
 30
0.0
 11
309.455838
 21
218.355082
 31
0.0
  0
LINE
  5
7C9
  8
05
 10
310.205838
 20
217.605082
 30
0.0
 11
310.205838
 21
221.505082
 31
0.0
  0
LINE
  5
7CA
  8
05
 10
324.305838
 20
218.355082
 30
0.0
 11
326.105838
 21
216.555082
 31
0.0
  0
LINE
  5
7CB
  8
MITTE
 10
333.305838
 20
223.755082
 30
0.0
 11
333.305838
 21
215.955082
 31
0.0
  0
CIRCLE
  5
7CC
  8
035
 10
333.305838
 20
219.855082
 30
0.0
 40
3.57
  0
LINE
  5
7CD
  8
05
 10
312.455838
 20
202.198977
 30
0.0
 11
312.455838
 21
234.997281
 31
0.0
  0
LINE
  5
7CE
  8
05
 10
322.037095
 20
214.605082
 30
0.0
 11
326.105838
 21
214.605082
 31
0.0
  0
LINE
  5
7CF
  8
05
 10
313.356343
 20
200.470587
 30
0.0
 11
316.867117
 21
203.98136
 31
0.0
  0
ARC
  5
7D0
  8
05
 10
313.055838
 20
202.198977
 30
0.0
 40
0.6
 50
180.0
 51
208.587806
  0
LINE
  5
7D1
  8
05
 10
312.455838
 20
217.605082
 30
0.0
 11
310.205838
 21
217.605082
 31
0.0
  0
LINE
  5
7D2
  8
05
 10
340.205838
 20
196.43634
 30
0.0
 11
340.205838
 21
200.805082
 31
0.0
  0
TEXT
  5
7D3
  8
035
 10
327.948107
 20
211.682192
 30
0.0
 40
4.5
  1
1
  7
HELV
  0
LINE
  5
7D4
  8
05
 10
326.105838
 20
214.605082
 30
0.0
 11
326.105838
 21
216.555082
 31
0.0
  0
LINE
  5
7D5
  8
05
 10
340.055838
 20
208.455082
 30
0.0
 11
340.055838
 21
207.555082
 31
0.0
  0
LINE
  5
7D6
  8
05
 10
338.855838
 20
208.455082
 30
0.0
 11
338.855838
 21
207.555082
 31
0.0
  0
LINE
  5
7D7
  8
05
 10
322.037095
 20
225.105082
 30
0.0
 11
326.105838
 21
225.105082
 31
0.0
  0
LINE
  5
7D8
  8
05
 10
324.305838
 20
221.355082
 30
0.0
 11
326.105838
 21
223.155082
 31
0.0
  0
LINE
  5
7D9
  8
05
 10
310.205838
 20
218.325376
 30
0.0
 11
312.455838
 21
218.325376
 31
0.0
  0
LINE
  5
7DA
  8
05
 10
312.455838
 20
221.505082
 30
0.0
 11
309.455838
 21
221.505082
 31
0.0
  0
LINE
  5
7DB
  8
05
 10
309.455838
 20
218.655082
 30
0.0
 11
310.205838
 21
218.325376
 31
0.0
  0
LINE
  5
7DC
  8
05
 10
309.455838
 20
218.355082
 30
0.0
 11
309.455838
 21
221.505082
 31
0.0
  0
LINE
  5
7DD
  8
05
 10
324.305838
 20
221.355082
 30
0.0
 11
324.305838
 21
218.355082
 31
0.0
  0
LINE
  5
7DE
  8
05
 10
326.105838
 20
223.155082
 30
0.0
 11
326.105838
 21
225.105082
 31
0.0
  0
LINE
  5
7DF
  8
05
 10
329.764313
 20
219.405082
 30
0.0
 11
326.705838
 21
219.405082
 31
0.0
  0
LINE
  5
7E0
  8
05
 10
329.764313
 20
220.305082
 30
0.0
 11
326.705838
 21
220.305082
 31
0.0
  0
LINE
  5
7E1
  8
05
 10
327.905838
 20
220.305082
 30
0.0
 11
327.905838
 21
219.405082
 31
0.0
  0
LINE
  5
7E2
  8
05
 10
326.705838
 20
220.305082
 30
0.0
 11
326.705838
 21
219.405082
 31
0.0
  0
LINE
  5
7E3
  8
035
 10
328.658584
 20
225.855082
 30
0.0
 11
328.957784
 21
227.204686
 31
0.0
  0
LINE
  5
7E4
  8
035
 10
327.540979
 20
228.254378
 30
0.0
 11
329.490407
 21
228.254378
 31
0.0
  0
LINE
  5
7E5
  8
035
 10
327.009068
 20
225.855082
 30
0.0
 11
327.540979
 21
228.254378
 31
0.0
  0
LINE
  5
7E6
  8
035
 10
327.009068
 20
225.855082
 30
0.0
 11
328.658584
 21
225.855082
 31
0.0
  0
LINE
  5
7E7
  8
035
 10
330.458056
 20
225.855082
 30
0.0
 11
332.332506
 21
225.855082
 31
0.0
  0
LINE
  5
7E8
  8
035
 10
331.214901
 20
228.254378
 30
0.0
 11
332.864417
 21
228.254378
 31
0.0
  0
LINE
  5
7E9
  8
035
 10
329.490407
 20
228.254378
 30
0.0
 11
330.98219
 21
227.204686
 31
0.0
  0
LINE
  5
7EA
  8
035
 10
330.98219
 20
227.204686
 30
0.0
 11
331.214901
 21
228.254378
 31
0.0
  0
LINE
  5
7EB
  8
035
 10
332.332506
 20
225.855082
 30
0.0
 11
332.864417
 21
228.254378
 31
0.0
  0
LINE
  5
7EC
  8
035
 10
328.957784
 20
227.204686
 30
0.0
 11
330.458056
 21
225.855082
 31
0.0
  0
LINE
  5
7ED
  8
05
 10
336.847363
 20
219.405082
 30
0.0
 11
339.905838
 21
219.405082
 31
0.0
  0
LINE
  5
7EE
  8
05
 10
336.847363
 20
220.305082
 30
0.0
 11
339.905838
 21
220.305082
 31
0.0
  0
LINE
  5
7EF
  8
05
 10
338.705838
 20
220.305082
 30
0.0
 11
338.705838
 21
219.405082
 31
0.0
  0
LINE
  5
7F0
  8
05
 10
339.905838
 20
220.305082
 30
0.0
 11
339.905838
 21
219.405082
 31
0.0
  0
LINE
  5
7F1
  8
035
 10
335.009572
 20
226.769814
 30
0.0
 11
337.633802
 21
226.769814
 31
0.0
  0
LINE
  5
7F2
  8
035
 10
335.1359
 20
227.339647
 30
0.0
 11
337.760131
 21
227.339647
 31
0.0
  0
LINE
  5
7F3
  8
035
 10
333.689176
 20
228.254378
 30
0.0
 11
338.187856
 21
228.254378
 31
0.0
  0
LINE
  5
7F4
  8
035
 10
335.212363
 20
227.684545
 30
0.0
 11
338.061527
 21
227.684545
 31
0.0
  0
LINE
  5
7F5
  8
035
 10
334.933109
 20
226.424915
 30
0.0
 11
337.782273
 21
226.424915
 31
0.0
  0
LINE
  5
7F6
  8
035
 10
333.157264
 20
225.855082
 30
0.0
 11
337.655945
 21
225.855082
 31
0.0
  0
LINE
  5
7F7
  8
035
 10
335.1359
 20
227.339647
 30
0.0
 11
335.212363
 21
227.684545
 31
0.0
  0
LINE
  5
7F8
  8
035
 10
334.933109
 20
226.424915
 30
0.0
 11
335.009572
 21
226.769814
 31
0.0
  0
LINE
  5
7F9
  8
035
 10
333.157264
 20
225.855082
 30
0.0
 11
333.689176
 21
228.254378
 31
0.0
  0
POLYLINE
  5
7FA
  8
035
 66
     1
 10
0.0
 20
0.0
 30
0.0
  0
VERTEX
  5
A2A
  8
035
 10
340.259318
 20
226.794356
 30
0.0
 42
0.058115
  0
VERTEX
  5
A2B
  8
035
 10
340.254707
 20
226.754818
 30
0.0
 42
0.199105
  0
SEQEND
  5
A2C
  8
035
  0
POLYLINE
  5
7FB
  8
035
 66
     1
 10
0.0
 20
0.0
 30
0.0
  0
VERTEX
  5
A2D
  8
035
 10
338.568201
 20
226.587967
 30
0.0
 42
0.053304
  0
VERTEX
  5
A2E
  8
035
 10
338.561992
 20
226.529884
 30
0.0
 42
0.242955
  0
SEQEND
  5
A2F
  8
035
  0
LINE
  5
7FC
  8
035
 10
338.937636
 20
228.254378
 30
0.0
 11
340.582998
 21
228.254378
 31
0.0
  0
LINE
  5
7FD
  8
035
 10
340.259318
 20
226.794356
 30
0.0
 11
340.582998
 21
228.254378
 31
0.0
  0
LINE
  5
7FE
  8
035
 10
338.568201
 20
226.587967
 30
0.0
 11
338.937636
 21
228.254378
 31
0.0
  0
LINE
  5
7FF
  8
035
 10
338.061527
 20
227.684545
 30
0.0
 11
338.187856
 21
228.254378
 31
0.0
  0
LINE
  5
800
  8
035
 10
337.655945
 20
225.855082
 30
0.0
 11
337.782273
 21
226.424915
 31
0.0
  0
LINE
  5
801
  8
035
 10
337.633802
 20
226.769814
 30
0.0
 11
337.760131
 21
227.339647
 31
0.0
  0
LINE
  5
802
  8
05
 10
234.890726
 20
249.855082
 30
0.0
 11
217.490728
 21
249.855082
 31
0.0
  0
LINE
  5
803
  8
035
 62
     3
 10
211.41286
 20
245.595082
 30
0.0
 11
217.490728
 21
245.595082
 31
0.0
  0
POLYLINE
  5
804
  8
035
 62
     3
 66
     1
 10
0.0
 20
0.0
 30
0.0
  0
VERTEX
  5
A30
  8
035
 62
     3
 10
211.129077
 20
245.700082
 30
0.0
 42
0.213592
  0
VERTEX
  5
A31
  8
035
 62
     3
 10
211.143918
 20
245.666923
 30
0.0
 42
0.09395
  0
VERTEX
  5
A32
  8
035
 62
     3
 10
211.212195
 20
245.625836
 30
0.0
 42
0.050619
  0
VERTEX
  5
A33
  8
035
 62
     3
 10
211.296895
 20
245.603917
 30
0.0
 42
0.038037
  0
VERTEX
  5
A34
  8
035
 62
     3
 10
211.41286
 20
245.595082
 30
0.0
 42
0.038037
  0
SEQEND
  5
A35
  8
035
 62
     3
  0
POLYLINE
  5
805
  8
035
 62
     3
 66
     1
 10
0.0
 20
0.0
 30
0.0
  0
VERTEX
  5
A36
  8
035
 62
     3
 10
211.41286
 20
245.805082
 30
0.0
 42
0.038037
  0
VERTEX
  5
A37
  8
035
 62
     3
 10
211.296895
 20
245.796247
 30
0.0
 42
0.050619
  0
VERTEX
  5
A38
  8
035
 62
     3
 10
211.212195
 20
245.774328
 30
0.0
 42
0.09395
  0
VERTEX
  5
A39
  8
035
 62
     3
 10
211.143918
 20
245.733241
 30
0.0
 42
0.213592
  0
VERTEX
  5
A3A
  8
035
 62
     3
 10
211.129077
 20
245.700082
 30
0.0
 42
0.213592
  0
SEQEND
  5
A3B
  8
035
 62
     3
  0
LINE
  5
806
  8
035
 62
     3
 10
211.974257
 20
245.76148
 30
0.0
 11
212.778033
 21
245.595082
 31
0.0
  0
ARC
  5
807
  8
035
 62
     3
 10
211.548547
 20
243.705082
 30
0.0
 40
2.1
 50
78.303867
 51
90.0
  0
LINE
  5
808
  8
035
 62
     3
 10
217.085555
 20
243.477896
 30
0.0
 11
217.490728
 21
243.394017
 31
0.0
  0
ARC
  5
809
  8
05
 10
234.890726
 20
249.255082
 30
0.0
 40
0.6
 50
0.0
 51
90.0
  0
LINE
  5
80A
  8
BEM1
 10
314.957353
 20
257.353567
 30
0.0
 11
288.438139
 21
257.353567
 31
0.0
  0
SOLID
  5
80B
  8
BEM1
 10
311.457353
 20
274.043358
 30
0.0
 11
311.457353
 21
275.210024
 31
0.0
 12
307.957353
 22
274.626691
 32
0.0
 13
307.957353
 23
274.626691
 33
0.0
  0
ARC
  5
80C
  8
05
 10
315.757353
 20
249.553567
 30
0.0
 40
7.8
 50
62.465414
 51
214.346556
  0
LINE
  5
80D
  8
BEM1
 10
307.957353
 20
258.578497
 30
0.0
 11
307.957353
 21
275.426691
 31
0.0
  0
SOLID
  5
80E
  8
BEM1
 10
289.821473
 20
253.853567
 30
0.0
 11
288.654806
 21
253.853567
 31
0.0
 12
289.238139
 22
257.353567
 32
0.0
 13
289.238139
 23
257.353567
 33
0.0
  0
LINE
  5
80F
  8
BEM1
 10
307.957353
 20
250.353567
 30
0.0
 11
307.957353
 21
256.148802
 31
0.0
  0
LINE
  5
810
  8
BEM1
 10
306.238065
 20
249.553567
 30
0.0
 11
297.084965
 21
249.553567
 31
0.0
  0
SOLID
  5
811
  8
BEM1
 10
298.468298
 20
246.053567
 30
0.0
 11
297.301631
 21
246.053567
 31
0.0
 12
297.884965
 22
249.553567
 32
0.0
 13
297.884965
 23
249.553567
 33
0.0
  0
LINE
  5
812
  8
BEM1
 10
315.757353
 20
258.153567
 30
0.0
 11
315.757353
 21
268.039725
 31
0.0
  0
ARC
  5
813
  8
05
 10
327.684279
 20
272.431251
 30
0.0
 40
18.0
 50
242.465414
 51
288.676049
  0
LINE
  5
814
  8
MITTE
 10
315.757353
 20
256.274917
 30
0.0
 11
315.757353
 21
242.474917
 31
0.0
  0
CIRCLE
  5
815
  8
05
 10
315.757353
 20
249.553567
 30
0.0
 40
4.2
  0
LINE
  5
816
  8
SCHRAFFIERT
 10
314.857353
 20
249.553567
 30
0.0
 11
316.657353
 21
249.553567
 31
0.0
  0
LINE
  5
817
  8
SCHRAFFIERT
 10
314.857353
 20
249.553567
 30
0.0
 11
316.657353
 21
249.553567
 31
0.0
  0
LINE
  5
818
  8
MITTE
 10
321.757353
 20
249.553567
 30
0.0
 11
309.757353
 21
249.553567
 31
0.0
  0
CIRCLE
  5
819
  8
05
 10
315.757353
 20
249.553567
 30
0.0
 40
3.3
  0
LINE
  5
81A
  8
05
 10
333.86053
 20
247.848632
 30
0.0
 11
332.827284
 21
250.343107
 31
0.0
  0
ARC
  5
81B
  8
05
 10
333.728173
 20
249.736044
 30
0.0
 40
0.6
 50
111.428988
 51
202.5
  0
LINE
  5
81C
  8
05
 10
333.436156
 20
246.521348
 30
0.0
 11
331.995793
 21
249.998692
 31
0.0
  0
LINE
  5
81D
  8
05
 10
330.099141
 20
246.453661
 30
0.0
 11
328.955838
 21
248.433921
 31
0.0
  0
ARC
  5
81E
  8
05
 10
328.574839
 20
246.09383
 30
0.0
 40
1.5
 50
30.0
 51
122.755667
  0
ARC
  5
81F
  8
05
 10
328.800103
 20
245.703661
 30
0.0
 40
1.5
 50
302.796026
 51
30.0
  0
ARC
  5
820
  8
05
 10
345.455837
 20
219.855082
 30
0.0
 40
33.0
 50
112.499998
 51
119.999998
  0
ARC
  5
821
  8
05
 10
334.09014
 20
247.294304
 30
0.0
 40
0.6
 50
264.110395
 51
112.5
  0
ARC
  5
822
  8
05
 10
334.147542
 20
247.155722
 30
0.0
 40
0.75
 50
226.746295
 51
112.5
  0
LINE
  5
823
  8
035
 10
337.295038
 20
243.232985
 30
0.0
 11
336.86541
 21
244.35344
 31
0.0
  0
ARC
  5
824
  8
035
 10
345.455838
 20
219.855082
 30
0.0
 40
24.75
 50
107.44911
 51
110.646496
  0
ARC
  5
825
  8
05
 10
333.967005
 20
246.100639
 30
0.0
 40
0.6
 50
84.110395
 51
113.641106
  0
LINE
  5
826
  8
05
 10
334.491957
 20
246.324231
 30
0.0
 11
334.434555
 21
246.462813
 31
0.0
  0
SOLID
  5
827
  8
BEM1
 10
319.257353
 20
266.656391
 30
0.0
 11
319.257353
 21
267.823058
 31
0.0
 12
315.757353
 22
267.239725
 32
0.0
 13
315.757353
 23
267.239725
 33
0.0
  0
TEXT
  5
828
  8
BEM1
 62
     3
 10
326.482505
 20
268.706391
 30
0.0
 40
3.5
  1
19.80
 41
0.7
 51
15.0
  0
INSERT
  5
829
  8
BEM1
  2
3
 10
336.084266
 20
270.49745
 30
0.0
  0
LINE
  5
82A
  8
05
 10
354.605838
 20
244.13841
 30
0.0
 11
353.368674
 21
240.855082
 31
0.0
  0
ARC
  5
82B
  8
05
 10
345.455838
 20
219.855082
 30
0.0
 40
24.0
 50
52.11123
 51
69.353504
  0
LINE
  5
82C
  8
BEM1
 10
382.954323
 20
190.956597
 30
0.0
 11
382.954323
 21
275.426691
 31
0.0
  0
LINE
  5
82D
  8
BEM1
 10
375.154323
 20
198.756597
 30
0.0
 11
375.154323
 21
268.039725
 31
0.0
  0
LINE
  5
82E
  8
MITTE
 10
345.455838
 20
259.879591
 30
0.0
 11
345.455838
 21
177.883194
 31
0.0
  0
ARC
  5
82F
  8
05
 10
345.455838
 20
219.855082
 30
0.0
 40
37.498485
 50
28.587806
 51
90.0
  0
ARC
  5
830
  8
05
 10
345.455838
 20
219.855082
 30
0.0
 40
35.4
 50
30.25675
 51
49.74325
  0
LINE
  5
831
  8
MITTE
 10
375.154323
 20
196.156597
 30
0.0
 11
375.154323
 21
184.156597
 31
0.0
  0
LINE
  5
832
  8
05
 10
371.854323
 20
192.970847
 30
0.0
 11
371.854323
 21
195.256597
 31
0.0
  0
LINE
  5
833
  8
05
 10
370.354323
 20
195.256597
 30
0.0
 11
370.354323
 21
185.056597
 31
0.0
  0
ARC
  5
834
  8
05
 10
396.455838
 20
204.712883
 30
0.0
 40
18.0
 50
180.0
 51
214.346556
  0
LINE
  5
835
  8
MITTE
 10
381.154323
 20
190.156597
 30
0.0
 11
369.154323
 21
190.156597
 31
0.0
  0
ARC
  5
836
  8
05
 10
375.154323
 20
190.156597
 30
0.0
 40
3.3
 50
226.186908
 51
133.813061
  0
ARC
  5
837
  8
05
 10
375.154323
 20
190.156597
 30
0.0
 40
4.2
 50
218.825778
 51
141.174222
  0
LINE
  5
838
  8
05
 10
354.635838
 20
178.456597
 30
0.0
 11
359.135838
 21
178.456597
 31
0.0
  0
LINE
  5
839
  8
05
 10
355.235838
 20
177.856597
 30
0.0
 11
358.535838
 21
177.856597
 31
0.0
  0
LINE
  5
83A
  8
MITTE
 10
356.885838
 20
185.261898
 30
0.0
 11
356.885838
 21
175.239172
 31
0.0
  0
LINE
  5
83B
  8
05
 10
354.635838
 20
178.456597
 30
0.0
 11
355.235838
 21
177.856597
 31
0.0
  0
LINE
  5
83C
  8
05
 10
354.635838
 20
182.356597
 30
0.0
 11
354.635838
 21
178.456597
 31
0.0
  0
LINE
  5
83D
  8
05
 10
358.535838
 20
177.856597
 30
0.0
 11
359.135838
 21
178.456597
 31
0.0
  0
LINE
  5
83E
  8
05
 10
359.135838
 20
182.356597
 30
0.0
 11
359.135838
 21
178.456597
 31
0.0
  0
LINE
  5
83F
  8
05
 10
371.854323
 20
185.056597
 30
0.0
 11
370.354323
 21
185.056597
 31
0.0
  0
LINE
  5
840
  8
05
 10
371.854323
 20
187.342348
 30
0.0
 11
371.854323
 21
185.056597
 31
0.0
  0
ARC
  5
841
  8
05
 10
372.454323
 20
187.342348
 30
0.0
 40
0.6
 50
46.186939
 51
180.0
  0
ARC
  5
842
  8
05
 10
372.454323
 20
192.970847
 30
0.0
 40
0.6
 50
180.0
 51
313.813061
  0
LINE
  5
843
  8
05
 10
370.354323
 20
190.034456
 30
0.0
 11
370.354323
 21
190.023311
 31
0.0
  0
ARC
  5
844
  8
05
 10
375.154323
 20
190.156597
 30
0.0
 40
7.8
 50
270.0
 51
34.346556
  0
LINE
  5
845
  8
05
 10
377.663229
 20
239.059777
 30
0.0
 11
373.932362
 21
235.929208
 31
0.0
  0
LINE
  5
846
  8
05
 10
366.605838
 20
218.355082
 30
0.0
 11
364.805838
 21
216.555082
 31
0.0
  0
LINE
  5
847
  8
MITTE
 10
357.605838
 20
223.755082
 30
0.0
 11
357.605838
 21
215.955082
 31
0.0
  0
CIRCLE
  5
848
  8
035
 10
357.605838
 20
219.855082
 30
0.0
 40
3.57
  0
CIRCLE
  5
849
  8
035
 10
345.455838
 20
208.005082
 30
0.0
 40
3.57
  0
LINE
  5
84A
  8
05
 10
350.705838
 20
196.43634
 30
0.0
 11
350.705838
 21
200.805082
 31
0.0
  0
LINE
  5
84B
  8
05
 10
348.997363
 20
208.455082
 30
0.0
 11
352.055838
 21
208.455082
 31
0.0
  0
LINE
  5
84C
  8
05
 10
348.997363
 20
207.555082
 30
0.0
 11
352.055838
 21
207.555082
 31
0.0
  0
TEXT
  5
84D
  8
035
 10
343.646305
 20
212.736312
 30
0.0
 40
4.5
  1
3
  7
HELV
  0
LINE
  5
84E
  8
05
 10
350.855838
 20
208.455082
 30
0.0
 11
350.855838
 21
207.555082
 31
0.0
  0
LINE
  5
84F
  8
05
 10
352.055838
 20
208.455082
 30
0.0
 11
352.055838
 21
207.555082
 31
0.0
  0
LINE
  5
850
  8
05
 10
371.854323
 20
195.256597
 30
0.0
 11
370.354323
 21
195.256597
 31
0.0
  0
LINE
  5
851
  8
05
 10
368.87458
 20
214.605082
 30
0.0
 11
364.805838
 21
214.605082
 31
0.0
  0
TEXT
  5
852
  8
035
 10
359.958541
 20
211.647992
 30
0.0
 40
4.5
  1
2
  7
HELV
  0
LINE
  5
853
  8
05
 10
364.805838
 20
214.605082
 30
0.0
 11
364.805838
 21
216.555082
 31
0.0
  0
LINE
  5
854
  8
035
 10
349.202557
 20
225.855082
 30
0.0
 11
350.852073
 21
225.855082
 31
0.0
  0
LINE
  5
855
  8
035
 10
349.202557
 20
225.855082
 30
0.0
 11
349.734468
 21
228.254378
 31
0.0
  0
LINE
  5
856
  8
035
 10
344.486008
 20
228.254378
 30
0.0
 11
349.209622
 21
228.254378
 31
0.0
  0
LINE
  5
857
  8
035
 10
344.35303
 20
227.654554
 30
0.0
 11
345.85259
 21
227.654554
 31
0.0
  0
LINE
  5
858
  8
035
 10
344.35303
 20
227.654554
 30
0.0
 11
344.486008
 21
228.254378
 31
0.0
  0
LINE
  5
859
  8
035
 10
342.404127
 20
228.254378
 30
0.0
 11
344.049475
 21
228.254378
 31
0.0
  0
LINE
  5
85A
  8
035
 10
343.654207
 20
226.471439
 30
0.0
 11
344.049475
 21
228.254378
 31
0.0
  0
LINE
  5
85B
  8
035
 10
342.063202
 20
226.716561
 30
0.0
 11
342.404127
 21
228.254378
 31
0.0
  0
LINE
  5
85C
  8
035
 10
347.502106
 20
227.654554
 30
0.0
 11
349.076644
 21
227.654554
 31
0.0
  0
LINE
  5
85D
  8
035
 10
349.076644
 20
227.654554
 30
0.0
 11
349.209622
 21
228.254378
 31
0.0
  0
LINE
  5
85E
  8
035
 10
347.103173
 20
225.855082
 30
0.0
 11
347.502106
 21
227.654554
 31
0.0
  0
LINE
  5
85F
  8
035
 10
345.453657
 20
225.855082
 30
0.0
 11
347.103173
 21
225.855082
 31
0.0
  0
LINE
  5
860
  8
035
 10
345.453657
 20
225.855082
 30
0.0
 11
345.85259
 21
227.654554
 31
0.0
  0
LINE
  5
861
  8
05
 10
354.064313
 20
220.305082
 30
0.0
 11
351.005838
 21
220.305082
 31
0.0
  0
LINE
  5
862
  8
05
 10
354.064313
 20
219.405082
 30
0.0
 11
351.005838
 21
219.405082
 31
0.0
  0
LINE
  5
863
  8
05
 10
352.205838
 20
220.305082
 30
0.0
 11
352.205838
 21
219.405082
 31
0.0
  0
LINE
  5
864
  8
05
 10
351.005838
 20
220.305082
 30
0.0
 11
351.005838
 21
219.405082
 31
0.0
  0
LINE
  5
865
  8
035
 10
352.647746
 20
225.855082
 30
0.0
 11
354.317706
 21
225.855082
 31
0.0
  0
LINE
  5
866
  8
035
 10
349.734468
 20
228.254378
 30
0.0
 11
353.944022
 21
228.254378
 31
0.0
  0
POLYLINE
  5
867
  8
035
 66
     1
 10
0.0
 20
0.0
 30
0.0
  0
VERTEX
  5
A3C
  8
035
 10
352.620133
 20
226.485754
 30
0.0
 42
0.082344
  0
VERTEX
  5
A3D
  8
035
 10
352.61731
 20
226.51462
 30
0.0
 42
0.153048
  0
VERTEX
  5
A3E
  8
035
 10
352.588892
 20
226.559394
 30
0.0
 42
0.106894
  0
VERTEX
  5
A3F
  8
035
 10
352.522632
 20
226.594612
 30
0.0
 42
0.067948
  0
VERTEX
  5
A40
  8
035
 10
352.449825
 20
226.604862
 30
0.0
 42
0.060506
  0
SEQEND
  5
A41
  8
035
  0
POLYLINE
  5
868
  8
035
 66
     1
 10
0.0
 20
0.0
 30
0.0
  0
VERTEX
  5
A42
  8
035
 10
352.426381
 20
227.174695
 30
0.0
 42
0.065514
  0
VERTEX
  5
A43
  8
035
 10
352.600666
 20
227.198245
 30
0.0
 42
0.060566
  0
VERTEX
  5
A44
  8
035
 10
352.751444
 20
227.258955
 30
0.0
 42
0.073981
  0
VERTEX
  5
A45
  8
035
 10
352.857451
 20
227.339786
 30
0.0
 42
0.106894
  0
VERTEX
  5
A46
  8
035
 10
352.92374
 20
227.445835
 30
0.0
 42
0.153048
  0
VERTEX
  5
A47
  8
035
 10
352.927446
 20
227.534142
 30
0.0
 42
0.153048
  0
VERTEX
  5
A48
  8
035
 10
352.880083
 20
227.608765
 30
0.0
 42
0.106894
  0
VERTEX
  5
A49
  8
035
 10
352.76965
 20
227.667462
 30
0.0
 42
0.067948
  0
VERTEX
  5
A4A
  8
035
 10
352.648305
 20
227.684545
 30
0.0
 42
0.060506
  0
SEQEND
  5
A4B
  8
035
  0
ARC
  5
869
  8
035
 10
352.950961
 20
226.051105
 30
0.0
 40
0.361059
 50
180.772005
 51
212.881875
  0
LINE
  5
86A
  8
035
 10
351.257655
 20
227.684545
 30
0.0
 11
352.648305
 21
227.684545
 31
0.0
  0
LINE
  5
86B
  8
035
 10
351.144624
 20
227.174695
 30
0.0
 11
351.257655
 21
227.684545
 31
0.0
  0
LINE
  5
86C
  8
035
 10
351.144624
 20
227.174695
 30
0.0
 11
352.426381
 21
227.174695
 31
0.0
  0
LINE
  5
86D
  8
035
 10
351.018295
 20
226.604862
 30
0.0
 11
352.449825
 21
226.604862
 31
0.0
  0
LINE
  5
86E
  8
035
 10
352.589934
 20
226.04624
 30
0.0
 11
352.620133
 21
226.485754
 31
0.0
  0
LINE
  5
86F
  8
035
 10
350.852073
 20
225.855082
 30
0.0
 11
351.018295
 21
226.604862
 31
0.0
  0
LINE
  5
870
  8
035
 10
355.582753
 20
228.254378
 30
0.0
 11
357.232269
 21
228.254378
 31
0.0
  0
LINE
  5
871
  8
035
 10
355.050841
 20
225.855082
 30
0.0
 11
356.700358
 21
225.855082
 31
0.0
  0
LINE
  5
872
  8
035
 10
356.700358
 20
225.855082
 30
0.0
 11
357.232269
 21
228.254378
 31
0.0
  0
LINE
  5
873
  8
035
 10
355.050841
 20
225.855082
 30
0.0
 11
355.582753
 21
228.254378
 31
0.0
  0
POLYLINE
  5
874
  8
035
 66
     1
 10
0.0
 20
0.0
 30
0.0
  0
VERTEX
  5
A4C
  8
035
 10
354.141579
 20
226.929981
 30
0.0
 42
0.015369
  0
VERTEX
  5
A4D
  8
035
 10
354.251364
 20
226.986167
 30
0.0
 42
0.073981
  0
VERTEX
  5
A4E
  8
035
 10
354.567251
 20
227.227035
 30
0.0
 42
0.106894
  0
VERTEX
  5
A4F
  8
035
 10
354.764786
 20
227.543049
 30
0.0
 42
0.153048
  0
VERTEX
  5
A50
  8
035
 10
354.775829
 20
227.806194
 30
0.0
 42
0.153048
  0
VERTEX
  5
A51
  8
035
 10
354.634694
 20
228.028562
 30
0.0
 42
0.106894
  0
VERTEX
  5
A52
  8
035
 10
354.305616
 20
228.20347
 30
0.0
 42
0.067948
  0
VERTEX
  5
A53
  8
035
 10
353.944022
 20
228.254378
 30
0.0
 42
0.060566
  0
SEQEND
  5
A54
  8
035
  0
POLYLINE
  5
875
  8
035
 66
     1
 10
0.0
 20
0.0
 30
0.0
  0
VERTEX
  5
A55
  8
035
 10
354.282712
 20
226.664905
 30
0.0
 42
0.084831
  0
VERTEX
  5
A56
  8
035
 10
354.274144
 20
226.757218
 30
0.0
 42
0.153048
  0
VERTEX
  5
A57
  8
035
 10
354.185935
 20
226.896198
 30
0.0
 42
0.025315
  0
VERTEX
  5
A58
  8
035
 10
354.141579
 20
226.929981
 30
0.0
 42
0.067948
  0
SEQEND
  5
A59
  8
035
  0
ARC
  5
876
  8
035
 10
354.617618
 20
226.080016
 30
0.0
 40
0.37489
 50
176.0
 51
216.869898
  0
LINE
  5
877
  8
035
 10
354.243641
 20
226.106167
 30
0.0
 11
354.282712
 21
226.664905
 31
0.0
  0
LINE
  5
878
  8
035
 62
     4
 10
347.827522
 20
235.045716
 30
0.0
 11
348.330686
 21
235.548881
 31
0.0
  0
LINE
  5
879
  8
035
 62
     4
 10
347.819523
 20
235.492287
 30
0.0
 11
348.260943
 21
235.933706
 31
0.0
  0
ARC
  5
87A
  8
035
 62
     4
 10
345.455838
 20
235.226595
 30
0.0
 40
2.378571
 50
340.726108
 51
35.294203
  0
LINE
  5
87B
  8
035
 62
     4
 10
345.198695
 20
235.144301
 30
0.0
 11
345.712981
 21
235.658587
 31
0.0
  0
INSERT
  5
87C
  8
035
 62
     4
  2
*X4
 10
276.199648
 20
-23.864439
 30
0.0
 41
1.285714
 42
1.285714
 43
1.285714
  0
LINE
  5
88D
  8
035
 62
     4
 10
345.712981
 20
232.578055
 30
0.0
 11
345.712981
 21
237.443287
 31
0.0
  0
LINE
  5
88E
  8
035
 62
     4
 10
345.198695
 20
232.578055
 30
0.0
 11
345.198695
 21
237.443287
 31
0.0
  0
ARC
  5
88F
  8
035
 62
     4
 10
345.455838
 20
235.226595
 30
0.0
 40
2.378571
 50
160.726108
 51
217.672445
  0
ARC
  5
890
  8
035
 62
     4
 10
345.455838
 20
235.226595
 30
0.0
 40
2.892857
 50
150.577083
 51
217.724479
  0
ARC
  5
891
  8
035
 62
     4
 10
345.455838
 20
235.226595
 30
0.0
 40
2.892857
 50
330.577083
 51
35.346236
  0
CIRCLE
  5
892
  8
035
 62
     4
 10
345.455838
 20
235.226595
 30
0.0
 40
3.857143
  0
LINE
  5
893
  8
035
 62
     4
 10
345.198695
 20
234.689733
 30
0.0
 11
345.712981
 21
235.204018
 31
0.0
  0
ARC
  5
894
  8
035
 62
     4
 10
345.442981
 20
232.578055
 30
0.0
 40
0.244286
 50
180.0
 51
269.721864
  0
LINE
  5
895
  8
035
 62
     4
 10
345.233759
 20
232.451953
 30
0.0
 11
345.712981
 21
232.931175
 31
0.0
  0
LINE
  5
896
  8
035
 62
     4
 10
345.198695
 20
232.871458
 30
0.0
 11
345.712981
 21
233.385744
 31
0.0
  0
LINE
  5
897
  8
035
 62
     4
 10
345.198695
 20
233.326027
 30
0.0
 11
345.712981
 21
233.840312
 31
0.0
  0
LINE
  5
898
  8
035
 62
     4
 10
345.198695
 20
233.780595
 30
0.0
 11
345.712981
 21
234.294881
 31
0.0
  0
LINE
  5
899
  8
035
 62
     4
 10
345.198695
 20
234.235164
 30
0.0
 11
345.712981
 21
234.74945
 31
0.0
  0
ARC
  5
89A
  8
035
 62
     4
 10
343.3798
 20
233.623645
 30
0.0
 40
0.244286
 50
313.016562
 51
37.672445
  0
ARC
  5
89B
  8
035
 62
     4
 10
343.360918
 20
233.606027
 30
0.0
 40
0.244286
 50
217.724479
 51
313.016562
  0
LINE
  5
89C
  8
035
 62
     4
 10
343.546454
 20
233.445034
 30
0.0
 11
343.527572
 21
233.427416
 31
0.0
  0
LINE
  5
89D
  8
035
 62
     4
 10
347.713122
 20
234.476747
 30
0.0
 11
348.346343
 21
235.109969
 31
0.0
  0
LINE
  5
89E
  8
035
 62
     4
 10
346.613745
 20
234.286508
 30
0.0
 11
346.991782
 21
234.664545
 31
0.0
  0
LINE
  5
89F
  8
035
 62
     4
 10
346.329559
 20
234.45689
 30
0.0
 11
346.699946
 21
234.827278
 31
0.0
  0
ARC
  5
8A0
  8
035
 62
     4
 10
347.579729
 20
234.483905
 30
0.0
 40
0.128571
 50
240.855218
 51
340.726108
  0
ARC
  5
8A1
  8
035
 62
     4
 10
346.517596
 20
234.649262
 30
0.0
 40
0.244286
 50
60.855218
 51
151.46476
  0
ARC
  5
8A2
  8
035
 62
     4
 10
346.505073
 20
234.626803
 30
0.0
 40
0.244286
 50
150.245677
 51
240.855218
  0
LINE
  5
8A3
  8
035
 62
     4
 10
346.636568
 20
234.862619
 30
0.0
 11
347.517112
 21
234.371612
 31
0.0
  0
ARC
  5
8A4
  8
035
 62
     4
 10
345.455838
 20
235.226595
 30
0.0
 40
0.964286
 50
330.245677
 51
331.46476
  0
LINE
  5
8A5
  8
035
 62
     4
 10
347.838846
 20
233.693334
 30
0.0
 11
348.005598
 21
233.860086
 31
0.0
  0
ARC
  5
8A6
  8
035
 62
     4
 10
347.762789
 20
233.925479
 30
0.0
 40
0.244286
 50
240.855218
 51
330.577083
  0
ARC
  5
8A7
  8
035
 62
     4
 10
345.455838
 20
235.226595
 30
0.0
 40
2.892857
 50
269.721864
 51
270.278136
  0
ARC
  5
8A8
  8
035
 62
     4
 10
345.468695
 20
232.578055
 30
0.0
 40
0.244286
 50
270.278136
 51
0.0
  0
LINE
  5
8A9
  8
035
 62
     4
 10
347.489253
 20
233.79831
 30
0.0
 11
348.276857
 21
234.585914
 31
0.0
  0
LINE
  5
8AA
  8
035
 62
     4
 10
347.197417
 20
233.961042
 30
0.0
 11
347.592327
 21
234.355953
 31
0.0
  0
LINE
  5
8AB
  8
035
 62
     4
 10
346.905581
 20
234.123775
 30
0.0
 11
347.283618
 21
234.501812
 31
0.0
  0
LINE
  5
8AC
  8
035
 62
     4
 10
346.386101
 20
234.413446
 30
0.0
 11
347.643818
 21
233.712121
 31
0.0
  0
LINE
  5
8AD
  8
035
 62
     4
 10
344.855014
 20
237.528032
 30
0.0
 11
345.446419
 21
238.119437
 31
0.0
  0
LINE
  5
8AE
  8
035
 62
     4
 10
345.198695
 20
237.417144
 30
0.0
 11
345.87105
 21
238.089499
 31
0.0
  0
LINE
  5
8AF
  8
035
 62
     4
 10
345.198695
 20
236.962576
 30
0.0
 11
345.719339
 21
237.48322
 31
0.0
  0
LINE
  5
8B0
  8
035
 62
     4
 10
345.198695
 20
236.508007
 30
0.0
 11
345.712981
 21
237.022293
 31
0.0
  0
LINE
  5
8B1
  8
035
 62
     4
 10
345.198695
 20
236.053438
 30
0.0
 11
345.712981
 21
236.567724
 31
0.0
  0
LINE
  5
8B2
  8
035
 62
     4
 10
345.198695
 20
235.59887
 30
0.0
 11
345.712981
 21
236.113156
 31
0.0
  0
ARC
  5
8B3
  8
035
 62
     4
 10
345.455838
 20
235.226595
 30
0.0
 40
2.892857
 50
58.909008
 51
126.716102
  0
LINE
  5
8B4
  8
035
 62
     4
 10
343.65538
 20
237.237536
 30
0.0
 11
344.293524
 21
237.87568
 31
0.0
  0
LINE
  5
8B5
  8
035
 62
     4
 10
343.973471
 20
237.101058
 30
0.0
 11
344.946711
 21
238.074298
 31
0.0
  0
ARC
  5
8B6
  8
035
 62
     4
 10
343.331947
 20
235.969285
 30
0.0
 40
0.128571
 50
60.855218
 51
160.726108
  0
ARC
  5
8B7
  8
035
 62
     4
 10
345.070123
 20
237.443287
 30
0.0
 40
0.128571
 50
0.0
 51
99.87089
  0
ARC
  5
8B8
  8
035
 62
     4
 10
343.889671
 20
237.330521
 30
0.0
 40
0.244286
 50
222.008185
 51
306.664068
  0
ARC
  5
8B9
  8
035
 62
     4
 10
343.872388
 20
237.34971
 30
0.0
 40
0.244286
 50
126.716102
 51
222.008185
  0
ARC
  5
8BA
  8
035
 62
     4
 10
344.406603
 20
235.826387
 30
0.0
 40
0.244286
 50
330.245677
 51
60.855218
  0
ARC
  5
8BB
  8
035
 62
     4
 10
344.394079
 20
235.803929
 30
0.0
 40
0.244286
 50
240.855218
 51
331.46476
  0
ARC
  5
8BC
  8
035
 62
     4
 10
343.148886
 20
236.527712
 30
0.0
 40
0.244286
 50
60.855218
 51
150.577083
  0
LINE
  5
8BD
  8
035
 62
     4
 10
343.267858
 20
236.741069
 30
0.0
 11
344.525574
 21
236.039745
 31
0.0
  0
LINE
  5
8BE
  8
035
 62
     4
 10
343.394564
 20
236.081578
 30
0.0
 11
344.275108
 21
235.590572
 31
0.0
  0
ARC
  5
8BF
  8
035
 62
     4
 10
345.455838
 20
235.226595
 30
0.0
 40
2.378571
 50
99.87089
 51
126.664068
  0
ARC
  5
8C0
  8
035
 62
     4
 10
345.455838
 20
235.226595
 30
0.0
 40
0.964286
 50
150.245677
 51
151.46476
  0
LINE
  5
8C1
  8
035
 62
     4
 10
343.708155
 20
237.167036
 30
0.0
 11
343.690872
 21
237.186225
 31
0.0
  0
LINE
  5
8C2
  8
035
 62
     4
 10
347.464325
 20
236.500794
 30
0.0
 11
347.835323
 21
236.871792
 31
0.0
  0
LINE
  5
8C3
  8
035
 62
     4
 10
347.623624
 20
236.205525
 30
0.0
 11
348.007552
 21
236.589452
 31
0.0
  0
LINE
  5
8C4
  8
035
 62
     4
 10
347.745062
 20
235.872393
 30
0.0
 11
348.15081
 21
236.278141
 31
0.0
  0
LINE
  5
8C5
  8
035
 62
     4
 10
345.801619
 20
237.5655
 30
0.0
 11
346.245662
 21
238.009543
 31
0.0
  0
LINE
  5
8C6
  8
035
 62
     4
 10
346.182225
 20
237.491537
 30
0.0
 11
346.581956
 21
237.891268
 31
0.0
  0
LINE
  5
8C7
  8
035
 62
     4
 10
346.506027
 20
237.360771
 30
0.0
 11
346.886294
 21
237.741037
 31
0.0
  0
LINE
  5
8C8
  8
035
 62
     4
 10
346.830455
 20
237.23063
 30
0.0
 11
347.066195
 21
237.46637
 31
0.0
  0
ARC
  5
8C9
  8
035
 62
     4
 10
345.841552
 20
237.443287
 30
0.0
 40
0.128571
 50
80.12911
 51
180.0
  0
ARC
  5
8CA
  8
035
 62
     4
 10
347.616201
 20
236.758836
 30
0.0
 40
0.244286
 50
35.346236
 51
130.63832
  0
ARC
  5
8CB
  8
035
 62
     4
 10
347.596603
 20
236.742017
 30
0.0
 40
0.244286
 50
130.63832
 51
215.294203
  0
ARC
  5
8CC
  8
035
 62
     4
 10
346.808237
 20
237.473903
 30
0.0
 40
0.244286
 50
238.961041
 51
323.616924
  0
ARC
  5
8CD
  8
035
 62
     4
 10
346.823557
 20
237.494695
 30
0.0
 40
0.244286
 50
323.616924
 51
58.909008
  0
ARC
  5
8CE
  8
035
 62
     4
 10
345.455838
 20
235.226595
 30
0.0
 40
2.378571
 50
58.961019
 51
80.12911
  0
LINE
  5
8CF
  8
035
 62
     4
 10
347.437505
 20
236.927389
 30
0.0
 11
347.457102
 21
236.944209
 31
0.0
  0
LINE
  5
8D0
  8
035
 62
     4
 10
347.004904
 20
237.328998
 30
0.0
 11
347.020223
 21
237.349789
 31
0.0
  0
LINE
  5
8D1
  8
05
 10
368.87458
 20
225.105082
 30
0.0
 11
364.805838
 21
225.105082
 31
0.0
  0
LINE
  5
8D2
  8
05
 10
366.605838
 20
221.355082
 30
0.0
 11
364.805838
 21
223.155082
 31
0.0
  0
LINE
  5
8D3
  8
05
 10
364.805838
 20
223.155082
 30
0.0
 11
364.805838
 21
225.105082
 31
0.0
  0
LINE
  5
8D4
  8
05
 10
361.147363
 20
220.305082
 30
0.0
 11
364.205838
 21
220.305082
 31
0.0
  0
LINE
  5
8D5
  8
05
 10
361.147363
 20
219.405082
 30
0.0
 11
364.205838
 21
219.405082
 31
0.0
  0
LINE
  5
8D6
  8
05
 10
363.005838
 20
220.305082
 30
0.0
 11
363.005838
 21
219.405082
 31
0.0
  0
LINE
  5
8D7
  8
05
 10
364.205838
 20
220.305082
 30
0.0
 11
364.205838
 21
219.405082
 31
0.0
  0
LINE
  5
8D8
  8
035
 10
360.974104
 20
225.855082
 30
0.0
 11
363.223444
 21
225.855082
 31
0.0
  0
LINE
  5
8D9
  8
035
 10
361.669944
 20
227.42962
 30
0.0
 11
363.605399
 21
228.254378
 31
0.0
  0
LINE
  5
8DA
  8
035
 10
361.669944
 20
227.42962
 30
0.0
 11
363.223444
 21
225.855082
 31
0.0
  0
LINE
  5
8DB
  8
035
 10
361.506015
 20
228.254378
 30
0.0
 11
363.605399
 21
228.254378
 31
0.0
  0
LINE
  5
8DC
  8
035
 10
359.60161
 20
227.442852
 30
0.0
 11
359.781521
 21
228.254378
 31
0.0
  0
LINE
  5
8DD
  8
035
 10
360.086389
 20
226.754818
 30
0.0
 11
360.974104
 21
225.855082
 31
0.0
  0
LINE
  5
8DE
  8
035
 10
359.60161
 20
227.442852
 30
0.0
 11
361.506015
 21
228.254378
 31
0.0
  0
LINE
  5
8DF
  8
035
 10
359.382587
 20
226.454906
 30
0.0
 11
360.086389
 21
226.754818
 31
0.0
  0
LINE
  5
8E0
  8
035
 10
358.206983
 20
228.254378
 30
0.0
 11
359.781521
 21
228.254378
 31
0.0
  0
LINE
  5
8E1
  8
035
 10
359.24961
 20
225.855082
 30
0.0
 11
359.382587
 21
226.454906
 31
0.0
  0
LINE
  5
8E2
  8
035
 10
357.675072
 20
225.855082
 30
0.0
 11
359.24961
 21
225.855082
 31
0.0
  0
LINE
  5
8E3
  8
035
 10
357.675072
 20
225.855082
 30
0.0
 11
358.206983
 21
228.254378
 31
0.0
  0
LINE
  5
8E4
  8
05
 10
366.605838
 20
221.355082
 30
0.0
 11
366.605838
 21
218.355082
 31
0.0
  0
ARC
  5
8E5
  8
05
 10
362.002136
 20
236.401381
 30
0.0
 40
3.0
 50
322.958832
 51
127.041168
  0
LINE
  5
8E6
  8
05
 10
380.705838
 20
217.605082
 30
0.0
 11
380.705838
 21
221.505082
 31
0.0
  0
LINE
  5
8E7
  8
05
 10
380.705838
 20
217.605082
 30
0.0
 11
381.455838
 21
218.355082
 31
0.0
  0
LINE
  5
8E8
  8
05
 10
378.455838
 20
204.712883
 30
0.0
 11
378.455838
 21
237.511191
 31
0.0
  0
LINE
  5
8E9
  8
05
 10
378.455838
 20
217.605082
 30
0.0
 11
380.705838
 21
217.605082
 31
0.0
  0
LINE
  5
8EA
  8
05
 10
378.455838
 20
221.505082
 30
0.0
 11
381.455838
 21
221.505082
 31
0.0
  0
LINE
  5
8EB
  8
05
 10
380.705838
 20
218.325376
 30
0.0
 11
378.455838
 21
218.325376
 31
0.0
  0
LINE
  5
8EC
  8
05
 10
381.455838
 20
218.355082
 30
0.0
 11
381.455838
 21
221.505082
 31
0.0
  0
LINE
  5
8ED
  8
05
 10
381.455838
 20
218.655082
 30
0.0
 11
380.705838
 21
218.325376
 31
0.0
  0
ARC
  5
8EE
  8
05
 10
377.855838
 20
237.511191
 30
0.0
 40
0.6
 50
0.0
 51
28.587806
  0
SOLID
  5
8EF
  8
BEM1
 10
371.654323
 20
266.656391
 30
0.0
 11
371.654323
 21
267.823058
 31
0.0
 12
375.154323
 22
267.239725
 32
0.0
 13
375.154323
 23
267.239725
 33
0.0
  0
LINE
  5
8F0
  8
05
 10
357.47552
 20
246.521348
 30
0.0
 11
358.915883
 21
249.998692
 31
0.0
  0
LINE
  5
8F1
  8
05
 10
357.051146
 20
247.848632
 30
0.0
 11
358.084391
 21
250.343107
 31
0.0
  0
ARC
  5
8F2
  8
05
 10
357.183502
 20
249.736044
 30
0.0
 40
0.6
 50
337.5
 51
68.571012
  0
ARC
  5
8F3
  8
05
 10
356.821536
 20
247.294304
 30
0.0
 40
0.6
 50
67.5
 51
275.889605
  0
ARC
  5
8F4
  8
05
 10
356.764133
 20
247.155722
 30
0.0
 40
0.75
 50
67.5
 51
313.253705
  0
ARC
  5
8F5
  8
035
 10
345.455838
 20
219.855082
 30
0.0
 40
24.75
 50
69.353504
 51
72.494437
  0
ARC
  5
8F6
  8
05
 10
356.94467
 20
246.100639
 30
0.0
 40
0.6
 50
66.358894
 51
95.889605
  0
LINE
  5
8F7
  8
05
 10
356.419718
 20
246.324231
 30
0.0
 11
356.477121
 21
246.462813
 31
0.0
  0
LINE
  5
8F8
  8
035
 10
354.022538
 20
244.348752
 30
0.0
 11
353.612648
 21
243.222345
 31
0.0
  0
LINE
  5
8F9
  8
05
 10
360.812534
 20
246.453661
 30
0.0
 11
361.955838
 21
248.433921
 31
0.0
  0
ARC
  5
8FA
  8
05
 10
362.336837
 20
246.09383
 30
0.0
 40
1.5
 50
57.244333
 51
150.0
  0
ARC
  5
8FB
  8
05
 10
362.111572
 20
245.703661
 30
0.0
 40
1.5
 50
150.0
 51
237.203974
  0
ARC
  5
8FC
  8
05
 10
345.455839
 20
219.855082
 30
0.0
 40
33.0
 50
60.000002
 51
67.500002
  0
LINE
  5
8FD
  8
05
 10
369.961525
 20
248.23831
 30
0.0
 11
366.230659
 21
245.107742
 31
0.0
  0
TEXT
  5
8FE
  8
BEM1
 62
     3
 10
343.907621
 20
268.706391
 30
0.0
 40
3.5
  1
[0.780"   ]
 41
0.7
 51
15.0
  0
TEXT
  5
8FF
  8
SCHRAFFIERT
 10
356.651113
 20
269.312463
 30
0.0
 40
2.5
  1
%%p0.004
 41
0.7
 51
15.0
  0
SOLID
  5
900
  8
BEM1
 10
379.454323
 20
274.043358
 30
0.0
 11
379.454323
 21
275.210024
 31
0.0
 12
382.954323
 22
274.626691
 32
0.0
 13
382.954323
 23
274.626691
 33
0.0
  0
ENDSEC
  0
EOF
