999
DXF file: st-gns50.dxf
999
Pro/ENGINEER 2011310 by Parametric Technology Corporation
  0
SECTION
  2
HEADER
  9
$ACADVER
  1
AC1018
  9
$DWGCODEPAGE
  3
ANSI_1252
  9
$EXTMAX
 10
210.0
 20
297.0
 30
0.0
  9
$EXTMIN
 10
0.0
 20
0.0
 30
0.0
  9
$LIMMIN
 10
0.0
 20
0.0
  9
$LIMMAX
 10
210.0
 20
297.0
  9
$VIEWCTR
 10
105.0
 20
148.5
  9
$VIEWSIZE
 40
297.0
  9
$CLAYER
  8
0
  9
$LTSCALE
 40
19.36
  9
$CELTYPE
  6
BYLAYER
  9
$DIMSCALE
 40
1.0
  9
$DIMASZ
 40
3.5
  9
$DIMEXO
 40
2.2
  9
$DIMDLI
 40
13.376
  9
$DIMEXE
 40
6.336
  9
$DIMCEN
 40
3.168
  9
$DIMLFAC
 40
1.0
  9
$DIMBLK
  1
_FILLED
  9
$DIMTXT
 40
3.5
  9
$DIMTOL
 70
1
  9
$DIMLIM
 70
0
  9
$DIMTFAC
 40
1.0
  9
$DIMTP
 40
0.005
  9
$DIMTM
 40
0.005
  9
$PDMODE
 70
3
  9
$PDSIZE
 40
0.3125
  9
$HANDSEED
  5
5D7
  9
$TILEMODE
 70
1
  9
$MEASUREMENT
 70
1
  9
$INSUNITS
 70
4
  0
ENDSEC
  0
SECTION
  2
CLASSES
  0
CLASS
  1
ACDBDICTIONARYWDFLT
  2
AcDbDictionaryWithDefault
  3
AutoCAD 2000
 90
0
 91
1
280
0
281
0
  0
CLASS
  1
ACDBPLACEHOLDER
  2
AcDbPlaceHolder
  3
AutoCAD 2000
 90
0
 91
1
280
0
281
0
  0
CLASS
  1
LAYOUT
  2
AcDbLayout
  3
AutoCAD 2000
 90
0
 91
0
280
0
281
0
  0
CLASS
  1
TABLESTYLE
  2
AcDbTableStyle
  3
ObjectDBX Classes
 90
2047
 91
1
280
0
281
0
  0
CLASS
  1
ACAD_TABLE
  2
AcDbTable
  3
ObjectDBX Classes
 90
1025
 91
1
280
0
281
1
  0
ENDSEC
  0
SECTION
  2
TABLES
  0
TABLE
  2
VPORT
  5
8
100
AcDbSymbolTable
 70
2
  0
VPORT
  5
1F4
100
AcDbSymbolTableRecord
100
AcDbViewportTableRecord
  2
*ACTIVE
 70
0
 10
0.0
 20
0.0
 11
1.0
 21
1.0
 12
105.0
 22
148.5
 13
0.0
 23
0.0
 14
1.0
 24
1.0
 15
0.0
 25
0.0
 16
0.0
 26
0.0
 36
1.0
 17
0.0
 27
0.0
 37
0.0
 40
297.0
 41
0.7070707071
 42
50.0
 43
0.0
 44
0.0
 50
0.0
 51
0.0
 71
0
 72
100
 73
1
 74
1
 75
0
 76
0
 77
0
 78
0
  0
ENDTAB
  0
TABLE
  2
LTYPE
  5
5
100
AcDbSymbolTable
 70
6
  0
LTYPE
  5
14
100
AcDbSymbolTableRecord
100
AcDbLinetypeTableRecord
  2
BYBLOCK
 70
0
  3

 72
65
 73
0
 40
0.0
  0
LTYPE
  5
15
100
AcDbSymbolTableRecord
100
AcDbLinetypeTableRecord
  2
BYLAYER
 70
0
  3

 72
65
 73
0
 40
0.0
  0
LTYPE
  5
16
100
AcDbSymbolTableRecord
100
AcDbLinetypeTableRecord
  2
CONTINUOUS
 70
64
  3
Solid line
 72
65
 73
0
 40
0.0
  0
LTYPE
  5
1F5
100
AcDbSymbolTableRecord
100
AcDbLinetypeTableRecord
  2
CENTER
 70
64
  3
____ _ ____ _ ____ _ ____ _ ____ _ ____ _ ____
 72
65
 73
4
 40
0.6
 49
0.375
 74
0
 49
-0.075
 74
0
 49
0.075
 74
0
 49
-0.075
 74
0
  0
LTYPE
  5
1F6
100
AcDbSymbolTableRecord
100
AcDbLinetypeTableRecord
  2
HIDDEN
 70
64
  3
- - - - - - - - - - - - - - - - - - - -
 72
65
 73
2
 40
0.2
 49
0.1
 74
0
 49
-0.1
 74
0
  0
LTYPE
  5
1F7
100
AcDbSymbolTableRecord
100
AcDbLinetypeTableRecord
  2
PHANTOM
 70
64
  3
_____ _ _ _____ _ _ _____ _ _ _____
 72
65
 73
6
 40
0.8
 49
0.45
 74
0
 49
-0.05
 74
0
 49
0.1
 74
0
 49
-0.05
 74
0
 49
0.1
 74
0
 49
-0.05
 74
0
  0
LTYPE
  5
1F8
100
AcDbSymbolTableRecord
100
AcDbLinetypeTableRecord
  2
DOT
 70
64
  3
. . . . . . . . . . . . . . . . . . . .
 72
65
 73
2
 40
0.2
 49
0.1
 74
0
 49
-0.1
 74
0
  0
LTYPE
  5
1F9
100
AcDbSymbolTableRecord
100
AcDbLinetypeTableRecord
  2
DASHED
 70
64
  3
- - - - - - - - - - - - - - - - - - - -
 72
65
 73
2
 40
0.2
 49
0.1
 74
0
 49
-0.1
 74
0
  0
ENDTAB
  0
TABLE
  2
LAYER
  5
2
100
AcDbSymbolTable
 70
36
  0
LAYER
  5
10
100
AcDbSymbolTableRecord
100
AcDbLayerTableRecord
  2
0
 70
0
 62
7
  6
CONTINUOUS
370
-3
390
F
  0
LAYER
  5
1FA
100
AcDbSymbolTableRecord
100
AcDbLayerTableRecord
  2
DEFAULT_1
 70
0
 62
7
  6
CENTER
370
-3
390
F
  0
LAYER
  5
1FB
100
AcDbSymbolTableRecord
100
AcDbLayerTableRecord
  2
DEFAULT_2
 70
0
 62
8
  6
HIDDEN
370
-3
390
F
  0
LAYER
  5
1FC
100
AcDbSymbolTableRecord
100
AcDbLayerTableRecord
  2
DEFAULT_3
 70
0
 62
7
  6
PHANTOM
370
-3
390
F
  0
LAYER
  5
1FD
100
AcDbSymbolTableRecord
100
AcDbLayerTableRecord
  2
010
 70
0
 62
7
  6
CONTINUOUS
370
-3
390
F
  0
LAYER
  5
1FE
100
AcDbSymbolTableRecord
100
AcDbLayerTableRecord
  2
025
 70
0
 62
7
  6
CONTINUOUS
370
-3
390
F
  0
LAYER
  5
1FF
100
AcDbSymbolTableRecord
100
AcDbLayerTableRecord
  2
035
 70
0
 62
7
  6
CONTINUOUS
370
-3
390
F
  0
LAYER
  5
200
100
AcDbSymbolTableRecord
100
AcDbLayerTableRecord
  2
05
 70
0
 62
7
  6
CONTINUOUS
370
-3
390
F
  0
LAYER
  5
201
100
AcDbSymbolTableRecord
100
AcDbLayerTableRecord
  2
07
 70
0
 62
7
  6
CONTINUOUS
370
-3
390
F
  0
LAYER
  5
202
100
AcDbSymbolTableRecord
100
AcDbLayerTableRecord
  2
DEFPOINTS
 70
0
 62
7
  6
CONTINUOUS
290
0
370
-3
390
F
  0
LAYER
  5
203
100
AcDbSymbolTableRecord
100
AcDbLayerTableRecord
  2
MITTE
 70
0
 62
7
  6
CONTINUOUS
370
-3
390
F
  0
LAYER
  5
204
100
AcDbSymbolTableRecord
100
AcDbLayerTableRecord
  2
RAHMEN
 70
0
 62
7
  6
CONTINUOUS
370
-3
390
F
  0
LAYER
  5
205
100
AcDbSymbolTableRecord
100
AcDbLayerTableRecord
  2
SCHRAFFIERT
 70
0
 62
7
  6
CONTINUOUS
370
-3
390
F
  0
LAYER
  5
206
100
AcDbSymbolTableRecord
100
AcDbLayerTableRecord
  2
ZEICHNUNGSBEMASSUNGEN
 70
0
 62
7
  6
CONTINUOUS
370
-3
390
F
  0
ENDTAB
  0
TABLE
  2
STYLE
  5
3
100
AcDbSymbolTable
 70
1
  0
STYLE
  5
11
100
AcDbSymbolTableRecord
100
AcDbTextStyleTableRecord
  2
STANDARD
 70
0
 40
0.0
 41
0.7
 50
0.0
 71
0
 42
0.2
  3
txt
  4

  0
STYLE
  5
207
100
AcDbSymbolTableRecord
100
AcDbTextStyleTableRecord
  2
TEXTSTYLE_1
 70
0
 40
0.0
 41
0.8
 50
0.0
 71
0
 42
0.2
  3
gdt
  4

  0
STYLE
  5
208
100
AcDbSymbolTableRecord
100
AcDbTextStyleTableRecord
  2
TEXTSTYLE_2
 70
0
 40
0.0
 41
0.8
 50
0.0
 71
0
 42
0.2
  3
txt
  4

  0
STYLE
  5
209
100
AcDbSymbolTableRecord
100
AcDbTextStyleTableRecord
  2
TEXTSTYLE_3
 70
0
 40
0.0
 41
1.0
 50
0.0
 71
0
 42
0.2
  3
triumb.ttf
  4

  0
STYLE
  5
20A
100
AcDbSymbolTableRecord
100
AcDbTextStyleTableRecord
  2
TEXTSTYLE_4
 70
0
 40
0.0
 41
0.7
 50
0.0
 71
0
 42
0.2
  3
gdt
  4

  0
ENDTAB
  0
TABLE
  2
VIEW
  5
6
100
AcDbSymbolTable
 70
0
  0
ENDTAB
  0
TABLE
  2
UCS
  5
7
100
AcDbSymbolTable
 70
0
  0
ENDTAB
  0
TABLE
  2
APPID
  5
9
100
AcDbSymbolTable
 70
1
  0
APPID
  5
20B
100
AcDbSymbolTableRecord
100
AcDbRegAppTableRecord
  2
ACAD
 70
0
  0
ENDTAB
  0
TABLE
  2
BLOCK_RECORD
  5
1
100
AcDbSymbolTable
 70
0
  0
BLOCK_RECORD
  5
20C
100
AcDbSymbolTableRecord
100
AcDbBlockTableRecord
  2
*Model_Space
  0
BLOCK_RECORD
  5
20D
100
AcDbSymbolTableRecord
100
AcDbBlockTableRecord
  2
*Paper_Space
  0
BLOCK_RECORD
  5
20E
100
AcDbSymbolTableRecord
100
AcDbBlockTableRecord
  2
SYMBOL_3_BL0
  0
BLOCK_RECORD
  5
20F
100
AcDbSymbolTableRecord
100
AcDbBlockTableRecord
  2
*T1
  0
ENDTAB
  0
TABLE
  2
DIMSTYLE
  5
A
100
AcDbSymbolTable
 70
1
100
AcDbDimStyleTable
 71
0
  0
DIMSTYLE
105
210
100
AcDbSymbolTableRecord
100
AcDbDimStyleTableRecord
  2
STANDARD
 70
0
  3

  4

 40
1.0
 41
3.5
 42
0.0625
 43
0.38
 44
0.18
 45
0.0
 46
0.0
 47
0.005
 48
0.005
140
3.5
141
0.09
142
0.0
143
25.4
144
1.0
145
0.0
146
1.0
147
0.09
 71
1.0
 72
0.0
 73
0
 74
0
 75
0
 76
0
 77
1
 78
8
170
0
171
2
172
0
173
0
174
0
175
0
176
0
177
0
178
5
270
2
271
3
272
3
273
2
274
2
275
0
280
0
281
0
282
0
283
1
284
8
285
0
286
0
287
3
288
0
340
11
  0
ENDTAB
  0
ENDSEC
  0
SECTION
  2
BLOCKS
  0
BLOCK
  5
20
100
AcDbEntity
  8
0
100
AcDbBlockBegin
  2
*Model_Space
 70
0
 10
0.0
 20
0.0
 30
0.0
  3
*Model_Space
  1

  0
ENDBLK
  5
21
100
AcDbEntity
  8
0
100
AcDbBlockEnd
  0
BLOCK
  5
1C
100
AcDbEntity
  8
0
100
AcDbBlockBegin
  2
*Paper_Space
 70
0
 10
0.0
 20
0.0
 30
0.0
  3
*Paper_Space
  1

  0
ENDBLK
  5
1D
100
AcDbEntity
  8
0
100
AcDbBlockEnd
  0
BLOCK
  5
211
100
AcDbEntity
  8
0
100
AcDbBlockBegin
 62
2
  6
CONTINUOUS
  2
SYMBOL_3_BL0
 70
64
 10
98.0245925022
 20
9.2066660654
  3
SYMBOL_3_BL0
  1

  0
LINE
  5
212
100
AcDbEntity
  8
0
100
AcDbLine
 62
2
  6
CONTINUOUS
 10
77.5544360471
 20
8.0329859648
 11
75.0539855722
 21
9.5420032339
  0
LINE
  5
213
100
AcDbEntity
  8
0
100
AcDbLine
 62
2
  6
CONTINUOUS
 10
75.2018073047
 20
10.3803457168
 11
77.7022587796
 21
8.8713284476
  0
LINE
  5
214
100
AcDbEntity
  8
0
100
AcDbLine
 62
2
  6
CONTINUOUS
 10
107.6509415813
 20
8.0329859648
 11
106.0530264731
 21
8.9551632959
  0
LINE
  5
215
100
AcDbEntity
  8
0
100
AcDbLine
 62
2
  6
CONTINUOUS
 10
97.3194792782
 20
8.8713284476
 11
98.5968389666
 21
8.0329859648
  0
LINE
  5
216
100
AcDbEntity
  8
0
100
AcDbLine
 62
2
  6
CONTINUOUS
 10
100.5250274771
 20
8.0329859648
 11
99.2476677888
 21
8.8713284476
  0
LINE
  5
217
100
AcDbEntity
  8
0
100
AcDbLine
 62
2
  6
CONTINUOUS
 10
107.8554912111
 20
9.2904996891
 11
109.7467977884
 21
8.0329859648
  0
LINE
  5
218
100
AcDbEntity
  8
0
100
AcDbLine
 62
2
  6
CONTINUOUS
 10
115.1413990258
 20
10.1843850714
 11
115.471200429
 21
8.8651804588
  0
LINE
  5
219
100
AcDbEntity
  8
0
100
AcDbLine
 62
2
  6
CONTINUOUS
 10
115.5621982643
 20
8.5011891175
 11
115.6792490525
 21
8.0329859648
  0
LINE
  5
21A
100
AcDbEntity
  8
0
100
AcDbLine
 62
2
  6
CONTINUOUS
 10
116.611688365
 20
10.3803457168
 11
117.198528303
 21
8.0329859648
  0
LINE
  5
21B
100
AcDbEntity
  8
0
100
AcDbLine
 62
2
  6
CONTINUOUS
 10
73.1950539363
 20
8.0329859648
 11
73.6089561873
 21
10.3803457168
  0
LINE
  5
21C
100
AcDbEntity
  8
0
100
AcDbLine
 62
2
  6
CONTINUOUS
 10
75.0539855722
 20
9.5420032339
 11
74.7879050537
 21
8.0329859648
  0
LINE
  5
21D
100
AcDbEntity
  8
0
100
AcDbLine
 62
2
  6
CONTINUOUS
 10
77.7022587796
 20
8.8713284476
 11
77.9683382981
 21
10.3803457168
  0
LINE
  5
21E
100
AcDbEntity
  8
0
100
AcDbLine
 62
2
  6
CONTINUOUS
 10
79.5611904155
 20
10.3803457168
 11
79.1472871645
 21
8.0329859648
  0
LINE
  5
21F
100
AcDbEntity
  8
0
100
AcDbLine
 62
2
  6
CONTINUOUS
 10
80.4048008888
 20
8.0329859648
 11
80.8187041397
 21
10.3803457168
  0
LINE
  5
220
100
AcDbEntity
  8
0
100
AcDbLine
 62
2
  6
CONTINUOUS
 10
82.2390275694
 20
9.8773396271
 11
82.1651167031
 21
9.4581683856
  0
LINE
  5
221
100
AcDbEntity
  8
0
100
AcDbLine
 62
2
  6
CONTINUOUS
 10
82.0764228636
 20
8.9551632959
 11
82.0025119974
 21
8.5359920545
  0
LINE
  5
222
100
AcDbEntity
  8
0
100
AcDbLine
 62
2
  6
CONTINUOUS
 10
84.3448077585
 20
9.4581683856
 11
84.256113919
 21
8.9551632959
  0
LINE
  5
223
100
AcDbEntity
  8
0
100
AcDbLine
 62
2
  6
CONTINUOUS
 10
85.010417554
 20
10.3803457168
 11
84.9217247145
 21
9.8773396271
  0
LINE
  5
224
100
AcDbEntity
  8
0
100
AcDbLine
 62
2
  6
CONTINUOUS
 10
84.6852081425
 20
8.5359920545
 11
84.596515303
 21
8.0329859648
  0
LINE
  5
225
100
AcDbEntity
  8
0
100
AcDbLine
 62
2
  6
CONTINUOUS
 10
85.5789415251
 20
8.850126486
 11
85.8487610368
 21
10.3803457168
  0
LINE
  5
226
100
AcDbEntity
  8
0
100
AcDbLine
 62
2
  6
CONTINUOUS
 10
87.357777306
 20
10.3803457168
 11
87.1119527508
 21
8.9862012398
  0
LINE
  5
227
100
AcDbEntity
  8
0
100
AcDbLine
 62
2
  6
CONTINUOUS
 10
88.9423444384
 20
8.907020383
 11
89.2021319682
 21
10.3803457168
  0
LINE
  5
228
100
AcDbEntity
  8
0
100
AcDbLine
 62
2
  6
CONTINUOUS
 10
90.7111492373
 20
10.3803457168
 11
90.4145627741
 21
8.6983237607
  0
LINE
  5
229
100
AcDbEntity
  8
0
100
AcDbLine
 62
2
  6
CONTINUOUS
 10
91.1945133626
 20
9.7935057788
 11
91.2979891753
 21
10.3803457168
  0
LINE
  5
22A
100
AcDbEntity
  8
0
100
AcDbLine
 62
2
  6
CONTINUOUS
 10
92.0577658004
 20
8.0329859648
 11
92.3681932386
 21
9.7935057788
  0
LINE
  5
22B
100
AcDbEntity
  8
0
100
AcDbLine
 62
2
  6
CONTINUOUS
 10
94.0448782043
 20
9.7935057788
 11
93.7344517661
 21
8.0329859648
  0
LINE
  5
22C
100
AcDbEntity
  8
0
100
AcDbLine
 62
2
  6
CONTINUOUS
 10
95.322033893
 20
10.3803457168
 11
95.2185580803
 21
9.7935057788
  0
LINE
  5
22D
100
AcDbEntity
  8
0
100
AcDbLine
 62
2
  6
CONTINUOUS
 10
95.908873831
 20
10.3803457168
 11
95.49497158
 21
8.0329859648
  0
LINE
  5
22E
100
AcDbEntity
  8
0
100
AcDbLine
 62
2
  6
CONTINUOUS
 10
97.1716565457
 20
8.0329859648
 11
97.3194792782
 21
8.8713284476
  0
LINE
  5
22F
100
AcDbEntity
  8
0
100
AcDbLine
 62
2
  6
CONTINUOUS
 10
97.4081721177
 20
9.3743345373
 11
97.5116479304
 21
9.9611744753
  0
LINE
  5
230
100
AcDbEntity
  8
0
100
AcDbLine
 62
2
  6
CONTINUOUS
 10
101.1957022634
 20
8.0329859648
 11
101.6096045144
 21
10.3803457168
  0
LINE
  5
231
100
AcDbEntity
  8
0
100
AcDbLine
 62
2
  6
CONTINUOUS
 10
103.28629048
 20
10.3803457168
 11
102.8723872291
 21
8.0329859648
  0
LINE
  5
232
100
AcDbEntity
  8
0
100
AcDbLine
 62
2
  6
CONTINUOUS
 10
104.2137358016
 20
8.0329859648
 11
104.6276390526
 21
10.3803457168
  0
LINE
  5
233
100
AcDbEntity
  8
0
100
AcDbLine
 62
2
  6
CONTINUOUS
 10
106.3043240183
 20
10.3803457168
 11
106.1121553661
 21
9.2904996891
  0
LINE
  5
234
100
AcDbEntity
  8
0
100
AcDbLine
 62
2
  6
CONTINUOUS
 10
106.0530264731
 20
8.9551632959
 11
105.8904217673
 21
8.0329859648
  0
LINE
  5
235
100
AcDbEntity
  8
0
100
AcDbLine
 62
2
  6
CONTINUOUS
 10
117.8923160475
 20
8.5313940628
 11
118.1405795982
 21
9.9393685148
  0
LINE
  5
236
100
AcDbEntity
  8
0
100
AcDbLine
 62
2
  6
CONTINUOUS
 10
119.4637212037
 20
8.8526434815
 11
119.6196779214
 21
9.7371138808
  0
LINE
  5
237
100
AcDbEntity
  8
0
100
AcDbLine
 62
2
  6
CONTINUOUS
 10
120.5561772267
 20
8.8812524297
 11
120.5944831573
 21
9.0984910365
  0
LINE
  5
238
100
AcDbEntity
  8
0
100
AcDbLine
 62
2
  6
CONTINUOUS
 10
121.0125094008
 20
8.0329859648
 11
121.017391392
 21
8.0606719147
  0
LINE
  5
239
100
AcDbEntity
  8
0
100
AcDbLine
 62
2
  6
CONTINUOUS
 10
121.1430231646
 20
8.7731656253
 11
121.1620821301
 21
8.8812524297
  0
LINE
  5
23A
100
AcDbEntity
  8
0
100
AcDbLine
 62
2
  6
CONTINUOUS
 10
122.5272706596
 20
8.0329859648
 11
122.7151483196
 21
9.0984910365
  0
LINE
  5
23B
100
AcDbEntity
  8
0
100
AcDbLine
 62
2
  6
CONTINUOUS
 10
122.8291061133
 20
9.7447798669
 11
122.854131068
 21
9.8867056101
  0
LINE
  5
23C
100
AcDbEntity
  8
0
100
AcDbLine
 62
2
  6
CONTINUOUS
 10
109.7467977884
 20
8.0329859648
 11
107.6509415813
 21
8.0329859648
  0
LINE
  5
23D
100
AcDbEntity
  8
0
100
AcDbLine
 62
2
  6
CONTINUOUS
 10
73.1950539363
 20
8.0329859648
 11
74.7879050537
 21
8.0329859648
  0
LINE
  5
23E
100
AcDbEntity
  8
0
100
AcDbLine
 62
2
  6
CONTINUOUS
 10
105.8904217673
 20
8.0329859648
 11
104.2137358016
 21
8.0329859648
  0
LINE
  5
23F
100
AcDbEntity
  8
0
100
AcDbLine
 62
2
  6
CONTINUOUS
 10
102.8723872291
 20
8.0329859648
 11
101.1957022634
 21
8.0329859648
  0
LINE
  5
240
100
AcDbEntity
  8
0
100
AcDbLine
 62
2
  6
CONTINUOUS
 10
93.7344517661
 20
8.0329859648
 11
92.0577658004
 21
8.0329859648
  0
LINE
  5
241
100
AcDbEntity
  8
0
100
AcDbLine
 62
2
  6
CONTINUOUS
 10
95.49497158
 20
8.0329859648
 11
97.1716565457
 21
8.0329859648
  0
LINE
  5
242
100
AcDbEntity
  8
0
100
AcDbLine
 62
2
  6
CONTINUOUS
 10
84.596515303
 20
8.0329859648
 11
80.4048008888
 21
8.0329859648
  0
LINE
  5
243
100
AcDbEntity
  8
0
100
AcDbLine
 62
2
  6
CONTINUOUS
 10
98.5968389666
 20
8.0329859648
 11
100.5250274771
 21
8.0329859648
  0
LINE
  5
244
100
AcDbEntity
  8
0
100
AcDbLine
 62
2
  6
CONTINUOUS
 10
79.1472871645
 20
8.0329859648
 11
77.5544360471
 21
8.0329859648
  0
LINE
  5
245
100
AcDbEntity
  8
0
100
AcDbLine
 62
2
  6
CONTINUOUS
 10
111.8930159044
 20
8.0329859648
 11
113.5278499458
 21
8.0329859648
  0
LINE
  5
246
100
AcDbEntity
  8
0
100
AcDbLine
 62
2
  6
CONTINUOUS
 10
115.6792490525
 20
8.0329859648
 11
117.198528303
 21
8.0329859648
  0
LINE
  5
247
100
AcDbEntity
  8
0
100
AcDbLine
 62
2
  6
CONTINUOUS
 10
121.0125094008
 20
8.0329859648
 11
122.5272706596
 21
8.0329859648
  0
LINE
  5
248
100
AcDbEntity
  8
0
100
AcDbLine
 62
2
  6
CONTINUOUS
 10
113.8790013104
 20
8.5011891175
 11
115.5621982643
 21
8.5011891175
  0
LINE
  5
249
100
AcDbEntity
  8
0
100
AcDbLine
 62
2
  6
CONTINUOUS
 10
82.0025119974
 20
8.5359920545
 11
84.6852081425
 21
8.5359920545
  0
LINE
  5
24A
100
AcDbEntity
  8
0
100
AcDbLine
 62
2
  6
CONTINUOUS
 10
114.1519948163
 20
8.8651804588
 11
115.471200429
 21
8.8651804588
  0
LINE
  5
24B
100
AcDbEntity
  8
0
100
AcDbLine
 62
2
  6
CONTINUOUS
 10
120.5561772267
 20
8.8812524297
 11
121.1620821301
 21
8.8812524297
  0
LINE
  5
24C
100
AcDbEntity
  8
0
100
AcDbLine
 62
2
  6
CONTINUOUS
 10
84.256113919
 20
8.9551632959
 11
82.0764228636
 21
8.9551632959
  0
LINE
  5
24D
100
AcDbEntity
  8
0
100
AcDbLine
 62
2
  6
CONTINUOUS
 10
120.5944831573
 20
9.0984910365
 11
122.7151483196
 21
9.0984910365
  0
LINE
  5
24E
100
AcDbEntity
  8
0
100
AcDbLine
 62
2
  6
CONTINUOUS
 10
98.4693321973
 20
9.3743345373
 11
97.4081721177
 21
9.3743345373
  0
LINE
  5
24F
100
AcDbEntity
  8
0
100
AcDbLine
 62
2
  6
CONTINUOUS
 10
82.1651167031
 20
9.4581683856
 11
84.3448077585
 21
9.4581683856
  0
LINE
  5
250
100
AcDbEntity
  8
0
100
AcDbLine
 62
2
  6
CONTINUOUS
 10
121.2929528933
 20
9.7447798669
 11
122.8291061133
 21
9.7447798669
  0
LINE
  5
251
100
AcDbEntity
  8
0
100
AcDbLine
 62
2
  6
CONTINUOUS
 10
95.2185580803
 20
9.7935057788
 11
94.0448782043
 21
9.7935057788
  0
LINE
  5
252
100
AcDbEntity
  8
0
100
AcDbLine
 62
2
  6
CONTINUOUS
 10
92.3681932386
 20
9.7935057788
 11
91.1945133626
 21
9.7935057788
  0
LINE
  5
253
100
AcDbEntity
  8
0
100
AcDbLine
 62
2
  6
CONTINUOUS
 10
84.9217247145
 20
9.8773396271
 11
82.2390275694
 21
9.8773396271
  0
LINE
  5
254
100
AcDbEntity
  8
0
100
AcDbLine
 62
2
  6
CONTINUOUS
 10
97.5116479304
 20
9.9611744753
 11
98.7657596609
 21
9.9611744753
  0
LINE
  5
255
100
AcDbEntity
  8
0
100
AcDbLine
 62
2
  6
CONTINUOUS
 10
73.6089561873
 20
10.3803457168
 11
75.2018073047
 21
10.3803457168
  0
LINE
  5
256
100
AcDbEntity
  8
0
100
AcDbLine
 62
2
  6
CONTINUOUS
 10
77.9683382981
 20
10.3803457168
 11
79.5611904155
 21
10.3803457168
  0
LINE
  5
257
100
AcDbEntity
  8
0
100
AcDbLine
 62
2
  6
CONTINUOUS
 10
80.8187041397
 20
10.3803457168
 11
85.010417554
 21
10.3803457168
  0
LINE
  5
258
100
AcDbEntity
  8
0
100
AcDbLine
 62
2
  6
CONTINUOUS
 10
99.0107422175
 20
10.3803457168
 11
95.908873831
 21
10.3803457168
  0
LINE
  5
259
100
AcDbEntity
  8
0
100
AcDbLine
 62
2
  6
CONTINUOUS
 10
85.8487610368
 20
10.3803457168
 11
87.357777306
 21
10.3803457168
  0
LINE
  5
25A
100
AcDbEntity
  8
0
100
AcDbLine
 62
2
  6
CONTINUOUS
 10
89.2021319682
 20
10.3803457168
 11
90.7111492373
 21
10.3803457168
  0
LINE
  5
25B
100
AcDbEntity
  8
0
100
AcDbLine
 62
2
  6
CONTINUOUS
 10
91.2979891753
 20
10.3803457168
 11
95.322033893
 21
10.3803457168
  0
LINE
  5
25C
100
AcDbEntity
  8
0
100
AcDbLine
 62
2
  6
CONTINUOUS
 10
101.6096045144
 20
10.3803457168
 11
103.28629048
 21
10.3803457168
  0
LINE
  5
25D
100
AcDbEntity
  8
0
100
AcDbLine
 62
2
  6
CONTINUOUS
 10
104.6276390526
 20
10.3803457168
 11
106.3043240183
 21
10.3803457168
  0
LINE
  5
25E
100
AcDbEntity
  8
0
100
AcDbLine
 62
2
  6
CONTINUOUS
 10
108.0476608634
 20
10.3803457168
 11
110.1607010394
 21
10.3803457168
  0
LINE
  5
25F
100
AcDbEntity
  8
0
100
AcDbLine
 62
2
  6
CONTINUOUS
 10
113.6535357184
 20
10.3803457168
 11
116.611688365
 21
10.3803457168
  0
LINE
  5
260
100
AcDbEntity
  8
0
100
AcDbLine
 62
2
  6
CONTINUOUS
 10
111.8930159044
 20
8.0329859648
 11
113.6535357184
 21
10.3803457168
  0
LINE
  5
261
100
AcDbEntity
  8
0
100
AcDbLine
 62
2
  6
CONTINUOUS
 10
113.5278499458
 20
8.0329859648
 11
113.8790013104
 21
8.5011891175
  0
LINE
  5
262
100
AcDbEntity
  8
0
100
AcDbLine
 62
2
  6
CONTINUOUS
 10
114.1519948163
 20
8.8651804588
 11
115.1413990258
 21
10.1843850714
  0
LINE
  5
263
100
AcDbEntity
  8
0
100
AcDbLine
 62
2
  6
CONTINUOUS
 10
106.1121553661
 20
9.2904996891
 11
108.0476608634
 21
10.3803457168
  0
LINE
  5
264
100
AcDbEntity
  8
0
100
AcDbLine
 62
2
  6
CONTINUOUS
 10
110.1607010394
 20
10.3803457168
 11
107.8554912111
 21
9.2904996891
  0
ARC
  5
265
100
AcDbEntity
  8
0
100
AcDbCircle
 62
2
  6
CONTINUOUS
 10
87.4421951532
 20
8.9279703451
 40
0.335336967
100
AcDbArc
 50
169.9999581174
 51
257.3876854477
  0
ARC
  5
266
100
AcDbEntity
  8
0
100
AcDbCircle
 62
2
  6
CONTINUOUS
 10
87.9547452256
 20
11.2186881996
 40
2.6826964808
100
AcDbArc
 50
257.3877479741
 51
286.262665946
  0
ARC
  5
267
100
AcDbEntity
  8
0
100
AcDbCircle
 62
2
  6
CONTINUOUS
 10
88.612102036
 20
8.9652512777
 40
0.3353371135
100
AcDbArc
 50
286.2627744417
 51
349.9999581174
  0
ARC
  5
268
100
AcDbEntity
  8
0
100
AcDbCircle
 62
2
  6
CONTINUOUS
 10
89.9191986705
 20
8.7856696027
 40
0.5030061094
100
AcDbArc
 50
284.4613069912
 51
350.0000240953
  0
ARC
  5
269
100
AcDbEntity
  8
0
100
AcDbCircle
 62
2
  6
CONTINUOUS
 10
87.9512572319
 20
16.4164137933
 40
8.3834278607
100
AcDbArc
 50
256.2209051549
 51
284.4612653568
  0
ARC
  5
26A
100
AcDbEntity
  8
0
100
AcDbCircle
 62
2
  6
CONTINUOUS
 10
86.0743056287
 20
8.7627806441
 40
0.503005856
100
AcDbArc
 50
170.0000240953
 51
256.2208762229
  0
ARC
  5
26B
100
AcDbEntity
  8
0
100
AcDbCircle
 62
2
  6
CONTINUOUS
 10
99.5460702487
 20
10.1920990574
 40
1.3167024847
100
AcDbArc
 50
270.8139664646
 51
287.332045501
  0
ARC
  5
26C
100
AcDbEntity
  8
0
100
AcDbCircle
 62
2
  6
CONTINUOUS
 10
99.6328970916
 20
9.9138785609
 40
1.025248295
100
AcDbArc
 50
287.332041554
 51
306.9952583027
  0
ARC
  5
26D
100
AcDbEntity
  8
0
100
AcDbCircle
 62
2
  6
CONTINUOUS
 10
99.765875851
 20
9.7373788803
 40
0.8042604703
100
AcDbArc
 50
306.9952804959
 51
331.1991469186
  0
ARC
  5
26E
100
AcDbEntity
  8
0
100
AcDbCircle
 62
2
  6
CONTINUOUS
 10
99.9698034819
 20
9.6252650832
 40
0.5715468569
100
AcDbArc
 50
331.1991187457
 51
28.8007934081
  0
ARC
  5
26F
100
AcDbEntity
  8
0
100
AcDbCircle
 62
2
  6
CONTINUOUS
 10
99.765875851
 20
9.5131502861
 40
0.8042612359
100
AcDbArc
 50
28.8008530814
 51
53.0047195041
  0
ARC
  5
270
100
AcDbEntity
  8
0
100
AcDbCircle
 62
2
  6
CONTINUOUS
 10
99.6328970916
 20
9.3366506055
 40
1.0252479986
100
AcDbArc
 50
53.0047416973
 51
72.667958446
  0
ARC
  5
271
100
AcDbEntity
  8
0
100
AcDbCircle
 62
2
  6
CONTINUOUS
 10
99.5460702487
 20
9.058430109
 40
1.3167024858
100
AcDbArc
 50
72.667954499
 51
88.2637233921
  0
ARC
  5
272
100
AcDbEntity
  8
0
100
AcDbCircle
 62
2
  6
CONTINUOUS
 10
99.1751869199
 20
-1.8011792383
 40
12.1826353158
100
AcDbArc
 50
88.0677150838
 51
90.7734183662
  0
ARC
  5
273
100
AcDbEntity
  8
0
100
AcDbCircle
 62
2
  6
CONTINUOUS
 10
97.8450613271
 20
126.7276131626
 40
117.8646306221
100
AcDbArc
 50
270.6818443076
 51
270.8360085966
  0
ARC
  5
274
100
AcDbEntity
  8
0
100
AcDbCircle
 62
2
  6
CONTINUOUS
 10
98.7233307377
 20
9.4400284185
 40
0.5228699142
100
AcDbArc
 50
74.2117758502
 51
85.3455498836
  0
ARC
  5
275
100
AcDbEntity
  8
0
100
AcDbCircle
 62
2
  6
CONTINUOUS
 10
98.7726766484
 20
9.6145531026
 40
0.3415029724
100
AcDbArc
 50
49.80595642
 51
74.2116374161
  0
ARC
  5
276
100
AcDbEntity
  8
0
100
AcDbCircle
 62
2
  6
CONTINUOUS
 10
98.8829964487
 20
9.7451268663
 40
0.1705654939
100
AcDbArc
 50
340.193968067
 51
49.8058745946
  0
ARC
  5
277
100
AcDbEntity
  8
0
100
AcDbCircle
 62
2
  6
CONTINUOUS
 10
98.7221697398
 20
9.8030467615
 40
0.3415041793
100
AcDbArc
 50
315.7883508031
 51
340.1940327095
  0
ARC
  5
278
100
AcDbEntity
  8
0
100
AcDbCircle
 62
2
  6
CONTINUOUS
 10
98.592172975
 20
9.9295155326
 40
0.5228695114
100
AcDbArc
 50
298.8638229053
 51
315.7882717965
  0
ARC
  5
279
100
AcDbEntity
  8
0
100
AcDbCircle
 62
2
  6
CONTINUOUS
 10
98.4693321973
 20
10.1523731293
 40
0.777340892
100
AcDbArc
 50
285.0000006491
 51
298.8638426666
  0
ARC
  5
27A
100
AcDbEntity
  8
0
100
AcDbCircle
 62
2
  6
CONTINUOUS
 10
98.4666332022
 20
10.1523751293
 40
0.7780452733
100
AcDbArc
 50
270.1987562222
 51
285.191946156
  0
ARC
  5
27B
100
AcDbEntity
  8
0
100
AcDbCircle
 62
2
  6
CONTINUOUS
 10
120.6619260353
 20
-2.9792851063
 40
13.3596308353
100
AcDbArc
 50
81.6598945895
 51
99.8027888696
  0
ARC
  5
27C
100
AcDbEntity
  8
0
100
AcDbCircle
 62
2
  6
CONTINUOUS
 10
120.1292479993
 20
21.3907487912
 40
13.3596309136
100
AcDbArc
 50
261.4614728694
 51
273.8118136955
  0
ARC
  5
27D
100
AcDbEntity
  8
0
100
AcDbCircle
 62
2
  6
CONTINUOUS
 10
118.4389290582
 20
9.88676061
 40
0.302952678
100
AcDbArc
 50
99.8027796749
 51
169.9998425607
  0
ARC
  5
27E
100
AcDbEntity
  8
0
100
AcDbCircle
 62
2
  6
CONTINUOUS
 10
118.1906655075
 20
8.478787158
 40
0.3029519545
100
AcDbArc
 50
170.000028812
 51
261.4614258049
  0
ARC
  5
27F
100
AcDbEntity
  8
0
100
AcDbCircle
 62
2
  6
CONTINUOUS
 10
122.555781608
 20
9.9393125149
 40
0.3029519545
100
AcDbArc
 50
350.000028812
 51
81.6598857953
  0
ARC
  5
280
100
AcDbEntity
  8
0
100
AcDbCircle
 62
2
  6
CONTINUOUS
 10
120.4567834065
 20
6.5595326313
 40
3.4740280808
100
AcDbArc
 50
80.2083456985
 51
99.7818280968
  0
ARC
  5
281
100
AcDbEntity
  8
0
100
AcDbCircle
 62
2
  6
CONTINUOUS
 10
120.2291178185
 20
11.9365299005
 40
3.4740282835
100
AcDbArc
 50
261.5304821195
 51
281.1930777907
  0
ARC
  5
282
100
AcDbEntity
  8
0
100
AcDbCircle
 62
2
  6
CONTINUOUS
 10
119.9180273815
 20
9.684506976
 40
0.3029528628
100
AcDbArc
 50
99.7818543358
 51
170.000028812
  0
ARC
  5
283
100
AcDbEntity
  8
0
100
AcDbCircle
 62
2
  6
CONTINUOUS
 10
120.9960754306
 20
9.6844149762
 40
0.3029523856
100
AcDbArc
 50
11.4934186918
 51
80.2083192078
  0
ARC
  5
284
100
AcDbEntity
  8
0
100
AcDbCircle
 62
2
  6
CONTINUOUS
 10
119.7620716637
 20
8.8000365767
 40
0.3029529393
100
AcDbArc
 50
170.000061653
 51
261.5304593161
  0
ARC
  5
285
100
AcDbEntity
  8
0
100
AcDbCircle
 62
2
  6
CONTINUOUS
 10
120.8446737046
 20
8.8257725301
 40
0.3029520503
100
AcDbArc
 50
281.1930976978
 51
350.000028812
  0
ENDBLK
  5
286
100
AcDbEntity
  8
0
  6
BYBLOCK
 62
0
100
AcDbBlockEnd
  0
BLOCK
  5
287
100
AcDbEntity
  8
0
100
AcDbBlockBegin
  2
*T1
 70
1
 10
0.0
 20
0.0
  3
*T1
  1

  0
LINE
  5
288
100
AcDbEntity
  8
0
100
AcDbLine
 62
7
  6
CONTINUOUS
 10
0.0
 20
0.0
 11
133.0
 21
0.0
  0
LINE
  5
289
100
AcDbEntity
  8
0
100
AcDbLine
 62
7
  6
CONTINUOUS
 10
0.0
 20
0.0
 11
0.0
 21
-46.0
  0
LINE
  5
28A
100
AcDbEntity
  8
0
100
AcDbLine
 62
7
  6
CONTINUOUS
 10
82.0
 20
-5.0
 11
133.0
 21
-5.0
  0
LINE
  5
28B
100
AcDbEntity
  8
0
100
AcDbLine
 62
7
  6
CONTINUOUS
 10
0.0
 20
-10.0
 11
41.0
 21
-10.0
  0
LINE
  5
28C
100
AcDbEntity
  8
0
100
AcDbLine
 62
7
  6
CONTINUOUS
 10
82.0
 20
-10.0
 11
133.0
 21
-10.0
  0
LINE
  5
28D
100
AcDbEntity
  8
0
100
AcDbLine
 62
7
  6
CONTINUOUS
 10
82.0
 20
-15.0
 11
133.0
 21
-15.0
  0
LINE
  5
28E
100
AcDbEntity
  8
0
100
AcDbLine
 62
7
  6
CONTINUOUS
 10
0.0
 20
-20.0
 11
133.0
 21
-20.0
  0
LINE
  5
28F
100
AcDbEntity
  8
0
100
AcDbLine
 62
7
  6
CONTINUOUS
 10
82.0
 20
-28.0
 11
133.0
 21
-28.0
  0
LINE
  5
290
100
AcDbEntity
  8
0
100
AcDbLine
 62
7
  6
CONTINUOUS
 10
0.0
 20
-37.0
 11
133.0
 21
-37.0
  0
LINE
  5
291
100
AcDbEntity
  8
0
100
AcDbLine
 62
7
  6
CONTINUOUS
 10
0.0
 20
-46.0
 11
133.0
 21
-46.0
  0
LINE
  5
292
100
AcDbEntity
  8
0
100
AcDbLine
 62
7
  6
CONTINUOUS
 10
41.0
 20
0.0
 11
41.0
 21
-20.0
  0
LINE
  5
293
100
AcDbEntity
  8
0
100
AcDbLine
 62
7
  6
CONTINUOUS
 10
64.0
 20
0.0
 11
64.0
 21
-20.0
  0
LINE
  5
294
100
AcDbEntity
  8
0
100
AcDbLine
 62
7
  6
CONTINUOUS
 10
82.0
 20
0.0
 11
82.0
 21
-46.0
  0
LINE
  5
295
100
AcDbEntity
  8
0
100
AcDbLine
 62
7
  6
CONTINUOUS
 10
101.0
 20
0.0
 11
101.0
 21
-20.0
  0
LINE
  5
296
100
AcDbEntity
  8
0
100
AcDbLine
 62
7
  6
CONTINUOUS
 10
116.0
 20
0.0
 11
116.0
 21
-37.0
  0
LINE
  5
297
100
AcDbEntity
  8
0
100
AcDbLine
 62
7
  6
CONTINUOUS
 10
133.0
 20
0.0
 11
133.0
 21
-46.0
  0
MTEXT
  5
298
100
AcDbEntity
  8
0
100
AcDbMText
 62
5
  6
CONTINUOUS
  7
TEXTSTYLE_2
 71
1
 72
1
 10
0.0625
 20
-2.7341257188
 30
0.0
 11
1.0
 21
0.0
 31
0.0
 44
0.9
  1
\Q15.0; Allgemeintoleranzen\P ISO 2768-m
 40
1.8
 41
49.2
  0
MTEXT
  5
299
100
AcDbEntity
  8
0
100
AcDbMText
 62
5
  6
CONTINUOUS
  7
TEXTSTYLE_2
 71
2
 72
1
 10
52.5
 20
-1.5352761804
 30
0.0
 11
1.0
 21
0.0
 31
0.0
 44
0.9
  1
\Q15.0;Werkstoff
 40
2.0
 41
26.2857142857
  0
MTEXT
  5
29A
100
AcDbEntity
  8
0
100
AcDbMText
 62
5
  6
CONTINUOUS
  7
TEXTSTYLE_2
 71
2
 72
1
 10
73.0
 20
-1.5352761804
 30
0.0
 11
1.0
 21
0.0
 31
0.0
 44
0.9
  1
\Q15.0;Massstab:
 40
2.0
 41
24.2857142857
  0
MTEXT
  5
29B
100
AcDbEntity
  8
0
100
AcDbMText
 62
5
  6
CONTINUOUS
  7
TEXTSTYLE_2
 71
2
 72
1
 10
108.5
 20
-1.5352761804
 30
0.0
 11
1.0
 21
0.0
 31
0.0
 44
0.9
  1
\Q15.0;Datum
 40
2.0
 41
15.3333333333
  0
MTEXT
  5
29C
100
AcDbEntity
  8
0
100
AcDbMText
 62
5
  6
CONTINUOUS
  7
TEXTSTYLE_2
 71
2
 72
1
 10
124.5
 20
-1.5352761804
 30
0.0
 11
1.0
 21
0.0
 31
0.0
 44
0.9
  1
\Q15.0;Name
 40
2.0
 41
12.5714285714
  0
MTEXT
  5
29D
100
AcDbEntity
  8
0
100
AcDbMText
 62
5
  6
CONTINUOUS
  7
TEXTSTYLE_2
 71
1
 72
1
 10
82.0625
 20
-6.5352761804
 30
0.0
 11
1.0
 21
0.0
 31
0.0
 44
0.9
  1
\Q15.0; Gezeichnet
 40
2.0
 41
30.380952381
  0
MTEXT
  5
29E
100
AcDbEntity
  8
0
100
AcDbMText
 62
5
  6
CONTINUOUS
  7
TEXTSTYLE_2
 71
2
 72
1
 10
108.5
 20
-6.5352761804
 30
0.0
 11
1.0
 21
0.0
 31
0.0
 44
0.9
  1
\Q15.0;19.05.98
 40
2.0
 41
22.2857142857
  0
MTEXT
  5
29F
100
AcDbEntity
  8
0
100
AcDbMText
 62
5
  6
CONTINUOUS
  7
TEXTSTYLE_2
 71
2
 72
1
 10
124.5
 20
-6.5352761804
 30
0.0
 11
1.0
 21
0.0
 31
0.0
 44
0.9
  1
\Q15.0;Alinjak
 40
2.0
 41
18.0952380952
  0
MTEXT
  5
2A0
100
AcDbEntity
  8
0
100
AcDbMText
 62
5
  6
CONTINUOUS
  7
TEXTSTYLE_2
 71
1
 72
1
 10
0.0625
 20
-12.7341257188
 30
0.0
 11
1.0
 21
0.0
 31
0.0
 44
0.9
  1
\Q15.0; Zeichnung urheberrechtlich\P geschuetzt (DIN 34) (C)
 40
1.8
 41
66.0
  0
MTEXT
  5
2A1
100
AcDbEntity
  8
0
100
AcDbMText
 62
5
  6
CONTINUOUS
  7
TEXTSTYLE_2
 71
1
 72
1
 10
82.0625
 20
-11.5352761804
 30
0.0
 11
1.0
 21
0.0
 31
0.0
 44
0.9
  1
\Q15.0; Freigegeben
 40
2.0
 41
33.5238095238
  0
MTEXT
  5
2A2
100
AcDbEntity
  8
0
100
AcDbMText
 62
5
  6
CONTINUOUS
  7
TEXTSTYLE_2
 71
2
 72
1
 10
73.0
 20
-16.5352761804
 30
0.0
 11
1.0
 21
0.0
 31
0.0
 44
0.9
  1
(\Q15.0;A4\Q0.0;)
 40
2.0
 41
10.0
  0
MTEXT
  5
2A3
100
AcDbEntity
  8
0
100
AcDbMText
 62
5
  6
CONTINUOUS
  7
TEXTSTYLE_2
 71
1
 72
1
 10
82.0625
 20
-16.5352761804
 30
0.0
 11
1.0
 21
0.0
 31
0.0
 44
0.9
  1
\Q15.0; Geaendert
 40
2.0
 41
28.2857142857
  0
MTEXT
  5
2A4
100
AcDbEntity
  8
0
100
AcDbMText
 62
5
  6
CONTINUOUS
  7
TEXTSTYLE_2
 71
1
 72
1
 10
0.0625
 20
-20.921875
 30
0.0
 11
1.0
 21
0.0
 31
0.0
 44
0.9
  1
\Q15.0; Benennung
 40
2.0
 41
29.1428571429
  0
MTEXT
  5
2A5
100
AcDbEntity
  8
0
100
AcDbMText
 62
5
  6
CONTINUOUS
  7
TEXTSTYLE_2
 71
1
 72
1
 10
82.0625
 20
-20.9647238196
 30
0.0
 11
1.0
 21
0.0
 31
0.0
 44
1.2
  1
\Q15.0; Aend.-Nr.\P  
 40
2.0
 41
28.2857142857
  0
MTEXT
  5
2A6
100
AcDbEntity
  8
0
100
AcDbMText
 62
5
  6
CONTINUOUS
  7
TEXTSTYLE_2
 71
2
 72
1
 10
124.5
 20
-20.835314297
 30
0.0
 11
1.0
 21
0.0
 31
0.0
 44
0.9
  1
\Q15.0;Aend.-Index\P\H3.0; 
 40
2.0
 41
31.1428571429
  0
MTEXT
  5
2A7
100
AcDbEntity
  8
0
100
AcDbMText
 62
5
  6
CONTINUOUS
  7
TEXTSTYLE_2
 71
2
 72
1
 10
41.0
 20
-23.8117333157
 30
0.0
 11
1.0
 21
0.0
 31
0.0
 44
0.9
  1
\Q15.0;Gooseneck
 40
3.5
 41
46.3333333333
  0
MTEXT
  5
2A8
100
AcDbEntity
  8
0
100
AcDbMText
 62
5
  6
CONTINUOUS
  7
TEXTSTYLE_2
 71
2
 72
1
 10
40.25
 20
-30.088190451
 30
0.0
 11
1.0
 21
0.0
 31
0.0
 44
0.9
  1
\Q15.0;GNS50
 40
5.0
 41
38.5714285714
  0
MTEXT
  5
2A9
100
AcDbEntity
  8
0
100
AcDbMText
 62
5
  6
CONTINUOUS
  7
TEXTSTYLE_2
 71
1
 72
1
 10
82.0625
 20
-31.5352761804
 30
0.0
 11
1.0
 21
0.0
 31
0.0
 44
0.9
  1
\Q15.0; Ersatz fuer:
 40
2.0
 41
34.5714285714
  0
MTEXT
  5
2AA
100
AcDbEntity
  8
0
100
AcDbMText
 62
5
  6
CONTINUOUS
  7
TEXTSTYLE_2
 71
2
 72
1
 10
124.5
 20
-29.4647238196
 30
0.0
 11
1.0
 21
0.0
 31
0.0
 44
1.2
  1
\Q15.0;Blatt 1\Pvon 1 Bl.
 40
2.0
 41
24.5714285714
  0
MTEXT
  5
2AB
100
AcDbEntity
  8
0
100
AcDbMText
 62
5
  6
CONTINUOUS
  7
TEXTSTYLE_2
 71
1
 72
1
 10
82.0625
 20
-37.5352761804
 30
0.0
 11
1.0
 21
0.0
 31
0.0
 44
0.9
  1
\Q15.0; Zeichn. Nr.
 40
2.0
 41
32.9523809524
  0
MTEXT
  5
2AC
100
AcDbEntity
  8
0
100
AcDbMText
 62
5
  6
CONTINUOUS
  7
TEXTSTYLE_2
 71
2
 72
1
 10
108.5
 20
-41.3117333157
 30
0.0
 11
1.0
 21
0.0
 31
0.0
 44
0.9
  1
\Q15.0;ST-GNS50
 40
3.5
 41
43.5
  0
ENDBLK
  5
2AD
100
AcDbEntity
  8
0
  6
BYBLOCK
 62
0
100
AcDbBlockEnd
  0
ENDSEC
  0
SECTION
  2
ENTITIES
  0
MTEXT
  5
2AE
100
AcDbEntity
  8
0
100
AcDbMText
 62
4
  6
CONTINUOUS
  7
STANDARD
 71
1
 72
1
 10
126.0467415329
 20
10.4742136272
 30
0.0
 11
1.0
 21
0.0
 31
0.0
 44
0.9
  1
\Q15.0;FL-9494 SCHAAN
 40
2.43
 41
26.4985714286
  0
INSERT
  5
2AF
100
AcDbEntity
  8
0
100
AcDbBlockReference
 62
2
  6
CONTINUOUS
  2
SYMBOL_3_BL0
 10
98.0245925022
 20
9.2066660654
  0
ACAD_TABLE
  5
2B0
100
AcDbEntity
  8
0
 62
2
  6
CONTINUOUS
100
AcDbBlockReference
  2
*T1
 10
72.0
 20
51.0
 30
0.0
100
AcDbTable
342
       5D5
343
20F
 11
1.0
 21
0.0
 31
0.0
 90
22
 91
9
 92
8
 93
0
 94
0
 95
0
 96
0
141
5.0
141
5.0
141
5.0
141
5.0
141
3.0
141
5.0
141
9.0
141
3.0
141
6.0
142
20.5
142
19.0
142
1.5
142
23.0
142
18.0
142
19.0
142
15.0
142
17.0
171
1
172
0
173
0
174
0
175
2
176
2
177
41
178
0
145
0.0
  1
\Q15.0; Allgemeintoleranzen\P ISO 2768-m
170
4
140
1.8
 64
5
171
1
172
0
173
1
174
0
175
1
176
1
177
1
178
0
145
0.0
170
1
171
1
172
0
173
0
174
0
175
1
176
2
177
1
178
0
145
0.0
170
1
171
1
172
0
173
0
174
0
175
1
176
1
177
41
178
0
145
0.0
  1
\Q15.0;Werkstoff
170
5
140
2.0
 64
5
171
1
172
0
173
0
174
0
175
1
176
1
177
41
178
0
145
0.0
  1
\Q15.0;Massstab:
170
5
140
2.0
 64
5
171
1
172
0
173
0
174
0
175
1
176
1
177
1
178
0
145
0.0
170
1
171
1
172
0
173
0
174
0
175
1
176
1
177
41
178
0
145
0.0
  1
\Q15.0;Datum
170
5
140
2.0
 64
5
171
1
172
0
173
0
174
0
175
1
176
1
177
41
178
0
145
0.0
  1
\Q15.0;Name
170
5
140
2.0
 64
5
171
1
172
0
173
1
174
0
175
1
176
1
177
1
178
0
145
0.0
170
1
171
1
172
0
173
1
174
0
175
1
176
1
177
1
178
0
145
0.0
170
1
171
1
172
0
173
1
174
0
175
1
176
1
177
1
178
0
145
0.0
170
1
171
1
172
0
173
0
174
0
175
1
176
1
177
1
178
0
145
0.0
170
1
171
1
172
0
173
0
174
0
175
1
176
1
177
1
178
0
145
0.0
170
1
171
1
172
0
173
0
174
0
175
1
176
1
177
41
178
0
145
0.0
  1
\Q15.0; Gezeichnet
170
4
140
2.0
 64
5
171
1
172
0
173
0
174
0
175
1
176
1
177
41
178
0
145
0.0
  1
\Q15.0;19.05.98
170
5
140
2.0
 64
5
171
1
172
0
173
0
174
0
175
1
176
1
177
41
178
0
145
0.0
  1
\Q15.0;Alinjak
170
5
140
2.0
 64
5
171
1
172
0
173
0
174
0
175
2
176
2
177
41
178
0
145
0.0
  1
\Q15.0; Zeichnung urheberrechtlich\P geschuetzt (DIN 34) (C)
170
4
140
1.8
 64
5
171
1
172
0
173
1
174
0
175
1
176
1
177
1
178
0
145
0.0
170
1
171
1
172
0
173
0
174
0
175
1
176
2
177
1
178
0
145
0.0
170
1
171
1
172
0
173
0
174
0
175
1
176
1
177
41
178
0
145
0.0
  1
\Q15.0; 
170
5
140
2.0
 64
5
171
1
172
0
173
0
174
0
175
1
176
1
177
41
178
0
145
0.0
  1
\Q15.0; 
170
2
140
3.5
 64
5
171
1
172
0
173
0
174
0
175
1
176
1
177
41
178
0
145
0.0
  1
\Q15.0; Freigegeben
170
4
140
2.0
 64
5
171
1
172
0
173
0
174
0
175
1
176
1
177
1
178
0
145
0.0
170
1
171
1
172
0
173
0
174
0
175
1
176
1
177
1
178
0
145
0.0
170
1
171
1
172
0
173
1
174
0
175
1
176
1
177
1
178
0
145
0.0
170
1
171
1
172
0
173
1
174
0
175
1
176
1
177
1
178
0
145
0.0
170
1
171
1
172
0
173
1
174
0
175
1
176
1
177
1
178
0
145
0.0
170
1
171
1
172
0
173
0
174
0
175
1
176
1
177
41
178
0
145
0.0
  1
\Q15.0; 
170
5
140
2.0
 64
5
171
1
172
0
173
0
174
0
175
1
176
1
177
41
178
0
145
0.0
  1
(\Q15.0;A4\Q0.0;)
170
5
140
2.0
 64
5
171
1
172
0
173
0
174
0
175
1
176
1
177
41
178
0
145
0.0
  1
\Q15.0; Geaendert
170
4
140
2.0
 64
5
171
1
172
0
173
0
174
0
175
1
176
1
177
41
178
0
145
0.0
  1
\Q15.0; 
170
5
140
2.0
 64
5
171
1
172
0
173
0
174
0
175
1
176
1
177
41
178
0
145
0.0
  1
\Q15.0; 
170
5
140
2.0
 64
5
171
1
172
0
173
0
174
0
175
2
176
1
177
41
178
0
145
0.0
  1
\Q15.0; Benennung
170
7
140
2.0
 64
5
171
1
172
0
173
1
174
0
175
1
176
1
177
1
178
0
145
0.0
170
1
171
1
172
0
173
0
174
0
175
1
176
1
177
1
178
0
145
0.0
170
1
171
1
172
0
173
0
174
0
175
1
176
1
177
1
178
0
145
0.0
170
1
171
1
172
0
173
0
174
0
175
1
176
1
177
1
178
0
145
0.0
170
1
171
1
172
0
173
0
174
0
175
2
176
2
177
41
178
0
145
0.0
  1
\Q15.0; Aend.-Nr.\P  
170
4
140
2.0
 64
5
171
1
172
0
173
1
174
0
175
1
176
1
177
1
178
0
145
0.0
170
1
171
1
172
0
173
0
174
0
175
1
176
2
177
41
178
0
145
0.0
  1
\Q15.0;Aend.-Index\P\H3.0; 
170
5
140
2.0
 64
5
171
1
172
0
173
0
174
0
175
5
176
1
177
41
178
0
145
0.0
  1
\Q15.0;Gooseneck
170
5
140
3.5
 64
5
171
1
172
0
173
1
174
0
175
1
176
1
177
1
178
0
145
0.0
170
1
171
1
172
0
173
1
174
0
175
1
176
1
177
1
178
0
145
0.0
170
1
171
1
172
0
173
1
174
0
175
1
176
1
177
1
178
0
145
0.0
170
1
171
1
172
0
173
1
174
0
175
1
176
1
177
1
178
0
145
0.0
170
1
171
1
172
0
173
1
174
0
175
1
176
1
177
1
178
0
145
0.0
170
1
171
1
172
0
173
1
174
0
175
1
176
1
177
1
178
0
145
0.0
170
1
171
1
172
0
173
1
174
0
175
1
176
1
177
1
178
0
145
0.0
170
1
171
1
172
0
173
0
174
0
175
1
176
1
177
1
178
0
145
0.0
170
1
171
1
172
0
173
0
174
0
175
1
176
1
177
1
178
0
145
0.0
170
1
171
1
172
0
173
0
174
0
175
1
176
1
177
41
178
0
145
0.0
  1
\Q15.0;GNS50
170
5
140
5.0
 64
5
171
1
172
0
173
0
174
0
175
1
176
1
177
1
178
0
145
0.0
170
1
171
1
172
0
173
0
174
0
175
1
176
1
177
1
178
0
145
0.0
170
1
171
1
172
0
173
0
174
0
175
1
176
1
177
41
178
0
145
0.0
  1
\Q15.0; Ersatz fuer:
170
4
140
2.0
 64
5
171
1
172
0
173
0
174
0
175
1
176
1
177
1
178
0
145
0.0
170
1
171
1
172
0
173
0
174
0
175
1
176
1
177
41
178
0
145
0.0
  1
\Q15.0;Blatt 1\Pvon 1 Bl.
170
5
140
2.0
 64
5
171
1
172
0
173
0
174
0
175
5
176
2
177
1
178
0
145
0.0
170
1
171
1
172
0
173
1
174
0
175
1
176
1
177
1
178
0
145
0.0
170
1
171
1
172
0
173
1
174
0
175
1
176
1
177
1
178
0
145
0.0
170
1
171
1
172
0
173
1
174
0
175
1
176
1
177
1
178
0
145
0.0
170
1
171
1
172
0
173
1
174
0
175
1
176
1
177
1
178
0
145
0.0
170
1
171
1
172
0
173
0
174
0
175
1
176
1
177
41
178
0
145
0.0
  1
\Q15.0; Zeichn. Nr.
170
4
140
2.0
 64
5
171
1
172
0
173
0
174
0
175
1
176
1
177
1
178
0
145
0.0
170
1
171
1
172
0
173
0
174
0
175
1
176
1
177
1
178
0
145
0.0
170
1
171
1
172
0
173
1
174
0
175
1
176
1
177
1
178
0
145
0.0
170
1
171
1
172
0
173
1
174
0
175
1
176
1
177
1
178
0
145
0.0
170
1
171
1
172
0
173
1
174
0
175
1
176
1
177
1
178
0
145
0.0
170
1
171
1
172
0
173
1
174
0
175
1
176
1
177
1
178
0
145
0.0
170
1
171
1
172
0
173
1
174
0
175
1
176
1
177
1
178
0
145
0.0
170
1
171
1
172
0
173
0
174
0
175
1
176
1
177
1
178
0
145
0.0
170
1
171
1
172
0
173
0
174
0
175
1
176
1
177
41
178
0
145
0.0
  1
\Q15.0;ST-GNS50
170
5
140
3.5
 64
5
171
1
172
0
173
0
174
0
175
1
176
1
177
1
178
0
145
0.0
170
1
  0
MTEXT
  5
2B1
100
AcDbEntity
  8
0
100
AcDbMText
 62
5
  6
CONTINUOUS
  7
TEXTSTYLE_3
 71
1
 72
1
 10
87.6676363636
 20
277.2978398438
 30
0.0
 11
1.0
 21
0.0
 31
0.0
 44
0.9
  1
\Q15.0;GNS50
 40
5.0
 41
22.7777777778
  0
MTEXT
  5
2B2
100
AcDbEntity
  8
0
100
AcDbMText
 62
5
  6
CONTINUOUS
  7
STANDARD
 71
1
 72
1
 10
160.0471583867
 20
238.9140992936
 30
0.0
 11
1.0
 21
0.0
 31
0.0
 44
0.9
  1
\Q15.0;NC3FX-Spec
 40
3.5
 41
26.8333333333
  0
MTEXT
  5
2B3
100
AcDbEntity
  8
0
100
AcDbMText
 62
5
  6
CONTINUOUS
  7
STANDARD
 71
1
 72
1
 10
159.9135002008
 20
178.0077816021
 30
0.0
 11
1.0
 21
0.0
 31
0.0
 44
0.9
  1
\Q15.0;Cable outlet
 40
3.5
 41
28.8333333333
  0
MTEXT
  5
2B4
100
AcDbEntity
  8
0
100
AcDbMText
 62
5
  6
CONTINUOUS
  7
STANDARD
 71
1
 72
1
 10
159.8986027412
 20
133.9691413617
 30
0.0
 11
1.0
 21
0.0
 31
0.0
 44
0.9
  1
\Q15.0;NAM5
 40
3.5
 41
11.9166666667
  0
MTEXT
  5
2B5
100
AcDbEntity
  8
0
100
AcDbMText
 62
5
  6
CONTINUOUS
  7
STANDARD
 71
1
 72
1
 10
159.8780972688
 20
91.1166311712
 30
0.0
 11
1.0
 21
0.0
 31
0.0
 44
0.9
  1
\Q15.0;M17x1 bolt
 40
3.5
 41
24.4166666667
  0
MTEXT
  5
2B6
100
AcDbEntity
  8
0
100
AcDbMText
 62
5
  6
CONTINUOUS
  7
STANDARD
 71
1
 72
1
 10
59.4120140163
 20
108.7541571568
 30
0.0
 11
1.0
 21
0.0
 31
0.0
 44
0.9
  1
\Q15.0;M1:2
 40
3.5
 41
9.6666666667
  0
MTEXT
  5
2B7
100
AcDbEntity
  8
0
100
AcDbMText
 62
5
  6
CONTINUOUS
  7
STANDARD
 71
1
 72
1
 10
128.5950194654
 20
61.7635084001
 30
0.0
 11
1.0
 21
0.0
 31
0.0
 44
0.9
  1
\Q15.0;M1:1
 40
3.5
 41
8.9166666667
  0
MTEXT
  5
2B8
100
AcDbEntity
  8
0
100
AcDbMText
 62
5
  6
CONTINUOUS
  7
STANDARD
 71
2
 72
1
 10
38.8529348369
 20
181.3064607145
 30
0.0
 11
0.0
 21
1.0
 31
0.0
  1
\Q15.0;500.0 [19.685"]
 40
3.5
 41
35.5
  0
MTEXT
  5
2B9
100
AcDbEntity
  8
0
100
AcDbMText
 62
5
  6
CONTINUOUS
  7
STANDARD
 71
2
 72
1
 10
74.7815649268
 20
209.4243893084
 30
0.0
 11
0.0
 21
1.0
 31
0.0
  1
\Q15.0;68.0 [2.677"]
 40
3.5
 41
31.25
  0
MTEXT
  5
2BA
100
AcDbEntity
  8
0
100
AcDbMText
 62
5
  6
CONTINUOUS
  7
TEXTSTYLE_4
 71
2
 72
1
 10
88.7831139476
 20
187.7208007813
 30
0.0
 11
1.0
 21
0.0
 31
0.0
  1
\Q15.0;{\Fgdt;n}\Ftxt;15.0 [0.591"]
 40
3.5
 41
33.9166666667
  0
MTEXT
  5
2BB
100
AcDbEntity
  8
0
100
AcDbMText
 62
5
  6
CONTINUOUS
  7
STANDARD
 71
2
 72
1
 10
132.1835489132
 20
216.5410714973
 30
0.0
 11
1.0
 21
0.0
 31
0.0
  1
\Q15.0;M17x1
 40
3.5
 41
12.25
  0
MTEXT
  5
2BC
100
AcDbEntity
  8
025
100
AcDbMText
 62
5
  6
CONTINUOUS
  7
STANDARD
 71
1
 72
1
 10
124.6498485494
 20
120.6945593763
 30
0.0
 11
1.0
 21
0.0
 31
0.0
 44
0.9
  1
\Q15.0;3/8"
 40
3.5
 41
10.1666666667
  0
MTEXT
  5
2BD
100
AcDbEntity
  8
0
100
AcDbMText
 62
5
  6
CONTINUOUS
  7
STANDARD
 71
2
 72
1
 10
132.8996134519
 20
110.7644421142
 30
0.0
 11
1.0
 21
0.0
 31
0.0
  1
\Q15.0;3/8"
 40
3.5
 41
10.1666666667
  0
MTEXT
  5
2BE
100
AcDbEntity
  8
0
100
AcDbMText
 62
5
  6
CONTINUOUS
  7
STANDARD
 71
2
 72
1
 10
132.603581752
 20
75.4830436373
 30
0.0
 11
1.0
 21
0.0
 31
0.0
  1
\Q15.0;M17x1
 40
3.5
 41
12.25
  0
MTEXT
  5
2BF
100
AcDbEntity
  8
0
100
AcDbMText
 62
5
  6
CONTINUOUS
  7
STANDARD
 71
2
 72
1
 10
132.932865868
 20
202.5771178139
 30
0.0
 11
1.0
 21
0.0
 31
0.0
  1
\Q15.0;M17x1
 40
3.5
 41
12.25
  0
MTEXT
  5
2C0
100
AcDbEntity
  8
0
100
AcDbMText
 62
5
  6
CONTINUOUS
  7
STANDARD
 71
2
 72
1
 10
133.3232226345
 20
149.4311061478
 30
0.0
 11
1.0
 21
0.0
 31
0.0
  1
\Q15.0;5/8"
 40
3.5
 41
10.1666666667
  0
LINE
  5
2C1
100
AcDbEntity
  8
0
100
AcDbLine
 62
7
  6
CONTINUOUS
 10
0.0
 20
0.0
 11
210.0
 21
0.0
  0
LINE
  5
2C2
100
AcDbEntity
  8
0
100
AcDbLine
 62
7
  6
CONTINUOUS
 10
5.0
 20
5.0
 11
205.0
 21
5.0
  0
LINE
  5
2C3
100
AcDbEntity
  8
0
100
AcDbLine
 62
7
  6
CONTINUOUS
 10
0.0
 20
0.0
 11
0.0
 21
297.0
  0
LINE
  5
2C4
100
AcDbEntity
  8
0
100
AcDbLine
 62
7
  6
CONTINUOUS
 10
5.0
 20
5.0
 11
5.0
 21
292.0
  0
LINE
  5
2C5
100
AcDbEntity
  8
05
100
AcDbLine
 62
7
  6
CONTINUOUS
 10
57.704111209
 20
234.7326228093
 11
57.404111209
 21
234.4326228093
  0
LINE
  5
2C6
100
AcDbEntity
  8
SCHRAFFIERT
100
AcDbLine
 62
2
  6
CONTINUOUS
 10
59.5041165659
 20
222.6605189807
 11
59.6991165659
 21
222.7731022832
  0
LINE
  5
2C7
100
AcDbEntity
  8
SCHRAFFIERT
100
AcDbLine
 62
2
  6
CONTINUOUS
 10
68.0791165659
 20
226.2950489268
 11
67.9791165659
 21
226.1950489268
  0
LINE
  5
2C8
100
AcDbEntity
  8
SCHRAFFIERT
100
AcDbLine
 62
2
  6
CONTINUOUS
 10
66.9541165659
 20
221.0450489268
 11
65.7041165659
 21
219.7950489268
  0
LINE
  5
2C9
100
AcDbEntity
  8
SCHRAFFIERT
100
AcDbLine
 62
2
  6
CONTINUOUS
 10
60.8862160697
 20
217.8331968263
 11
61.7041165659
 21
218.3054118979
  0
LINE
  5
2CA
100
AcDbEntity
  8
SCHRAFFIERT
100
AcDbLine
 62
2
  6
CONTINUOUS
 10
58.9541165659
 20
226.2950489268
 11
58.9541165659
 21
217.9514949705
  0
LINE
  5
2CB
100
AcDbEntity
  8
SCHRAFFIERT
100
AcDbLine
 62
2
  6
CONTINUOUS
 10
59.3041165659
 20
221.4450489268
 11
59.3041165659
 21
222.3141088191
  0
LINE
  5
2CC
100
AcDbEntity
  8
SCHRAFFIERT
100
AcDbLine
 62
2
  6
CONTINUOUS
 10
59.4291165659
 20
222.7731022832
 11
59.4291165659
 21
222.6045825701
  0
LINE
  5
2CD
100
AcDbEntity
  8
SCHRAFFIERT
100
AcDbLine
 62
2
  6
CONTINUOUS
 10
59.4291165659
 20
222.6045825701
 11
59.4291165659
 21
222.7731022832
  0
LINE
  5
2CE
100
AcDbEntity
  8
SCHRAFFIERT
100
AcDbLine
 62
2
  6
CONTINUOUS
 10
59.4291165659
 20
222.7731022832
 11
59.4291165659
 21
226.1950489268
  0
LINE
  5
2CF
100
AcDbEntity
  8
SCHRAFFIERT
100
AcDbLine
 62
2
  6
CONTINUOUS
 10
61.7041165659
 20
218.3054118979
 11
61.7041165659
 21
219.7950489268
  0
LINE
  5
2D0
100
AcDbEntity
  8
SCHRAFFIERT
100
AcDbLine
 62
2
  6
CONTINUOUS
 10
65.7041165659
 20
219.7950489268
 11
65.7041165659
 21
218.3054118979
  0
LINE
  5
2D1
100
AcDbEntity
  8
SCHRAFFIERT
100
AcDbLine
 62
2
  6
CONTINUOUS
 10
67.9791165659
 20
226.1950489268
 11
67.9791165659
 21
222.7731022832
  0
LINE
  5
2D2
100
AcDbEntity
  8
SCHRAFFIERT
100
AcDbLine
 62
2
  6
CONTINUOUS
 10
67.9791165659
 20
222.7731022832
 11
67.9791165659
 21
222.6045825701
  0
LINE
  5
2D3
100
AcDbEntity
  8
SCHRAFFIERT
100
AcDbLine
 62
2
  6
CONTINUOUS
 10
67.9791165659
 20
222.6045825701
 11
67.9791165659
 21
222.7731022832
  0
LINE
  5
2D4
100
AcDbEntity
  8
SCHRAFFIERT
100
AcDbLine
 62
2
  6
CONTINUOUS
 10
68.1041165659
 20
222.3141088191
 11
68.1041165659
 21
221.4450489268
  0
LINE
  5
2D5
100
AcDbEntity
  8
SCHRAFFIERT
100
AcDbLine
 62
2
  6
CONTINUOUS
 10
68.4541165659
 20
217.5674351591
 11
68.4541165659
 21
226.2950489268
  0
LINE
  5
2D6
100
AcDbEntity
  8
SCHRAFFIERT
100
AcDbLine
 62
2
  6
CONTINUOUS
 10
61.7041165659
 20
219.7950489268
 11
60.4541165659
 21
221.0450489268
  0
LINE
  5
2D7
100
AcDbEntity
  8
SCHRAFFIERT
100
AcDbLine
 62
2
  6
CONTINUOUS
 10
59.4291165659
 20
226.1950489268
 11
59.3291165659
 21
226.2950489268
  0
LINE
  5
2D8
100
AcDbEntity
  8
SCHRAFFIERT
100
AcDbLine
 62
2
  6
CONTINUOUS
 10
60.2354262611
 20
218.0911533352
 11
60.8862160697
 21
217.8331968263
  0
LINE
  5
2D9
100
AcDbEntity
  8
SCHRAFFIERT
100
AcDbLine
 62
2
  6
CONTINUOUS
 10
65.7041165659
 20
218.3054118979
 11
66.6637275202
 21
217.7513802551
  0
LINE
  5
2DA
100
AcDbEntity
  8
SCHRAFFIERT
100
AcDbLine
 62
2
  6
CONTINUOUS
 10
67.7091165659
 20
222.7731022832
 11
67.9041165659
 21
222.6605189807
  0
LINE
  5
2DB
100
AcDbEntity
  8
SCHRAFFIERT
100
AcDbLine
 62
2
  6
CONTINUOUS
 10
58.9541165659
 20
217.9514949705
 11
60.2354262611
 21
218.0911533352
  0
LINE
  5
2DC
100
AcDbEntity
  8
SCHRAFFIERT
100
AcDbLine
 62
2
  6
CONTINUOUS
 10
67.7041165659
 20
221.0450489268
 11
66.9541165659
 21
221.0450489268
  0
LINE
  5
2DD
100
AcDbEntity
  8
SCHRAFFIERT
100
AcDbLine
 62
2
  6
CONTINUOUS
 10
60.4541165659
 20
221.0450489268
 11
59.7041165659
 21
221.0450489268
  0
LINE
  5
2DE
100
AcDbEntity
  8
SCHRAFFIERT
100
AcDbLine
 62
2
  6
CONTINUOUS
 10
67.9791165659
 20
222.7731022832
 11
67.7091165659
 21
222.7731022832
  0
LINE
  5
2DF
100
AcDbEntity
  8
SCHRAFFIERT
100
AcDbLine
 62
2
  6
CONTINUOUS
 10
59.6991165659
 20
222.7731022832
 11
59.4291165659
 21
222.7731022832
  0
LINE
  5
2E0
100
AcDbEntity
  8
SCHRAFFIERT
100
AcDbLine
 62
2
  6
CONTINUOUS
 10
66.6637275202
 20
217.7513802551
 11
68.4541165659
 21
217.5674351591
  0
LINE
  5
2E1
100
AcDbEntity
  8
SCHRAFFIERT
100
AcDbLine
 62
2
  6
CONTINUOUS
 10
68.4541165659
 20
226.2950489268
 11
68.0791165659
 21
226.2950489268
  0
LINE
  5
2E2
100
AcDbEntity
  8
SCHRAFFIERT
100
AcDbLine
 62
2
  6
CONTINUOUS
 10
59.3291165659
 20
226.2950489268
 11
58.9541165659
 21
226.2950489268
  0
ARC
  5
2E3
100
AcDbEntity
  8
SCHRAFFIERT
100
AcDbCircle
 62
2
  6
CONTINUOUS
 10
59.7041165659
 20
221.4450489268
 40
0.4
100
AcDbArc
 50
180.0
 51
270.0
  0
ARC
  5
2E4
100
AcDbEntity
  8
SCHRAFFIERT
100
AcDbCircle
 62
2
  6
CONTINUOUS
 10
59.7041165659
 20
222.3141088191
 40
0.4
100
AcDbArc
 50
133.4325365578
 51
180.0
  0
ARC
  5
2E5
100
AcDbEntity
  8
SCHRAFFIERT
100
AcDbCircle
 62
2
  6
CONTINUOUS
 10
59.7041165659
 20
222.3141088191
 40
0.4
100
AcDbArc
 50
120.0
 51
133.4325365578
  0
ARC
  5
2E6
100
AcDbEntity
  8
SCHRAFFIERT
100
AcDbCircle
 62
2
  6
CONTINUOUS
 10
67.7041165659
 20
222.3141088191
 40
0.4
100
AcDbArc
 50
46.5674634422
 51
60.0
  0
ARC
  5
2E7
100
AcDbEntity
  8
SCHRAFFIERT
100
AcDbCircle
 62
2
  6
CONTINUOUS
 10
67.7041165659
 20
222.3141088191
 40
0.4
100
AcDbArc
 50
0.0
 51
46.5674634422
  0
ARC
  5
2E8
100
AcDbEntity
  8
SCHRAFFIERT
100
AcDbCircle
 62
2
  6
CONTINUOUS
 10
67.7041165659
 20
221.4450489268
 40
0.4
100
AcDbArc
 50
270.0
 51
360.0
  0
HATCH
  5
2E9
100
AcDbEntity
  8
SCHRAFFIERT
100
AcDbHatch
 62
4
  6
CONTINUOUS
 10
0.0
 20
0.0
 30
0.0
210
0.0
220
0.0
230
1.0
  2
ANSI31
 70
0
 71
1
 91
1
 92
1
 93
15
 72
2
 10
67.7041165659
 20
222.3141088191
 40
0.4
 50
0.0
 51
46.5674634422
 73
1
 72
1
 10
68.1041165659
 20
222.3141088191
 11
68.1041165659
 21
221.4450489268
 72
2
 10
67.7041165659
 20
221.4450489268
 40
0.4
 50
270.0
 51
360.0
 73
1
 72
1
 10
67.7041165659
 20
221.0450489268
 11
66.9541165659
 21
221.0450489268
 72
1
 10
66.9541165659
 20
221.0450489268
 11
65.7041165659
 21
219.7950489268
 72
1
 10
65.7041165659
 20
219.7950489268
 11
65.7041165659
 21
218.3054118979
 72
1
 10
65.7041165659
 20
218.3054118979
 11
66.6637275202
 21
217.7513802551
 72
1
 10
66.6637275202
 20
217.7513802551
 11
68.4541165659
 21
217.5674351591
 72
1
 10
68.4541165659
 20
217.5674351591
 11
68.4541165659
 21
226.2950489268
 72
1
 10
68.4541165659
 20
226.2950489268
 11
68.0791165659
 21
226.2950489268
 72
1
 10
68.0791165659
 20
226.2950489268
 11
67.9791165659
 21
226.1950489268
 72
1
 10
67.9791165659
 20
226.1950489268
 11
67.9791165659
 21
222.7731022832
 72
1
 10
67.9791165659
 20
222.7731022832
 11
67.7091165659
 21
222.7731022832
 72
1
 10
67.7091165659
 20
222.7731022832
 11
67.9041165659
 21
222.6605189807
 72
1
 10
67.9791165659
 20
222.6045825701
 11
67.9041165659
 21
222.6605189807
 97
35
330
2C6
330
2C7
330
2C8
330
2C9
330
2CA
330
2CB
330
2CC
330
2CD
330
2CE
330
2CF
330
2D0
330
2D1
330
2D2
330
2D3
330
2D4
330
2D5
330
2D6
330
2D7
330
2D8
330
2D9
330
2DA
330
2DB
330
2DC
330
2DD
330
2DE
330
2DF
330
2E0
330
2E1
330
2E2
330
2E3
330
2E4
330
2E5
330
2E6
330
2E7
330
2E8
 75
0
 76
0
 52
45.0
 41
0.625
 77
0
 78
1
 53
45.0
 43
-5.5141399684
 44
5.5141399684
 45
-0.4419417382
 46
0.4419417382
 79
0
 98
1
 10
0.0
 20
0.0
  0
LINE
  5
2EA
100
AcDbEntity
  8
05
100
AcDbLine
 62
7
  6
CONTINUOUS
 10
59.504111209
 20
222.6605105729
 11
59.699111209
 21
222.7730938754
  0
LINE
  5
2EB
100
AcDbEntity
  8
0
100
AcDbLine
 62
2
  6
CONTINUOUS
 10
43.8758505513
 20
226.295040519
 11
43.292517218
 21
222.795040519
  0
LINE
  5
2EC
100
AcDbEntity
  8
0
100
AcDbLine
 62
2
  6
CONTINUOUS
 10
44.4591838846
 20
222.795040519
 11
43.8758505513
 21
226.295040519
  0
LINE
  5
2ED
100
AcDbEntity
  8
0
100
AcDbLine
 62
2
  6
CONTINUOUS
 10
43.292517218
 20
222.795040519
 11
44.4591838846
 21
222.795040519
  0
HATCH
  5
2EE
100
AcDbEntity
  8
0
100
AcDbHatch
 62
2
  6
CONTINUOUS
 10
0.0
 20
0.0
 30
0.0
210
0.0
220
0.0
230
1.0
  2

 70
1
 71
1
 91
1
 92
1
 93
3
 72
1
 10
43.292517218
 20
222.795040519
 11
44.4591838846
 21
222.795040519
 72
1
 10
44.4591838846
 20
222.795040519
 11
43.8758505513
 21
226.295040519
 72
1
 10
43.8758505513
 20
226.295040519
 11
43.292517218
 21
222.795040519
 97
3
330
2EB
330
2EC
330
2ED
 75
0
 76
1
 98
1
 10
0.0
 20
0.0
  0
LINE
  5
2EF
100
AcDbEntity
  8
035
100
AcDbLine
 62
7
  6
CONTINUOUS
 10
59.2217605338
 20
237.2947064347
 11
59.766611209
 21
238.2384154866
  0
LINE
  5
2F0
100
AcDbEntity
  8
05
100
AcDbLine
 62
7
  6
CONTINUOUS
 10
70.004111209
 20
231.0326228093
 11
69.704111209
 21
230.7326228093
  0
LINE
  5
2F1
100
AcDbEntity
  8
05
100
AcDbLine
 62
7
  6
CONTINUOUS
 10
68.079111209
 20
226.295040519
 11
67.979111209
 21
226.195040519
  0
LINE
  5
2F2
100
AcDbEntity
  8
05
100
AcDbLine
 62
7
  6
CONTINUOUS
 10
65.704111209
 20
219.795040519
 11
66.954111209
 21
221.045040519
  0
LINE
  5
2F3
100
AcDbEntity
  8
05
100
AcDbLine
 62
7
  6
CONTINUOUS
 10
60.8862107128
 20
217.8331884185
 11
61.704111209
 21
218.3054034901
  0
LINE
  5
2F4
100
AcDbEntity
  8
0
100
AcDbLine
 62
2
  6
CONTINUOUS
 10
137.1845430652
 20
69.6118116529
 11
140.6845430652
 21
70.1951449862
  0
LINE
  5
2F5
100
AcDbEntity
  8
0
100
AcDbLine
 62
2
  6
CONTINUOUS
 10
140.6845430652
 20
70.1951449862
 11
137.1845430652
 21
70.7784783196
  0
LINE
  5
2F6
100
AcDbEntity
  8
0
100
AcDbLine
 62
2
  6
CONTINUOUS
 10
137.1845430652
 20
70.7784783196
 11
137.1845430652
 21
69.6118116529
  0
HATCH
  5
2F7
100
AcDbEntity
  8
0
100
AcDbHatch
 62
2
  6
CONTINUOUS
 10
0.0
 20
0.0
 30
0.0
210
0.0
220
0.0
230
1.0
  2

 70
1
 71
1
 91
1
 92
1
 93
3
 72
1
 10
140.6845430652
 20
70.1951449862
 11
137.1845430652
 21
70.7784783196
 72
1
 10
137.1845430652
 20
70.7784783196
 11
137.1845430652
 21
69.6118116529
 72
1
 10
137.1845430652
 20
69.6118116529
 11
140.6845430652
 21
70.1951449862
 97
3
330
2F4
330
2F5
330
2F6
 75
0
 76
1
 98
1
 10
0.0
 20
0.0
  0
LINE
  5
2F8
100
AcDbEntity
  8
0
100
AcDbLine
 62
2
  6
CONTINUOUS
 10
123.6825547611
 20
70.1951449862
 11
127.1825547611
 21
70.7784783196
  0
LINE
  5
2F9
100
AcDbEntity
  8
0
100
AcDbLine
 62
2
  6
CONTINUOUS
 10
127.1825547611
 20
69.6118116529
 11
123.6825547611
 21
70.1951449862
  0
LINE
  5
2FA
100
AcDbEntity
  8
0
100
AcDbLine
 62
2
  6
CONTINUOUS
 10
127.1825547611
 20
70.7784783196
 11
127.1825547611
 21
69.6118116529
  0
HATCH
  5
2FB
100
AcDbEntity
  8
0
100
AcDbHatch
 62
2
  6
CONTINUOUS
 10
0.0
 20
0.0
 30
0.0
210
0.0
220
0.0
230
1.0
  2

 70
1
 71
1
 91
1
 92
1
 93
3
 72
1
 10
127.1825547611
 20
70.7784783196
 11
127.1825547611
 21
69.6118116529
 72
1
 10
127.1825547611
 20
69.6118116529
 11
123.6825547611
 21
70.1951449862
 72
1
 10
123.6825547611
 20
70.1951449862
 11
127.1825547611
 21
70.7784783196
 97
3
330
2F8
330
2F9
330
2FA
 75
0
 76
1
 98
1
 10
0.0
 20
0.0
  0
LINE
  5
2FC
100
AcDbEntity
  8
0
100
AcDbLine
 62
2
  6
CONTINUOUS
 10
127.1825547611
 20
70.1951449862
 11
137.1845430652
 21
70.1951449862
  0
LINE
  5
2FD
100
AcDbEntity
  8
0
100
AcDbLine
 62
2
  6
CONTINUOUS
 10
43.8758505513
 20
136.8449614285
 11
43.8758505513
 21
224.545040519
  0
LINE
  5
2FE
100
AcDbEntity
  8
07
100
AcDbLine
 62
7
  6
CONTINUOUS
 10
140.0844728898
 20
80.8123842193
 11
124.2826249366
 21
80.8123842193
  0
LINE
  5
2FF
100
AcDbEntity
  8
025
100
AcDbLine
 62
2
  6
CONTINUOUS
 10
140.6845430652
 20
81.4124543947
 11
123.6825547611
 21
81.4124543947
  0
LINE
  5
300
100
AcDbEntity
  8
0
100
AcDbLine
 62
2
  6
CONTINUOUS
 10
43.8758505513
 20
135.0949614285
 11
43.292517218
 21
138.5949614285
  0
LINE
  5
301
100
AcDbEntity
  8
0
100
AcDbLine
 62
2
  6
CONTINUOUS
 10
44.4591838846
 20
138.5949614285
 11
43.8758505513
 21
135.0949614285
  0
LINE
  5
302
100
AcDbEntity
  8
0
100
AcDbLine
 62
2
  6
CONTINUOUS
 10
43.292517218
 20
138.5949614285
 11
44.4591838846
 21
138.5949614285
  0
HATCH
  5
303
100
AcDbEntity
  8
0
100
AcDbHatch
 62
2
  6
CONTINUOUS
 10
0.0
 20
0.0
 30
0.0
210
0.0
220
0.0
230
1.0
  2

 70
1
 71
1
 91
1
 92
1
 93
3
 72
1
 10
43.292517218
 20
138.5949614285
 11
44.4591838846
 21
138.5949614285
 72
1
 10
44.4591838846
 20
138.5949614285
 11
43.8758505513
 21
135.0949614285
 72
1
 10
43.8758505513
 20
135.0949614285
 11
43.292517218
 21
138.5949614285
 97
3
330
300
330
301
330
302
 75
0
 76
1
 98
1
 10
0.0
 20
0.0
  0
LINE
  5
304
100
AcDbEntity
  8
0
100
AcDbLine
 62
2
  6
CONTINUOUS
 10
56.4556930561
 20
182.5553774685
 11
56.4556930561
 21
183.7220441351
  0
LINE
  5
305
100
AcDbEntity
  8
0
100
AcDbLine
 62
2
  6
CONTINUOUS
 10
56.4556930561
 20
183.7220441351
 11
59.9556930561
 21
183.1387108018
  0
LINE
  5
306
100
AcDbEntity
  8
0
100
AcDbLine
 62
2
  6
CONTINUOUS
 10
59.9556930561
 20
183.1387108018
 11
56.4556930561
 21
182.5553774685
  0
HATCH
  5
307
100
AcDbEntity
  8
0
100
AcDbHatch
 62
2
  6
CONTINUOUS
 10
0.0
 20
0.0
 30
0.0
210
0.0
220
0.0
230
1.0
  2

 70
1
 71
1
 91
1
 92
1
 93
3
 72
1
 10
56.4556930561
 20
183.7220441351
 11
59.9556930561
 21
183.1387108018
 72
1
 10
59.9556930561
 20
183.1387108018
 11
56.4556930561
 21
182.5553774685
 72
1
 10
56.4556930561
 20
182.5553774685
 11
56.4556930561
 21
183.7220441351
 97
3
330
304
330
305
330
306
 75
0
 76
1
 98
1
 10
0.0
 20
0.0
  0
LINE
  5
308
100
AcDbEntity
  8
05
100
AcDbLine
 62
7
  6
CONTINUOUS
 10
57.404111209
 20
231.0326228093
 11
57.404111209
 21
234.4326228093
  0
LINE
  5
309
100
AcDbEntity
  8
05
100
AcDbLine
 62
7
  6
CONTINUOUS
 10
120.1835489132
 20
247.6910674236
 11
119.5835489132
 21
247.0910674236
  0
LINE
  5
30A
100
AcDbEntity
  8
05
100
AcDbLine
 62
7
  6
CONTINUOUS
 10
123.6835489982
 20
227.8159028681
 11
124.549574402
 21
228.3159028681
  0
LINE
  5
30B
100
AcDbEntity
  8
0
100
AcDbLine
 62
2
  6
CONTINUOUS
 10
133.4341044687
 20
104.8932101298
 11
136.9341044687
 21
105.4765434632
  0
LINE
  5
30C
100
AcDbEntity
  8
0
100
AcDbLine
 62
2
  6
CONTINUOUS
 10
136.9341044687
 20
105.4765434632
 11
133.4341044687
 21
106.0598767965
  0
LINE
  5
30D
100
AcDbEntity
  8
0
100
AcDbLine
 62
2
  6
CONTINUOUS
 10
133.4341044687
 20
106.0598767965
 11
133.4341044687
 21
104.8932101298
  0
HATCH
  5
30E
100
AcDbEntity
  8
0
100
AcDbHatch
 62
2
  6
CONTINUOUS
 10
0.0
 20
0.0
 30
0.0
210
0.0
220
0.0
230
1.0
  2

 70
1
 71
1
 91
1
 92
1
 93
3
 72
1
 10
136.9341044687
 20
105.4765434632
 11
133.4341044687
 21
106.0598767965
 72
1
 10
133.4341044687
 20
106.0598767965
 11
133.4341044687
 21
104.8932101298
 72
1
 10
133.4341044687
 20
104.8932101298
 11
136.9341044687
 21
105.4765434632
 97
3
330
30B
330
30C
330
30D
 75
0
 76
1
 98
1
 10
0.0
 20
0.0
  0
LINE
  5
30F
100
AcDbEntity
  8
025
100
AcDbLine
 62
2
  6
CONTINUOUS
 10
123.6825547611
 20
90.2134836345
 11
140.6845430652
 21
90.2134836345
  0
LINE
  5
310
100
AcDbEntity
  8
07
100
AcDbLine
 62
7
  6
CONTINUOUS
 10
140.0844728898
 20
90.8135538099
 11
124.2826249366
 21
90.8135538099
  0
LINE
  5
311
100
AcDbEntity
  8
07
100
AcDbLine
 62
7
  6
CONTINUOUS
 10
135.6835489132
 20
92.5632321725
 11
128.6835489132
 21
92.5632321725
  0
LINE
  5
312
100
AcDbEntity
  8
025
100
AcDbLine
 62
2
  6
CONTINUOUS
 10
136.9341044687
 20
93.813787728
 11
127.4329933576
 21
93.813787728
  0
LINE
  5
313
100
AcDbEntity
  8
025
100
AcDbLine
 62
2
  6
CONTINUOUS
 10
136.9341044687
 20
97.8144894824
 11
127.4329933576
 21
97.8144894824
  0
LINE
  5
314
100
AcDbEntity
  8
07
100
AcDbLine
 62
7
  6
CONTINUOUS
 10
135.9341044687
 20
98.8144894824
 11
128.4329933576
 21
98.8144894824
  0
LINE
  5
315
100
AcDbEntity
  8
07
100
AcDbLine
 62
7
  6
CONTINUOUS
 10
59.7536492207
 20
119.0930900834
 11
59.453614133
 21
119.3931251712
  0
LINE
  5
316
100
AcDbEntity
  8
05
100
AcDbLine
 62
7
  6
CONTINUOUS
 10
58.9595720963
 20
228.7326228093
 11
59.0634720848
 21
227.5450405065
  0
LINE
  5
317
100
AcDbEntity
  8
SCHRAFFIERT
100
AcDbLine
 62
2
  6
CONTINUOUS
 10
68.4541165659
 20
142.5674944532
 11
68.4140121973
 21
143.3327313915
  0
LINE
  5
318
100
AcDbEntity
  8
SCHRAFFIERT
100
AcDbLine
 62
2
  6
CONTINUOUS
 10
65.7041165659
 20
143.0846068652
 11
65.7041165659
 21
141.5949698363
  0
LINE
  5
319
100
AcDbEntity
  8
SCHRAFFIERT
100
AcDbLine
 62
2
  6
CONTINUOUS
 10
67.9546136419
 20
138.7640586734
 11
67.9546136419
 21
136.509116606
  0
LINE
  5
31A
100
AcDbEntity
  8
SCHRAFFIERT
100
AcDbLine
 62
2
  6
CONTINUOUS
 10
67.9791165659
 20
136.4949698363
 11
67.9791165659
 21
136.1617985834
  0
LINE
  5
31B
100
AcDbEntity
  8
SCHRAFFIERT
100
AcDbLine
 62
2
  6
CONTINUOUS
 10
67.9791165659
 20
136.1617985834
 11
67.9791165659
 21
135.1949698363
  0
LINE
  5
31C
100
AcDbEntity
  8
SCHRAFFIERT
100
AcDbLine
 62
2
  6
CONTINUOUS
 10
68.1041165659
 20
139.9449698363
 11
68.1041165659
 21
139.0759099439
  0
LINE
  5
31D
100
AcDbEntity
  8
SCHRAFFIERT
100
AcDbLine
 62
2
  6
CONTINUOUS
 10
68.4541165659
 20
135.0949698363
 11
68.4541165659
 21
136.336375112
  0
LINE
  5
31E
100
AcDbEntity
  8
SCHRAFFIERT
100
AcDbLine
 62
2
  6
CONTINUOUS
 10
68.4541165659
 20
136.336375112
 11
68.4541165659
 21
142.5674944532
  0
LINE
  5
31F
100
AcDbEntity
  8
SCHRAFFIERT
100
AcDbLine
 62
2
  6
CONTINUOUS
 10
67.9791165659
 20
135.1949698363
 11
68.0791165659
 21
135.0949698363
  0
LINE
  5
320
100
AcDbEntity
  8
SCHRAFFIERT
100
AcDbLine
 62
2
  6
CONTINUOUS
 10
67.9546136419
 20
136.509116606
 11
67.9791165659
 21
136.4949698363
  0
LINE
  5
321
100
AcDbEntity
  8
SCHRAFFIERT
100
AcDbLine
 62
2
  6
CONTINUOUS
 10
65.7041165659
 20
141.5949698363
 11
66.9541165659
 21
140.3449698363
  0
LINE
  5
322
100
AcDbEntity
  8
SCHRAFFIERT
100
AcDbLine
 62
2
  6
CONTINUOUS
 10
66.6637275202
 20
143.6386385079
 11
65.7041165659
 21
143.0846068652
  0
LINE
  5
323
100
AcDbEntity
  8
SCHRAFFIERT
100
AcDbLine
 62
2
  6
CONTINUOUS
 10
68.0791165659
 20
135.0949698363
 11
68.2046428817
 21
135.0949698363
  0
LINE
  5
324
100
AcDbEntity
  8
SCHRAFFIERT
100
AcDbLine
 62
2
  6
CONTINUOUS
 10
68.2046428817
 20
135.0949698363
 11
68.4541165659
 21
135.0949698363
  0
LINE
  5
325
100
AcDbEntity
  8
SCHRAFFIERT
100
AcDbLine
 62
2
  6
CONTINUOUS
 10
67.2903219929
 20
143.4547184576
 11
66.6637275202
 21
143.6386385079
  0
LINE
  5
326
100
AcDbEntity
  8
SCHRAFFIERT
100
AcDbLine
 62
2
  6
CONTINUOUS
 10
68.4541165659
 20
136.336375112
 11
67.9791165659
 21
136.1617985834
  0
LINE
  5
327
100
AcDbEntity
  8
SCHRAFFIERT
100
AcDbLine
 62
2
  6
CONTINUOUS
 10
67.9791165659
 20
136.1617985834
 11
68.4541165659
 21
136.336375112
  0
LINE
  5
328
100
AcDbEntity
  8
SCHRAFFIERT
100
AcDbLine
 62
2
  6
CONTINUOUS
 10
66.9541165659
 20
140.3449698363
 11
67.7041165659
 21
140.3449698363
  0
LINE
  5
329
100
AcDbEntity
  8
SCHRAFFIERT
100
AcDbLine
 62
2
  6
CONTINUOUS
 10
68.4140121973
 20
143.3327313915
 11
67.2903219929
 21
143.4547184576
  0
ARC
  5
32A
100
AcDbEntity
  8
SCHRAFFIERT
100
AcDbCircle
 62
2
  6
CONTINUOUS
 10
67.7041165659
 20
139.9449698363
 40
0.4
100
AcDbArc
 50
0.0
 51
90.0
  0
ARC
  5
32B
100
AcDbEntity
  8
SCHRAFFIERT
100
AcDbCircle
 62
2
  6
CONTINUOUS
 10
67.7041165659
 20
139.0759099439
 40
0.4
100
AcDbArc
 50
308.7734558361
 51
360.0
  0
HATCH
  5
32C
100
AcDbEntity
  8
SCHRAFFIERT
100
AcDbHatch
 62
4
  6
CONTINUOUS
 10
0.0
 20
0.0
 30
0.0
210
0.0
220
0.0
230
1.0
  2
ANSI31
 70
0
 71
1
 91
1
 92
1
 93
2
 72
1
 10
68.4541165659
 20
136.336375112
 11
67.9791165659
 21
136.1617985834
 72
1
 10
67.9791165659
 20
136.1617985834
 11
68.4541165659
 21
136.336375112
 97
21
330
317
330
318
330
319
330
31A
330
31B
330
31C
330
31D
330
31E
330
31F
330
320
330
321
330
322
330
323
330
324
330
325
330
326
330
327
330
328
330
329
330
32A
330
32B
 75
0
 76
0
 52
45.0
 41
0.625
 77
0
 78
1
 53
45.0
 43
-2.0888671477
 44
2.0888671477
 45
-0.4419417382
 46
0.4419417382
 79
0
 98
1
 10
0.0
 20
0.0
  0
LINE
  5
32D
100
AcDbEntity
  8
05
100
AcDbLine
 62
7
  6
CONTINUOUS
 10
59.3541721263
 20
192.3915505694
 11
58.954111209
 21
203.8477963257
  0
LINE
  5
32E
100
AcDbEntity
  8
05
100
AcDbLine
 62
7
  6
CONTINUOUS
 10
68.0540502917
 20
168.9984513781
 11
68.454111209
 21
157.5422056218
  0
LINE
  5
32F
100
AcDbEntity
  8
SCHRAFFIERT
100
AcDbLine
 62
2
  6
CONTINUOUS
 10
57.529111209
 20
234.5576228093
 11
57.529111209
 21
230.9076228093
  0
LINE
  5
330
100
AcDbEntity
  8
05
100
AcDbLine
 62
7
  6
CONTINUOUS
 10
57.704111209
 20
229.1326228093
 11
57.704111209
 21
230.7326228093
  0
LINE
  5
331
100
AcDbEntity
  8
05
100
AcDbLine
 62
7
  6
CONTINUOUS
 10
57.704111209
 20
234.7326228093
 11
57.704111209
 21
235.8326228093
  0
LINE
  5
332
100
AcDbEntity
  8
SCHRAFFIERT
100
AcDbLine
 62
2
  6
CONTINUOUS
 10
57.779111209
 20
234.7326228093
 11
57.779111209
 21
230.7326228093
  0
LINE
  5
333
100
AcDbEntity
  8
SCHRAFFIERT
100
AcDbLine
 62
2
  6
CONTINUOUS
 10
58.129111209
 20
234.7326228093
 11
58.129111209
 21
230.7326228093
  0
LINE
  5
334
100
AcDbEntity
  8
SCHRAFFIERT
100
AcDbLine
 62
2
  6
CONTINUOUS
 10
58.629111209
 20
234.7326228093
 11
58.629111209
 21
230.7326228093
  0
LINE
  5
335
100
AcDbEntity
  8
07
100
AcDbLine
 62
7
  6
CONTINUOUS
 10
58.9535556534
 20
134.8449321887
 11
58.9535556534
 21
124.2427976858
  0
LINE
  5
336
100
AcDbEntity
  8
05
100
AcDbLine
 62
7
  6
CONTINUOUS
 10
58.954111209
 20
226.295040519
 11
58.954111209
 21
203.8477963257
  0
LINE
  5
337
100
AcDbEntity
  8
05
100
AcDbLine
 62
7
  6
CONTINUOUS
 10
58.954111209
 20
135.0949614285
 11
58.954111209
 21
157.5422056218
  0
LINE
  5
338
100
AcDbEntity
  8
05
100
AcDbLine
 62
7
  6
CONTINUOUS
 10
58.9541112565
 20
226.5450405165
 11
58.9541112565
 21
228.7134000895
  0
LINE
  5
339
100
AcDbEntity
  8
035
100
AcDbLine
 62
7
  6
CONTINUOUS
 10
59.2217605338
 20
237.2947064347
 11
59.2217605338
 21
237.0947064347
  0
LINE
  5
33A
100
AcDbEntity
  8
SCHRAFFIERT
100
AcDbLine
 62
2
  6
CONTINUOUS
 10
59.229111209
 20
234.7326228093
 11
59.229111209
 21
230.7326228093
  0
LINE
  5
33B
100
AcDbEntity
  8
05
100
AcDbLine
 62
7
  6
CONTINUOUS
 10
59.304111209
 20
222.3141004114
 11
59.304111209
 21
221.445040519
  0
LINE
  5
33C
100
AcDbEntity
  8
010
100
AcDbLine
 62
2
  6
CONTINUOUS
 10
59.429111209
 20
222.7730938754
 11
59.429111209
 21
222.6045741623
  0
LINE
  5
33D
100
AcDbEntity
  8
05
100
AcDbLine
 62
7
  6
CONTINUOUS
 10
59.429111209
 20
222.7730938754
 11
59.429111209
 21
226.295040519
  0
LINE
  5
33E
100
AcDbEntity
  8
07
100
AcDbLine
 62
7
  6
CONTINUOUS
 10
59.453614133
 20
119.3931251712
 11
59.453614133
 21
123.793639791
  0
LINE
  5
33F
100
AcDbEntity
  8
010
100
AcDbLine
 62
2
  6
CONTINUOUS
 10
59.699111209
 20
224.895040519
 11
59.699111209
 21
222.7730938754
  0
LINE
  5
340
100
AcDbEntity
  8
010
100
AcDbLine
 62
2
  6
CONTINUOUS
 10
59.7286462967
 20
119.1180930074
 11
59.7286462967
 21
124.0686719548
  0
LINE
  5
341
100
AcDbEntity
  8
05
100
AcDbLine
 62
7
  6
CONTINUOUS
 10
59.766611209
 20
236.7581441496
 11
59.766611209
 21
242.295040519
  0
LINE
  5
342
100
AcDbEntity
  8
025
100
AcDbLine
 62
2
  6
CONTINUOUS
 10
59.9556930561
 20
169.0949614285
 11
59.9556930561
 21
170.0116939523
  0
LINE
  5
343
100
AcDbEntity
  8
025
100
AcDbLine
 62
2
  6
CONTINUOUS
 10
59.9556930561
 20
170.5834865519
 11
59.9556930561
 21
171.7588380067
  0
LINE
  5
344
100
AcDbEntity
  8
025
100
AcDbLine
 62
2
  6
CONTINUOUS
 10
59.9556930561
 20
172.3306306063
 11
59.9556930561
 21
173.505982061
  0
LINE
  5
345
100
AcDbEntity
  8
025
100
AcDbLine
 62
2
  6
CONTINUOUS
 10
59.9556930561
 20
174.0777746606
 11
59.9556930561
 21
175.2531261153
  0
LINE
  5
346
100
AcDbEntity
  8
025
100
AcDbLine
 62
2
  6
CONTINUOUS
 10
59.9556930561
 20
175.8249187149
 11
59.9556930561
 21
177.0002701697
  0
LINE
  5
347
100
AcDbEntity
  8
025
100
AcDbLine
 62
2
  6
CONTINUOUS
 10
59.9556930561
 20
177.5720627693
 11
59.9556930561
 21
178.747414224
  0
LINE
  5
348
100
AcDbEntity
  8
025
100
AcDbLine
 62
2
  6
CONTINUOUS
 10
59.9556930561
 20
180.2680648764
 11
59.9556930561
 21
180.4945582784
  0
LINE
  5
349
100
AcDbEntity
  8
025
100
AcDbLine
 62
2
  6
CONTINUOUS
 10
59.9556930561
 20
181.066350878
 11
59.9556930561
 21
182.2417023327
  0
LINE
  5
34A
100
AcDbEntity
  8
025
100
AcDbLine
 62
2
  6
CONTINUOUS
 10
59.9556930561
 20
182.8134949323
 11
59.9556930561
 21
183.988846387
  0
LINE
  5
34B
100
AcDbEntity
  8
025
100
AcDbLine
 62
2
  6
CONTINUOUS
 10
59.9556930561
 20
184.5606389867
 11
59.9556930561
 21
185.7359904414
  0
LINE
  5
34C
100
AcDbEntity
  8
025
100
AcDbLine
 62
2
  6
CONTINUOUS
 10
59.9556930561
 20
186.307783041
 11
59.9556930561
 21
187.4831344957
  0
LINE
  5
34D
100
AcDbEntity
  8
025
100
AcDbLine
 62
2
  6
CONTINUOUS
 10
59.9556930561
 20
188.0549270953
 11
59.9556930561
 21
189.2302785501
  0
LINE
  5
34E
100
AcDbEntity
  8
025
100
AcDbLine
 62
2
  6
CONTINUOUS
 10
59.9556930561
 20
189.8020711497
 11
59.9556930561
 21
190.9774226044
  0
LINE
  5
34F
100
AcDbEntity
  8
025
100
AcDbLine
 62
2
  6
CONTINUOUS
 10
59.9556930561
 20
191.549215204
 11
59.9556930561
 21
192.295040519
  0
LINE
  5
350
100
AcDbEntity
  8
SCHRAFFIERT
100
AcDbLine
 62
2
  6
CONTINUOUS
 10
60.029111209
 20
234.7326228093
 11
60.029111209
 21
230.7326228093
  0
LINE
  5
351
100
AcDbEntity
  8
025
100
AcDbLine
 62
2
  6
CONTINUOUS
 10
60.2733556114
 20
170.101125801
 11
60.2733556114
 21
170.6729184006
  0
LINE
  5
352
100
AcDbEntity
  8
025
100
AcDbLine
 62
2
  6
CONTINUOUS
 10
60.2733556114
 20
171.8482698553
 11
60.2733556114
 21
172.4200624549
  0
LINE
  5
353
100
AcDbEntity
  8
025
100
AcDbLine
 62
2
  6
CONTINUOUS
 10
60.2733556114
 20
173.5954139097
 11
60.2733556114
 21
174.1672065093
  0
LINE
  5
354
100
AcDbEntity
  8
025
100
AcDbLine
 62
2
  6
CONTINUOUS
 10
60.2733556114
 20
175.342557964
 11
60.2733556114
 21
175.9143505636
  0
LINE
  5
355
100
AcDbEntity
  8
025
100
AcDbLine
 62
2
  6
CONTINUOUS
 10
60.2733556114
 20
177.0897020184
 11
60.2733556114
 21
177.661494618
  0
LINE
  5
356
100
AcDbEntity
  8
025
100
AcDbLine
 62
2
  6
CONTINUOUS
 10
60.2733556114
 20
178.8368460727
 11
60.2733556114
 21
179.0240746597
  0
LINE
  5
357
100
AcDbEntity
  8
025
100
AcDbLine
 62
2
  6
CONTINUOUS
 10
60.2733556114
 20
180.583990127
 11
60.2733556114
 21
181.1557827266
  0
LINE
  5
358
100
AcDbEntity
  8
025
100
AcDbLine
 62
2
  6
CONTINUOUS
 10
60.2733556114
 20
182.3311341814
 11
60.2733556114
 21
182.902926781
  0
LINE
  5
359
100
AcDbEntity
  8
025
100
AcDbLine
 62
2
  6
CONTINUOUS
 10
60.2733556114
 20
184.0782782357
 11
60.2733556114
 21
184.6500708353
  0
LINE
  5
35A
100
AcDbEntity
  8
025
100
AcDbLine
 62
2
  6
CONTINUOUS
 10
60.2733556114
 20
185.8254222901
 11
60.2733556114
 21
186.3972148897
  0
LINE
  5
35B
100
AcDbEntity
  8
025
100
AcDbLine
 62
2
  6
CONTINUOUS
 10
60.2733556114
 20
187.5725663444
 11
60.2733556114
 21
188.144358944
  0
LINE
  5
35C
100
AcDbEntity
  8
025
100
AcDbLine
 62
2
  6
CONTINUOUS
 10
60.2733556114
 20
189.3197103987
 11
60.2733556114
 21
189.8915029983
  0
LINE
  5
35D
100
AcDbEntity
  8
025
100
AcDbLine
 62
2
  6
CONTINUOUS
 10
60.2733556114
 20
191.0668544531
 11
60.2733556114
 21
191.6386470527
  0
LINE
  5
35E
100
AcDbEntity
  8
05
100
AcDbLine
 62
7
  6
CONTINUOUS
 10
60.791980281
 20
236.7581441496
 11
60.791980281
 21
242.7266949388
  0
LINE
  5
35F
100
AcDbEntity
  8
SCHRAFFIERT
100
AcDbLine
 62
2
  6
CONTINUOUS
 10
60.979111209
 20
234.7326228093
 11
60.979111209
 21
230.7326228093
  0
LINE
  5
360
100
AcDbEntity
  8
05
100
AcDbLine
 62
7
  6
CONTINUOUS
 10
61.704111209
 20
219.795040519
 11
61.704111209
 21
218.3054034901
  0
LINE
  5
361
100
AcDbEntity
  8
05
100
AcDbLine
 62
7
  6
CONTINUOUS
 10
61.954111209
 20
135.0949614285
 11
61.954111209
 21
133.0949614285
  0
LINE
  5
362
100
AcDbEntity
  8
SCHRAFFIERT
100
AcDbLine
 62
2
  6
CONTINUOUS
 10
62.029111209
 20
234.7326228093
 11
62.029111209
 21
230.7326228093
  0
LINE
  5
363
100
AcDbEntity
  8
05
100
AcDbLine
 62
7
  6
CONTINUOUS
 10
62.6448347993
 20
227.5450405065
 11
62.6448347993
 21
228.7134000895
  0
LINE
  5
364
100
AcDbEntity
  8
05
100
AcDbLine
 62
7
  6
CONTINUOUS
 10
63.1088117474
 20
131.0949614285
 11
63.1088117474
 21
133.5949614285
  0
LINE
  5
365
100
AcDbEntity
  8
SCHRAFFIERT
100
AcDbLine
 62
2
  6
CONTINUOUS
 10
63.229111209
 20
234.7326228093
 11
63.229111209
 21
230.7326228093
  0
LINE
  5
366
100
AcDbEntity
  8
MITTE
100
AcDbLine
 62
2
  6
CENTER
 10
63.704111209
 20
118.4558629782
 11
63.704111209
 21
243.3743587499
  0
LINE
  5
367
100
AcDbEntity
  8
SCHRAFFIERT
100
AcDbLine
 62
2
  6
CONTINUOUS
 10
64.179111209
 20
234.7326228093
 11
64.179111209
 21
230.7326228093
  0
LINE
  5
368
100
AcDbEntity
  8
05
100
AcDbLine
 62
7
  6
CONTINUOUS
 10
64.7633876187
 20
227.5450405065
 11
64.7633876187
 21
228.7134000895
  0
LINE
  5
369
100
AcDbEntity
  8
SCHRAFFIERT
100
AcDbLine
 62
2
  6
CONTINUOUS
 10
65.379111209
 20
234.7326228093
 11
65.379111209
 21
230.7326228093
  0
LINE
  5
36A
100
AcDbEntity
  8
05
100
AcDbLine
 62
7
  6
CONTINUOUS
 10
65.454111209
 20
124.96851406
 11
65.454111209
 21
124.0936748788
  0
LINE
  5
36B
100
AcDbEntity
  8
05
100
AcDbLine
 62
7
  6
CONTINUOUS
 10
65.704111209
 20
219.795040519
 11
65.704111209
 21
218.3054034901
  0
LINE
  5
36C
100
AcDbEntity
  8
07
100
AcDbLine
 62
7
  6
CONTINUOUS
 10
65.704111209
 20
131.0857851928
 11
65.704111209
 21
127.9694204928
  0
LINE
  5
36D
100
AcDbEntity
  8
010
100
AcDbLine
 62
2
  6
CONTINUOUS
 10
65.704111209
 20
127.9694204928
 11
65.704111209
 21
125.21851406
  0
LINE
  5
36E
100
AcDbEntity
  8
05
100
AcDbLine
 62
7
  6
CONTINUOUS
 10
65.704111209
 20
125.21851406
 11
65.704111209
 21
124.8788292692
  0
LINE
  5
36F
100
AcDbEntity
  8
05
100
AcDbLine
 62
7
  6
CONTINUOUS
 10
65.704111209
 20
141.5949614285
 11
65.704111209
 21
143.0845984574
  0
LINE
  5
370
100
AcDbEntity
  8
SCHRAFFIERT
100
AcDbLine
 62
2
  6
CONTINUOUS
 10
65.7041165659
 20
131.0857936005
 11
65.7041165659
 21
129.6327560028
  0
LINE
  5
371
100
AcDbEntity
  8
SCHRAFFIERT
100
AcDbLine
 62
2
  6
CONTINUOUS
 10
65.7041165659
 20
129.6327560028
 11
65.7041165659
 21
128.0941511228
  0
LINE
  5
372
100
AcDbEntity
  8
SCHRAFFIERT
100
AcDbLine
 62
2
  6
CONTINUOUS
 10
65.8293651039
 20
125.0938002456
 11
65.8293651039
 21
124.753589139
  0
LINE
  5
373
100
AcDbEntity
  8
SCHRAFFIERT
100
AcDbLine
 62
2
  6
CONTINUOUS
 10
66.0793943437
 20
127.844121883
 11
66.0793943437
 21
125.3438294854
  0
LINE
  5
374
100
AcDbEntity
  8
SCHRAFFIERT
100
AcDbLine
 62
2
  6
CONTINUOUS
 10
66.2128834449
 20
131.5945604795
 11
66.2128834449
 21
129.5695948725
  0
LINE
  5
375
100
AcDbEntity
  8
SCHRAFFIERT
100
AcDbLine
 62
2
  6
CONTINUOUS
 10
66.2128834449
 20
129.5695948725
 11
66.2128834449
 21
124.370070798
  0
LINE
  5
376
100
AcDbEntity
  8
SCHRAFFIERT
100
AcDbLine
 62
2
  6
CONTINUOUS
 10
66.2128834449
 20
124.370070798
 11
66.2128834449
 21
129.5695948725
  0
LINE
  5
377
100
AcDbEntity
  8
SCHRAFFIERT
100
AcDbLine
 62
2
  6
CONTINUOUS
 10
66.2128834449
 20
129.5695948725
 11
66.2128834449
 21
131.5945604795
  0
LINE
  5
378
100
AcDbEntity
  8
SCHRAFFIERT
100
AcDbLine
 62
2
  6
CONTINUOUS
 10
67.4295522384
 20
131.5945604795
 11
67.4295522384
 21
129.418550889
  0
LINE
  5
379
100
AcDbEntity
  8
SCHRAFFIERT
100
AcDbLine
 62
2
  6
CONTINUOUS
 10
67.4295522384
 20
129.418550889
 11
67.4295522384
 21
124.370070798
  0
LINE
  5
37A
100
AcDbEntity
  8
SCHRAFFIERT
100
AcDbLine
 62
2
  6
CONTINUOUS
 10
67.4295522384
 20
124.370070798
 11
67.4295522384
 21
129.418550889
  0
LINE
  5
37B
100
AcDbEntity
  8
SCHRAFFIERT
100
AcDbLine
 62
2
  6
CONTINUOUS
 10
67.4295522384
 20
129.418550889
 11
67.4295522384
 21
131.5945604795
  0
LINE
  5
37C
100
AcDbEntity
  8
SCHRAFFIERT
100
AcDbLine
 62
2
  6
CONTINUOUS
 10
67.7360940818
 20
124.4972625177
 11
67.7360940818
 21
125.6928646833
  0
LINE
  5
37D
100
AcDbEntity
  8
SCHRAFFIERT
100
AcDbLine
 62
2
  6
CONTINUOUS
 10
67.7360940818
 20
130.2717665942
 11
67.7360940818
 21
131.4673687598
  0
LINE
  5
37E
100
AcDbEntity
  8
SCHRAFFIERT
100
AcDbLine
 62
2
  6
CONTINUOUS
 10
67.8187686996
 20
130.2717665942
 11
67.8187686996
 21
129.3702314079
  0
LINE
  5
37F
100
AcDbEntity
  8
SCHRAFFIERT
100
AcDbLine
 62
2
  6
CONTINUOUS
 10
67.8187686996
 20
129.3702314079
 11
67.8187686996
 21
125.6928646833
  0
LINE
  5
380
100
AcDbEntity
  8
SCHRAFFIERT
100
AcDbLine
 62
2
  6
CONTINUOUS
 10
67.8187686996
 20
125.6928646833
 11
67.8187686996
 21
129.3702314079
  0
LINE
  5
381
100
AcDbEntity
  8
SCHRAFFIERT
100
AcDbLine
 62
2
  6
CONTINUOUS
 10
67.8187686996
 20
129.3702314079
 11
67.8187686996
 21
130.2717665942
  0
LINE
  5
382
100
AcDbEntity
  8
SCHRAFFIERT
100
AcDbLine
 62
2
  6
CONTINUOUS
 10
68.143107585
 20
125.9472481228
 11
68.143107585
 21
129.3299661874
  0
LINE
  5
383
100
AcDbEntity
  8
SCHRAFFIERT
100
AcDbLine
 62
2
  6
CONTINUOUS
 10
68.143107585
 20
129.3299661874
 11
68.143107585
 21
130.0173831547
  0
LINE
  5
384
100
AcDbEntity
  8
SCHRAFFIERT
100
AcDbLine
 62
2
  6
CONTINUOUS
 10
65.8293651039
 20
124.753589139
 11
66.2128834449
 21
124.370070798
  0
LINE
  5
385
100
AcDbEntity
  8
SCHRAFFIERT
100
AcDbLine
 62
2
  6
CONTINUOUS
 10
65.8293651039
 20
128.0941511228
 11
66.0793943437
 21
127.844121883
  0
LINE
  5
386
100
AcDbEntity
  8
SCHRAFFIERT
100
AcDbLine
 62
2
  6
CONTINUOUS
 10
68.143107585
 20
130.0173831547
 11
67.8887241455
 21
130.2717665942
  0
LINE
  5
387
100
AcDbEntity
  8
SCHRAFFIERT
100
AcDbLine
 62
2
  6
CONTINUOUS
 10
67.7360940818
 20
131.4673687598
 11
67.6089023621
 21
131.5945604795
  0
LINE
  5
388
100
AcDbEntity
  8
SCHRAFFIERT
100
AcDbLine
 62
2
  6
CONTINUOUS
 10
66.2128834449
 20
124.370070798
 11
66.6676836359
 21
124.370070798
  0
LINE
  5
389
100
AcDbEntity
  8
SCHRAFFIERT
100
AcDbLine
 62
2
  6
CONTINUOUS
 10
66.6676836359
 20
124.370070798
 11
67.4295522384
 21
124.370070798
  0
LINE
  5
38A
100
AcDbEntity
  8
SCHRAFFIERT
100
AcDbLine
 62
2
  6
CONTINUOUS
 10
67.4295522384
 20
124.370070798
 11
67.6089023621
 21
124.370070798
  0
LINE
  5
38B
100
AcDbEntity
  8
SCHRAFFIERT
100
AcDbLine
 62
2
  6
CONTINUOUS
 10
68.143107585
 20
129.3299661874
 11
67.8187686996
 21
129.3702314079
  0
LINE
  5
38C
100
AcDbEntity
  8
SCHRAFFIERT
100
AcDbLine
 62
2
  6
CONTINUOUS
 10
67.8187686996
 20
129.3702314079
 11
67.4295522384
 21
129.418550889
  0
LINE
  5
38D
100
AcDbEntity
  8
SCHRAFFIERT
100
AcDbLine
 62
2
  6
CONTINUOUS
 10
67.4295522384
 20
129.418550889
 11
66.2128834449
 21
129.5695948725
  0
LINE
  5
38E
100
AcDbEntity
  8
SCHRAFFIERT
100
AcDbLine
 62
2
  6
CONTINUOUS
 10
66.2128834449
 20
129.5695948725
 11
65.7041165659
 21
129.6327560028
  0
LINE
  5
38F
100
AcDbEntity
  8
SCHRAFFIERT
100
AcDbLine
 62
2
  6
CONTINUOUS
 10
65.7041165659
 20
129.6327560028
 11
66.2128834449
 21
129.5695948725
  0
LINE
  5
390
100
AcDbEntity
  8
SCHRAFFIERT
100
AcDbLine
 62
2
  6
CONTINUOUS
 10
66.2128834449
 20
129.5695948725
 11
67.4295522384
 21
129.418550889
  0
LINE
  5
391
100
AcDbEntity
  8
SCHRAFFIERT
100
AcDbLine
 62
2
  6
CONTINUOUS
 10
67.4295522384
 20
129.418550889
 11
67.8187686996
 21
129.3702314079
  0
LINE
  5
392
100
AcDbEntity
  8
SCHRAFFIERT
100
AcDbLine
 62
2
  6
CONTINUOUS
 10
67.8187686996
 20
129.3702314079
 11
68.143107585
 21
129.3299661874
  0
LINE
  5
393
100
AcDbEntity
  8
SCHRAFFIERT
100
AcDbLine
 62
2
  6
CONTINUOUS
 10
66.2128834449
 20
131.5945604795
 11
65.7041165659
 21
131.0857936005
  0
LINE
  5
394
100
AcDbEntity
  8
SCHRAFFIERT
100
AcDbLine
 62
2
  6
CONTINUOUS
 10
66.0793943437
 20
125.3438294854
 11
65.8293651039
 21
125.0938002456
  0
LINE
  5
395
100
AcDbEntity
  8
SCHRAFFIERT
100
AcDbLine
 62
2
  6
CONTINUOUS
 10
67.8187686996
 20
125.6928646833
 11
67.8887241455
 21
125.6928646833
  0
LINE
  5
396
100
AcDbEntity
  8
SCHRAFFIERT
100
AcDbLine
 62
2
  6
CONTINUOUS
 10
67.7360940818
 20
125.6928646833
 11
67.8187686996
 21
125.6928646833
  0
LINE
  5
397
100
AcDbEntity
  8
SCHRAFFIERT
100
AcDbLine
 62
2
  6
CONTINUOUS
 10
65.7041165659
 20
128.0941511228
 11
65.8293651039
 21
128.0941511228
  0
LINE
  5
398
100
AcDbEntity
  8
SCHRAFFIERT
100
AcDbLine
 62
2
  6
CONTINUOUS
 10
67.8187686996
 20
130.2717665942
 11
67.7360940818
 21
130.2717665942
  0
LINE
  5
399
100
AcDbEntity
  8
SCHRAFFIERT
100
AcDbLine
 62
2
  6
CONTINUOUS
 10
67.8887241455
 20
130.2717665942
 11
67.8187686996
 21
130.2717665942
  0
LINE
  5
39A
100
AcDbEntity
  8
SCHRAFFIERT
100
AcDbLine
 62
2
  6
CONTINUOUS
 10
67.6089023621
 20
131.5945604795
 11
67.4295522384
 21
131.5945604795
  0
LINE
  5
39B
100
AcDbEntity
  8
SCHRAFFIERT
100
AcDbLine
 62
2
  6
CONTINUOUS
 10
67.4295522384
 20
131.5945604795
 11
66.2128834449
 21
131.5945604795
  0
LINE
  5
39C
100
AcDbEntity
  8
SCHRAFFIERT
100
AcDbLine
 62
2
  6
CONTINUOUS
 10
67.8887241455
 20
125.6928646833
 11
68.143107585
 21
125.9472481228
  0
LINE
  5
39D
100
AcDbEntity
  8
SCHRAFFIERT
100
AcDbLine
 62
2
  6
CONTINUOUS
 10
67.6089023621
 20
124.370070798
 11
67.7360940818
 21
124.4972625177
  0
LINE
  5
39E
100
AcDbEntity
  8
SCHRAFFIERT
100
AcDbLine
 62
2
  6
CONTINUOUS
 10
65.7041165659
 20
127.9694289006
 11
65.7041165659
 21
125.2185224678
  0
LINE
  5
39F
100
AcDbEntity
  8
SCHRAFFIERT
100
AcDbLine
 62
2
  6
CONTINUOUS
 10
66.0793943437
 20
125.5938002456
 11
66.0793943437
 21
127.5941511228
  0
LINE
  5
3A0
100
AcDbEntity
  8
SCHRAFFIERT
100
AcDbLine
 62
2
  6
CONTINUOUS
 10
67.6795814782
 20
124.0686803626
 11
67.6795814782
 21
119.8106383877
  0
LINE
  5
3A1
100
AcDbEntity
  8
SCHRAFFIERT
100
AcDbLine
 62
2
  6
CONTINUOUS
 10
67.6795814782
 20
119.8106383877
 11
67.6795814782
 21
119.1181014152
  0
LINE
  5
3A2
100
AcDbEntity
  8
SCHRAFFIERT
100
AcDbLine
 62
2
  6
CONTINUOUS
 10
67.9546136419
 20
119.3931335789
 11
67.9546136419
 21
119.6538422713
  0
LINE
  5
3A3
100
AcDbEntity
  8
SCHRAFFIERT
100
AcDbLine
 62
2
  6
CONTINUOUS
 10
67.9546136419
 20
119.6538422713
 11
67.9546136419
 21
123.7936481988
  0
LINE
  5
3A4
100
AcDbEntity
  8
SCHRAFFIERT
100
AcDbLine
 62
2
  6
CONTINUOUS
 10
67.9546136419
 20
119.6538422713
 11
67.6795814782
 21
119.8106383877
  0
LINE
  5
3A5
100
AcDbEntity
  8
SCHRAFFIERT
100
AcDbLine
 62
2
  6
CONTINUOUS
 10
67.6795814782
 20
119.8106383877
 11
67.9546136419
 21
119.6538422713
  0
LINE
  5
3A6
100
AcDbEntity
  8
SCHRAFFIERT
100
AcDbLine
 62
2
  6
CONTINUOUS
 10
67.9546136419
 20
123.7936481988
 11
67.6795814782
 21
124.0686803626
  0
LINE
  5
3A7
100
AcDbEntity
  8
SCHRAFFIERT
100
AcDbLine
 62
2
  6
CONTINUOUS
 10
66.0793943437
 20
127.5941511228
 11
65.7041165659
 21
127.9694289006
  0
LINE
  5
3A8
100
AcDbEntity
  8
SCHRAFFIERT
100
AcDbLine
 62
2
  6
CONTINUOUS
 10
65.7041165659
 20
125.2185224678
 11
66.0793943437
 21
125.5938002456
  0
LINE
  5
3A9
100
AcDbEntity
  8
SCHRAFFIERT
100
AcDbLine
 62
2
  6
CONTINUOUS
 10
67.6795814782
 20
119.1181014152
 11
67.9546136419
 21
119.3931335789
  0
HATCH
  5
3AA
100
AcDbEntity
  8
SCHRAFFIERT
100
AcDbHatch
 62
4
  6
CONTINUOUS
 10
0.0
 20
0.0
 30
0.0
210
0.0
220
0.0
230
1.0
  2
ANSI31
 70
0
 71
1
 91
3
 92
1
 93
4
 72
1
 10
65.7041165659
 20
125.2185224678
 11
66.0793943437
 21
125.5938002456
 72
1
 10
66.0793943437
 20
125.5938002456
 11
66.0793943437
 21
127.5941511228
 72
1
 10
66.0793943437
 20
127.5941511228
 11
65.7041165659
 21
127.9694289006
 72
1
 10
65.7041165659
 20
127.9694289006
 11
65.7041165659
 21
125.2185224678
 97
12
330
39E
330
39F
330
3A0
330
3A1
330
3A2
330
3A3
330
3A4
330
3A5
330
3A6
330
3A7
330
3A8
330
3A9
 92
1
 93
6
 72
1
 10
67.9546136419
 20
119.6538422713
 11
67.9546136419
 21
123.7936481988
 72
1
 10
67.9546136419
 20
123.7936481988
 11
67.6795814782
 21
124.0686803626
 72
1
 10
67.6795814782
 20
124.0686803626
 11
67.6795814782
 21
119.8106383877
 72
1
 10
67.6795814782
 20
119.8106383877
 11
67.6795814782
 21
119.1181014152
 72
1
 10
67.6795814782
 20
119.1181014152
 11
67.9546136419
 21
119.3931335789
 72
1
 10
67.9546136419
 20
119.6538422713
 11
67.9546136419
 21
119.3931335789
 97
12
330
39E
330
39F
330
3A0
330
3A1
330
3A2
330
3A3
330
3A4
330
3A5
330
3A6
330
3A7
330
3A8
330
3A9
 92
1
 93
2
 72
1
 10
67.9546136419
 20
119.6538422713
 11
67.6795814782
 21
119.8106383877
 72
1
 10
67.6795814782
 20
119.8106383877
 11
67.9546136419
 21
119.6538422713
 97
12
330
39E
330
39F
330
3A0
330
3A1
330
3A2
330
3A3
330
3A4
330
3A5
330
3A6
330
3A7
330
3A8
330
3A9
 75
0
 76
0
 52
135.0
 41
0.625
 77
0
 78
1
 53
135.0
 43
-5.5141399684
 44
-5.5141399684
 45
-0.4419417382
 46
-0.4419417382
 79
0
 98
1
 10
0.0
 20
0.0
  0
LINE
  5
3AB
100
AcDbEntity
  8
SCHRAFFIERT
100
AcDbLine
 62
2
  6
CONTINUOUS
 10
65.9543743669
 20
140.0955462238
 11
65.9543743669
 21
131.5945520717
  0
LINE
  5
3AC
100
AcDbEntity
  8
SCHRAFFIERT
100
AcDbLine
 62
2
  6
CONTINUOUS
 10
65.9543797238
 20
140.0955546316
 11
65.9543797238
 21
136.1583736738
  0
LINE
  5
3AD
100
AcDbEntity
  8
SCHRAFFIERT
100
AcDbLine
 62
2
  6
CONTINUOUS
 10
65.9543797238
 20
136.1583736738
 11
65.9543797238
 21
131.5945604795
  0
LINE
  5
3AE
100
AcDbEntity
  8
SCHRAFFIERT
100
AcDbLine
 62
2
  6
CONTINUOUS
 10
67.7045844021
 20
140.0955546316
 11
67.7045844021
 21
137.0240857202
  0
LINE
  5
3AF
100
AcDbEntity
  8
SCHRAFFIERT
100
AcDbLine
 62
2
  6
CONTINUOUS
 10
67.7045844021
 20
137.0240857202
 11
67.7045844021
 21
135.0949698363
  0
LINE
  5
3B0
100
AcDbEntity
  8
SCHRAFFIERT
100
AcDbLine
 62
2
  6
CONTINUOUS
 10
67.7045844021
 20
135.0949698363
 11
67.7045844021
 21
137.0240857202
  0
LINE
  5
3B1
100
AcDbEntity
  8
SCHRAFFIERT
100
AcDbLine
 62
2
  6
CONTINUOUS
 10
67.7045844021
 20
137.0240857202
 11
67.7045844021
 21
140.0955546316
  0
LINE
  5
3B2
100
AcDbEntity
  8
SCHRAFFIERT
100
AcDbLine
 62
2
  6
CONTINUOUS
 10
67.8187686996
 20
131.5945604795
 11
67.8187686996
 21
130.2717665942
  0
LINE
  5
3B3
100
AcDbEntity
  8
SCHRAFFIERT
100
AcDbLine
 62
2
  6
CONTINUOUS
 10
67.8187686996
 20
125.6928646833
 11
67.8187686996
 21
124.0936832865
  0
LINE
  5
3B4
100
AcDbEntity
  8
SCHRAFFIERT
100
AcDbLine
 62
2
  6
CONTINUOUS
 10
67.9546136419
 20
135.0949698363
 11
67.9546136419
 21
137.1477588697
  0
LINE
  5
3B5
100
AcDbEntity
  8
SCHRAFFIERT
100
AcDbLine
 62
2
  6
CONTINUOUS
 10
67.9546136419
 20
137.1477588697
 11
67.9546136419
 21
139.8455253918
  0
LINE
  5
3B6
100
AcDbEntity
  8
SCHRAFFIERT
100
AcDbLine
 62
2
  6
CONTINUOUS
 10
68.143107585
 20
131.5945604795
 11
68.143107585
 21
130.0173831547
  0
LINE
  5
3B7
100
AcDbEntity
  8
SCHRAFFIERT
100
AcDbLine
 62
2
  6
CONTINUOUS
 10
68.143107585
 20
130.0173831547
 11
68.143107585
 21
129.736501568
  0
LINE
  5
3B8
100
AcDbEntity
  8
SCHRAFFIERT
100
AcDbLine
 62
2
  6
CONTINUOUS
 10
68.143107585
 20
129.736501568
 11
68.143107585
 21
125.9472481228
  0
LINE
  5
3B9
100
AcDbEntity
  8
SCHRAFFIERT
100
AcDbLine
 62
2
  6
CONTINUOUS
 10
68.143107585
 20
125.9472481228
 11
68.143107585
 21
124.0936832865
  0
LINE
  5
3BA
100
AcDbEntity
  8
SCHRAFFIERT
100
AcDbLine
 62
2
  6
CONTINUOUS
 10
68.143107585
 20
124.0936832865
 11
68.143107585
 21
125.9472481228
  0
LINE
  5
3BB
100
AcDbEntity
  8
SCHRAFFIERT
100
AcDbLine
 62
2
  6
CONTINUOUS
 10
68.143107585
 20
130.0173831547
 11
68.143107585
 21
131.5945604795
  0
LINE
  5
3BC
100
AcDbEntity
  8
SCHRAFFIERT
100
AcDbLine
 62
2
  6
CONTINUOUS
 10
68.4546721214
 20
124.2428060936
 11
68.4546721214
 21
129.7401788323
  0
LINE
  5
3BD
100
AcDbEntity
  8
SCHRAFFIERT
100
AcDbLine
 62
2
  6
CONTINUOUS
 10
68.4546721214
 20
129.7401788323
 11
68.4546721214
 21
134.8449405965
  0
LINE
  5
3BE
100
AcDbEntity
  8
SCHRAFFIERT
100
AcDbLine
 62
2
  6
CONTINUOUS
 10
67.8887241455
 20
130.2717665942
 11
68.143107585
 21
130.0173831547
  0
LINE
  5
3BF
100
AcDbEntity
  8
SCHRAFFIERT
100
AcDbLine
 62
2
  6
CONTINUOUS
 10
68.4546721214
 20
134.8449405965
 11
68.2046428817
 21
135.0949698363
  0
LINE
  5
3C0
100
AcDbEntity
  8
SCHRAFFIERT
100
AcDbLine
 62
2
  6
CONTINUOUS
 10
67.8187686996
 20
124.0936832865
 11
68.143107585
 21
124.0936832865
  0
LINE
  5
3C1
100
AcDbEntity
  8
SCHRAFFIERT
100
AcDbLine
 62
2
  6
CONTINUOUS
 10
68.143107585
 20
124.0936832865
 11
68.3055493144
 21
124.0936832865
  0
LINE
  5
3C2
100
AcDbEntity
  8
SCHRAFFIERT
100
AcDbLine
 62
2
  6
CONTINUOUS
 10
67.9546136419
 20
139.8455253918
 11
67.7045844021
 21
140.0955546316
  0
LINE
  5
3C3
100
AcDbEntity
  8
SCHRAFFIERT
100
AcDbLine
 62
2
  6
CONTINUOUS
 10
68.4546721214
 20
129.7401788323
 11
68.143107585
 21
129.736501568
  0
LINE
  5
3C4
100
AcDbEntity
  8
SCHRAFFIERT
100
AcDbLine
 62
2
  6
CONTINUOUS
 10
68.143107585
 20
129.736501568
 11
68.4546721214
 21
129.7401788323
  0
LINE
  5
3C5
100
AcDbEntity
  8
SCHRAFFIERT
100
AcDbLine
 62
2
  6
CONTINUOUS
 10
67.8887241455
 20
125.6928646833
 11
67.8187686996
 21
125.6928646833
  0
LINE
  5
3C6
100
AcDbEntity
  8
SCHRAFFIERT
100
AcDbLine
 62
2
  6
CONTINUOUS
 10
67.8187686996
 20
130.2717665942
 11
67.8887241455
 21
130.2717665942
  0
LINE
  5
3C7
100
AcDbEntity
  8
SCHRAFFIERT
100
AcDbLine
 62
2
  6
CONTINUOUS
 10
68.143107585
 20
131.5945604795
 11
67.8187686996
 21
131.5945604795
  0
LINE
  5
3C8
100
AcDbEntity
  8
SCHRAFFIERT
100
AcDbLine
 62
2
  6
CONTINUOUS
 10
65.9543797238
 20
131.5945604795
 11
68.143107585
 21
131.5945604795
  0
LINE
  5
3C9
100
AcDbEntity
  8
SCHRAFFIERT
100
AcDbLine
 62
2
  6
CONTINUOUS
 10
68.2046428817
 20
135.0949698363
 11
67.7045844021
 21
135.0949698363
  0
LINE
  5
3CA
100
AcDbEntity
  8
SCHRAFFIERT
100
AcDbLine
 62
2
  6
CONTINUOUS
 10
67.7045844021
 20
135.0949698363
 11
67.9546136419
 21
135.0949698363
  0
LINE
  5
3CB
100
AcDbEntity
  8
SCHRAFFIERT
100
AcDbLine
 62
2
  6
CONTINUOUS
 10
68.143107585
 20
125.9472481228
 11
67.8887241455
 21
125.6928646833
  0
LINE
  5
3CC
100
AcDbEntity
  8
SCHRAFFIERT
100
AcDbLine
 62
2
  6
CONTINUOUS
 10
67.9546136419
 20
137.1477588697
 11
67.7045844021
 21
137.0240857202
  0
LINE
  5
3CD
100
AcDbEntity
  8
SCHRAFFIERT
100
AcDbLine
 62
2
  6
CONTINUOUS
 10
67.7045844021
 20
137.0240857202
 11
65.9543797238
 21
136.1583736738
  0
LINE
  5
3CE
100
AcDbEntity
  8
SCHRAFFIERT
100
AcDbLine
 62
2
  6
CONTINUOUS
 10
65.9543797238
 20
136.1583736738
 11
67.7045844021
 21
137.0240857202
  0
LINE
  5
3CF
100
AcDbEntity
  8
SCHRAFFIERT
100
AcDbLine
 62
2
  6
CONTINUOUS
 10
67.7045844021
 20
137.0240857202
 11
67.9546136419
 21
137.1477588697
  0
LINE
  5
3D0
100
AcDbEntity
  8
SCHRAFFIERT
100
AcDbLine
 62
2
  6
CONTINUOUS
 10
67.7045844021
 20
140.0955546316
 11
65.9543797238
 21
140.0955546316
  0
ARC
  5
3D1
100
AcDbEntity
  8
SCHRAFFIERT
100
AcDbCircle
 62
2
  6
CONTINUOUS
 10
68.3055493144
 20
124.2428060936
 40
0.149122807
100
AcDbArc
 50
270.0
 51
360.0
  0
HATCH
  5
3D2
100
AcDbEntity
  8
SCHRAFFIERT
100
AcDbHatch
 62
4
  6
CONTINUOUS
 10
0.0
 20
0.0
 30
0.0
210
0.0
220
0.0
230
1.0
  2
ANSI31
 70
0
 71
1
 91
3
 92
1
 93
2
 72
1
 10
68.143107585
 20
131.5945604795
 11
68.143107585
 21
130.0173831547
 72
1
 10
68.143107585
 20
130.0173831547
 11
68.143107585
 21
131.5945604795
 97
38
330
3AC
330
3AD
330
3AE
330
3AF
330
3B0
330
3B1
330
3B2
330
3B3
330
3B4
330
3B5
330
3B6
330
3B7
330
3B8
330
3B9
330
3BA
330
3BB
330
3BC
330
3BD
330
3BE
330
3BF
330
3C0
330
3C1
330
3C2
330
3C3
330
3C4
330
3C5
330
3C6
330
3C7
330
3C8
330
3C9
330
3CA
330
3CB
330
3CC
330
3CD
330
3CE
330
3CF
330
3D0
330
3D1
 92
1
 93
2
 72
1
 10
68.143107585
 20
125.9472481228
 11
68.143107585
 21
124.0936832865
 72
1
 10
68.143107585
 20
124.0936832865
 11
68.143107585
 21
125.9472481228
 97
38
330
3AC
330
3AD
330
3AE
330
3AF
330
3B0
330
3B1
330
3B2
330
3B3
330
3B4
330
3B5
330
3B6
330
3B7
330
3B8
330
3B9
330
3BA
330
3BB
330
3BC
330
3BD
330
3BE
330
3BF
330
3C0
330
3C1
330
3C2
330
3C3
330
3C4
330
3C5
330
3C6
330
3C7
330
3C8
330
3C9
330
3CA
330
3CB
330
3CC
330
3CD
330
3CE
330
3CF
330
3D0
330
3D1
 92
1
 93
2
 72
1
 10
68.4546721214
 20
129.7401788323
 11
68.143107585
 21
129.736501568
 72
1
 10
68.143107585
 20
129.736501568
 11
68.4546721214
 21
129.7401788323
 97
38
330
3AC
330
3AD
330
3AE
330
3AF
330
3B0
330
3B1
330
3B2
330
3B3
330
3B4
330
3B5
330
3B6
330
3B7
330
3B8
330
3B9
330
3BA
330
3BB
330
3BC
330
3BD
330
3BE
330
3BF
330
3C0
330
3C1
330
3C2
330
3C3
330
3C4
330
3C5
330
3C6
330
3C7
330
3C8
330
3C9
330
3CA
330
3CB
330
3CC
330
3CD
330
3CE
330
3CF
330
3D0
330
3D1
 75
0
 76
0
 52
135.0
 41
0.75
 77
0
 78
1
 53
135.0
 43
-5.5141399684
 44
-5.5141399684
 45
-0.5303300859
 46
-0.5303300859
 79
0
 98
1
 10
0.0
 20
0.0
  0
LINE
  5
3D3
100
AcDbEntity
  8
010
100
AcDbLine
 62
2
  6
CONTINUOUS
 10
66.0793889868
 20
131.4610629705
 11
66.0793889868
 21
127.594142715
  0
LINE
  5
3D4
100
AcDbEntity
  8
07
100
AcDbLine
 62
7
  6
CONTINUOUS
 10
66.0793889868
 20
127.594142715
 11
66.0793889868
 21
125.5937918378
  0
LINE
  5
3D5
100
AcDbEntity
  8
010
100
AcDbLine
 62
2
  6
CONTINUOUS
 10
66.0793889868
 20
125.5937918378
 11
66.0793889868
 21
124.5035514914
  0
LINE
  5
3D6
100
AcDbEntity
  8
SCHRAFFIERT
100
AcDbLine
 62
2
  6
CONTINUOUS
 10
66.429111209
 20
234.7326228093
 11
66.429111209
 21
230.7326228093
  0
LINE
  5
3D7
100
AcDbEntity
  8
025
100
AcDbLine
 62
2
  6
CONTINUOUS
 10
67.1348668066
 20
169.0949614285
 11
67.1348668066
 21
169.1103582231
  0
LINE
  5
3D8
100
AcDbEntity
  8
025
100
AcDbLine
 62
2
  6
CONTINUOUS
 10
67.1348668066
 20
170.2857096778
 11
67.1348668066
 21
170.8575022774
  0
LINE
  5
3D9
100
AcDbEntity
  8
025
100
AcDbLine
 62
2
  6
CONTINUOUS
 10
67.1348668066
 20
172.0328537321
 11
67.1348668066
 21
172.6046463317
  0
LINE
  5
3DA
100
AcDbEntity
  8
025
100
AcDbLine
 62
2
  6
CONTINUOUS
 10
67.1348668066
 20
173.7799977865
 11
67.1348668066
 21
174.3517903861
  0
LINE
  5
3DB
100
AcDbEntity
  8
025
100
AcDbLine
 62
2
  6
CONTINUOUS
 10
67.1348668066
 20
175.5271418408
 11
67.1348668066
 21
176.0989344404
  0
LINE
  5
3DC
100
AcDbEntity
  8
025
100
AcDbLine
 62
2
  6
CONTINUOUS
 10
67.1348668066
 20
177.3824272577
 11
67.1348668066
 21
177.8460784948
  0
LINE
  5
3DD
100
AcDbEntity
  8
025
100
AcDbLine
 62
2
  6
CONTINUOUS
 10
67.1348668066
 20
179.0214299495
 11
67.1348668066
 21
179.5932225491
  0
LINE
  5
3DE
100
AcDbEntity
  8
025
100
AcDbLine
 62
2
  6
CONTINUOUS
 10
67.1348668066
 20
180.7685740038
 11
67.1348668066
 21
181.3403666034
  0
LINE
  5
3DF
100
AcDbEntity
  8
025
100
AcDbLine
 62
2
  6
CONTINUOUS
 10
67.1348668066
 20
182.5157180582
 11
67.1348668066
 21
183.0875106578
  0
LINE
  5
3E0
100
AcDbEntity
  8
025
100
AcDbLine
 62
2
  6
CONTINUOUS
 10
67.1348668066
 20
184.2628621125
 11
67.1348668066
 21
184.8346547121
  0
LINE
  5
3E1
100
AcDbEntity
  8
025
100
AcDbLine
 62
2
  6
CONTINUOUS
 10
67.1348668066
 20
186.0100061669
 11
67.1348668066
 21
186.5817987665
  0
LINE
  5
3E2
100
AcDbEntity
  8
025
100
AcDbLine
 62
2
  6
CONTINUOUS
 10
67.1348668066
 20
187.7571502212
 11
67.1348668066
 21
188.3289428208
  0
LINE
  5
3E3
100
AcDbEntity
  8
025
100
AcDbLine
 62
2
  6
CONTINUOUS
 10
67.1348668066
 20
189.5042942755
 11
67.1348668066
 21
190.0760868751
  0
LINE
  5
3E4
100
AcDbEntity
  8
025
100
AcDbLine
 62
2
  6
CONTINUOUS
 10
67.1348668066
 20
191.2514383299
 11
67.1348668066
 21
191.8232309295
  0
LINE
  5
3E5
100
AcDbEntity
  8
SCHRAFFIERT
100
AcDbLine
 62
2
  6
CONTINUOUS
 10
67.379111209
 20
234.7326228093
 11
67.379111209
 21
230.7326228093
  0
LINE
  5
3E6
100
AcDbEntity
  8
07
100
AcDbLine
 62
7
  6
CONTINUOUS
 10
67.4295468815
 20
124.3700623902
 11
67.4295468815
 21
124.0936748788
  0
LINE
  5
3E7
100
AcDbEntity
  8
025
100
AcDbLine
 62
2
  6
CONTINUOUS
 10
67.4525293619
 20
169.1997900717
 11
67.4525293619
 21
170.3751415265
  0
LINE
  5
3E8
100
AcDbEntity
  8
025
100
AcDbLine
 62
2
  6
CONTINUOUS
 10
67.4525293619
 20
170.9469341261
 11
67.4525293619
 21
172.1222855808
  0
LINE
  5
3E9
100
AcDbEntity
  8
025
100
AcDbLine
 62
2
  6
CONTINUOUS
 10
67.4525293619
 20
172.6940781804
 11
67.4525293619
 21
173.8694296351
  0
LINE
  5
3EA
100
AcDbEntity
  8
025
100
AcDbLine
 62
2
  6
CONTINUOUS
 10
67.4525293619
 20
174.4412222347
 11
67.4525293619
 21
175.6165736895
  0
LINE
  5
3EB
100
AcDbEntity
  8
025
100
AcDbLine
 62
2
  6
CONTINUOUS
 10
67.4525293619
 20
177.2435996871
 11
67.4525293619
 21
177.3637177438
  0
LINE
  5
3EC
100
AcDbEntity
  8
025
100
AcDbLine
 62
2
  6
CONTINUOUS
 10
67.4525293619
 20
177.9355103434
 11
67.4525293619
 21
179.1108617982
  0
LINE
  5
3ED
100
AcDbEntity
  8
025
100
AcDbLine
 62
2
  6
CONTINUOUS
 10
67.4525293619
 20
179.6826543978
 11
67.4525293619
 21
180.8580058525
  0
LINE
  5
3EE
100
AcDbEntity
  8
025
100
AcDbLine
 62
2
  6
CONTINUOUS
 10
67.4525293619
 20
181.4297984521
 11
67.4525293619
 21
182.6051499068
  0
LINE
  5
3EF
100
AcDbEntity
  8
025
100
AcDbLine
 62
2
  6
CONTINUOUS
 10
67.4525293619
 20
183.1769425064
 11
67.4525293619
 21
184.3522939612
  0
LINE
  5
3F0
100
AcDbEntity
  8
025
100
AcDbLine
 62
2
  6
CONTINUOUS
 10
67.4525293619
 20
184.9240865608
 11
67.4525293619
 21
186.0994380155
  0
LINE
  5
3F1
100
AcDbEntity
  8
025
100
AcDbLine
 62
2
  6
CONTINUOUS
 10
67.4525293619
 20
186.6712306151
 11
67.4525293619
 21
187.8465820699
  0
LINE
  5
3F2
100
AcDbEntity
  8
025
100
AcDbLine
 62
2
  6
CONTINUOUS
 10
67.4525293619
 20
188.4183746695
 11
67.4525293619
 21
189.5937261242
  0
LINE
  5
3F3
100
AcDbEntity
  8
025
100
AcDbLine
 62
2
  6
CONTINUOUS
 10
67.4525293619
 20
190.1655187238
 11
67.4525293619
 21
191.3408701785
  0
LINE
  5
3F4
100
AcDbEntity
  8
025
100
AcDbLine
 62
2
  6
CONTINUOUS
 10
67.4525293619
 20
191.9126627781
 11
67.4525293619
 21
192.295040519
  0
LINE
  5
3F5
100
AcDbEntity
  8
05
100
AcDbLine
 62
7
  6
CONTINUOUS
 10
67.641611209
 20
236.7581441496
 11
67.641611209
 21
242.295040519
  0
LINE
  5
3F6
100
AcDbEntity
  8
010
100
AcDbLine
 62
2
  6
CONTINUOUS
 10
67.6795761213
 20
119.1180930074
 11
67.6795761213
 21
124.0686719548
  0
LINE
  5
3F7
100
AcDbEntity
  8
010
100
AcDbLine
 62
2
  6
CONTINUOUS
 10
67.7045790453
 20
140.0955462238
 11
67.7045790453
 21
135.0949614285
  0
LINE
  5
3F8
100
AcDbEntity
  8
010
100
AcDbLine
 62
2
  6
CONTINUOUS
 10
67.709111209
 20
224.895040519
 11
67.709111209
 21
222.7730938754
  0
LINE
  5
3F9
100
AcDbEntity
  8
07
100
AcDbLine
 62
7
  6
CONTINUOUS
 10
67.7360887249
 20
131.5945520717
 11
67.7360887249
 21
130.2717581864
  0
LINE
  5
3FA
100
AcDbEntity
  8
07
100
AcDbLine
 62
7
  6
CONTINUOUS
 10
67.7360887249
 20
125.6928562756
 11
67.7360887249
 21
124.0936748788
  0
LINE
  5
3FB
100
AcDbEntity
  8
010
100
AcDbLine
 62
2
  6
CONTINUOUS
 10
67.8187633428
 20
130.2717581864
 11
67.8187633428
 21
125.6928562756
  0
LINE
  5
3FC
100
AcDbEntity
  8
05
100
AcDbLine
 62
7
  6
CONTINUOUS
 10
67.8187633428
 20
125.6928562756
 11
67.8187633428
 21
124.0936748788
  0
LINE
  5
3FD
100
AcDbEntity
  8
05
100
AcDbLine
 62
7
  6
CONTINUOUS
 10
67.8187633428
 20
130.2717581864
 11
67.8187633428
 21
131.5945520717
  0
LINE
  5
3FE
100
AcDbEntity
  8
07
100
AcDbLine
 62
7
  6
CONTINUOUS
 10
67.954608285
 20
139.845516984
 11
67.954608285
 21
135.0949614285
  0
LINE
  5
3FF
100
AcDbEntity
  8
07
100
AcDbLine
 62
7
  6
CONTINUOUS
 10
67.954608285
 20
119.3931251712
 11
67.954608285
 21
123.793639791
  0
LINE
  5
400
100
AcDbEntity
  8
010
100
AcDbLine
 62
2
  6
CONTINUOUS
 10
67.979111209
 20
222.7730938754
 11
67.979111209
 21
222.6045741623
  0
LINE
  5
401
100
AcDbEntity
  8
05
100
AcDbLine
 62
7
  6
CONTINUOUS
 10
67.979111209
 20
136.4949614285
 11
67.979111209
 21
135.0949614285
  0
LINE
  5
402
100
AcDbEntity
  8
05
100
AcDbLine
 62
7
  6
CONTINUOUS
 10
67.979111209
 20
222.7730938754
 11
67.979111209
 21
226.295040519
  0
LINE
  5
403
100
AcDbEntity
  8
05
100
AcDbLine
 62
7
  6
CONTINUOUS
 10
68.104111209
 20
222.3141004114
 11
68.104111209
 21
221.445040519
  0
LINE
  5
404
100
AcDbEntity
  8
05
100
AcDbLine
 62
7
  6
CONTINUOUS
 10
68.104111209
 20
139.0759015361
 11
68.104111209
 21
139.9449614285
  0
LINE
  5
405
100
AcDbEntity
  8
07
100
AcDbLine
 62
7
  6
CONTINUOUS
 10
68.1431022281
 20
130.0173747469
 11
68.1431022281
 21
125.9472397151
  0
LINE
  5
406
100
AcDbEntity
  8
010
100
AcDbLine
 62
2
  6
CONTINUOUS
 10
68.1431022281
 20
125.9472397151
 11
68.1431022281
 21
124.0936748788
  0
LINE
  5
407
100
AcDbEntity
  8
010
100
AcDbLine
 62
2
  6
CONTINUOUS
 10
68.1431022281
 20
130.0173747469
 11
68.1431022281
 21
131.5945520717
  0
LINE
  5
408
100
AcDbEntity
  8
SCHRAFFIERT
100
AcDbLine
 62
2
  6
CONTINUOUS
 10
68.179111209
 20
234.7326228093
 11
68.179111209
 21
230.7326228093
  0
LINE
  5
409
100
AcDbEntity
  8
05
100
AcDbLine
 62
7
  6
CONTINUOUS
 10
68.454111209
 20
226.295040519
 11
68.454111209
 21
203.8477963257
  0
LINE
  5
40A
100
AcDbEntity
  8
05
100
AcDbLine
 62
7
  6
CONTINUOUS
 10
68.454111209
 20
135.0949614285
 11
68.454111209
 21
157.5422056218
  0
LINE
  5
40B
100
AcDbEntity
  8
05
100
AcDbLine
 62
7
  6
CONTINUOUS
 10
68.4541111615
 20
226.5450405165
 11
68.4541111615
 21
228.7134000895
  0
LINE
  5
40C
100
AcDbEntity
  8
07
100
AcDbLine
 62
7
  6
CONTINUOUS
 10
68.4546667646
 20
134.8449321887
 11
68.4546667646
 21
124.2427976858
  0
LINE
  5
40D
100
AcDbEntity
  8
SCHRAFFIERT
100
AcDbLine
 62
2
  6
CONTINUOUS
 10
68.779111209
 20
234.7326228093
 11
68.779111209
 21
230.7326228093
  0
LINE
  5
40E
100
AcDbEntity
  8
SCHRAFFIERT
100
AcDbLine
 62
2
  6
CONTINUOUS
 10
69.279111209
 20
234.7326228093
 11
69.279111209
 21
230.7326228093
  0
LINE
  5
40F
100
AcDbEntity
  8
SCHRAFFIERT
100
AcDbLine
 62
2
  6
CONTINUOUS
 10
69.629111209
 20
234.7326228093
 11
69.629111209
 21
230.7326228093
  0
LINE
  5
410
100
AcDbEntity
  8
05
100
AcDbLine
 62
7
  6
CONTINUOUS
 10
69.704111209
 20
235.8326228093
 11
69.704111209
 21
234.7326228093
  0
LINE
  5
411
100
AcDbEntity
  8
05
100
AcDbLine
 62
7
  6
CONTINUOUS
 10
69.704111209
 20
230.7326228093
 11
69.704111209
 21
229.1326228093
  0
LINE
  5
412
100
AcDbEntity
  8
05
100
AcDbLine
 62
7
  6
CONTINUOUS
 10
60.3341052087
 20
236.7581441496
 11
60.338960806
 21
242.3803052001
  0
LINE
  5
413
100
AcDbEntity
  8
05
100
AcDbLine
 62
7
  6
CONTINUOUS
 10
59.3541721263
 20
168.9984513781
 11
58.954111209
 21
157.5422056218
  0
LINE
  5
414
100
AcDbEntity
  8
05
100
AcDbLine
 62
7
  6
CONTINUOUS
 10
68.0540502917
 20
192.3915505694
 11
68.454111209
 21
203.8477963257
  0
LINE
  5
415
100
AcDbEntity
  8
05
100
AcDbLine
 62
7
  6
CONTINUOUS
 10
68.4486503217
 20
228.7326228093
 11
68.3447503332
 21
227.5450405065
  0
LINE
  5
416
100
AcDbEntity
  8
0
100
AcDbLine
 62
2
  6
CONTINUOUS
 10
79.4084039519
 20
226.295040519
 11
78.8250706185
 21
222.795040519
  0
LINE
  5
417
100
AcDbEntity
  8
0
100
AcDbLine
 62
2
  6
CONTINUOUS
 10
79.9917372852
 20
222.795040519
 11
79.4084039519
 21
226.295040519
  0
LINE
  5
418
100
AcDbEntity
  8
0
100
AcDbLine
 62
2
  6
CONTINUOUS
 10
78.8250706185
 20
222.795040519
 11
79.9917372852
 21
222.795040519
  0
HATCH
  5
419
100
AcDbEntity
  8
0
100
AcDbHatch
 62
2
  6
CONTINUOUS
 10
0.0
 20
0.0
 30
0.0
210
0.0
220
0.0
230
1.0
  2

 70
1
 71
1
 91
1
 92
1
 93
3
 72
1
 10
78.8250706185
 20
222.795040519
 11
79.9917372852
 21
222.795040519
 72
1
 10
79.9917372852
 20
222.795040519
 11
79.4084039519
 21
226.295040519
 72
1
 10
79.4084039519
 20
226.295040519
 11
78.8250706185
 21
222.795040519
 97
3
330
416
330
417
330
418
 75
0
 76
1
 98
1
 10
0.0
 20
0.0
  0
LINE
  5
41A
100
AcDbEntity
  8
035
100
AcDbLine
 62
7
  6
CONTINUOUS
 10
123.2188475629
 20
252.8152346745
 11
124.3085489132
 21
254.7026527782
  0
LINE
  5
41B
100
AcDbEntity
  8
05
100
AcDbLine
 62
7
  6
CONTINUOUS
 10
144.7835489132
 20
240.2910674236
 11
144.1835489132
 21
239.6910674236
  0
LINE
  5
41C
100
AcDbEntity
  8
05
100
AcDbLine
 62
7
  6
CONTINUOUS
 10
140.6835488282
 20
221.3159028681
 11
139.8175234244
 21
220.8159028681
  0
LINE
  5
41D
100
AcDbEntity
  8
0
100
AcDbLine
 62
2
  6
CONTINUOUS
 10
127.4329933576
 20
105.4765434632
 11
130.9329933576
 21
106.0598767965
  0
LINE
  5
41E
100
AcDbEntity
  8
0
100
AcDbLine
 62
2
  6
CONTINUOUS
 10
130.9329933576
 20
104.8932101298
 11
127.4329933576
 21
105.4765434632
  0
LINE
  5
41F
100
AcDbEntity
  8
0
100
AcDbLine
 62
2
  6
CONTINUOUS
 10
130.9329933576
 20
106.0598767965
 11
130.9329933576
 21
104.8932101298
  0
HATCH
  5
420
100
AcDbEntity
  8
0
100
AcDbHatch
 62
2
  6
CONTINUOUS
 10
0.0
 20
0.0
 30
0.0
210
0.0
220
0.0
230
1.0
  2

 70
1
 71
1
 91
1
 92
1
 93
3
 72
1
 10
130.9329933576
 20
106.0598767965
 11
130.9329933576
 21
104.8932101298
 72
1
 10
130.9329933576
 20
104.8932101298
 11
127.4329933576
 21
105.4765434632
 72
1
 10
127.4329933576
 20
105.4765434632
 11
130.9329933576
 21
106.0598767965
 97
3
330
41D
330
41E
330
41F
 75
0
 76
1
 98
1
 10
0.0
 20
0.0
  0
LINE
  5
421
100
AcDbEntity
  8
0
100
AcDbLine
 62
2
  6
CONTINUOUS
 10
133.6694643272
 20
114.779069369
 11
137.1694643272
 21
115.3624027023
  0
LINE
  5
422
100
AcDbEntity
  8
0
100
AcDbLine
 62
2
  6
CONTINUOUS
 10
137.1694643272
 20
115.3624027023
 11
133.6694643272
 21
115.9457360357
  0
LINE
  5
423
100
AcDbEntity
  8
0
100
AcDbLine
 62
2
  6
CONTINUOUS
 10
133.6694643272
 20
115.9457360357
 11
133.6694643272
 21
114.779069369
  0
HATCH
  5
424
100
AcDbEntity
  8
0
100
AcDbHatch
 62
2
  6
CONTINUOUS
 10
0.0
 20
0.0
 30
0.0
210
0.0
220
0.0
230
1.0
  2

 70
1
 71
1
 91
1
 92
1
 93
3
 72
1
 10
137.1694643272
 20
115.3624027023
 11
133.6694643272
 21
115.9457360357
 72
1
 10
133.6694643272
 20
115.9457360357
 11
133.6694643272
 21
114.779069369
 72
1
 10
133.6694643272
 20
114.779069369
 11
137.1694643272
 21
115.3624027023
 97
3
330
421
330
422
330
423
 75
0
 76
1
 98
1
 10
0.0
 20
0.0
  0
LINE
  5
425
100
AcDbEntity
  8
0
100
AcDbLine
 62
2
  6
CONTINUOUS
 10
130.9329933576
 20
105.4765434632
 11
133.4341044687
 21
105.4765434632
  0
LINE
  5
426
100
AcDbEntity
  8
025
100
AcDbLine
 62
2
  6
CONTINUOUS
 10
66.1441659722
 20
120.6859688685
 11
127.3623377775
 21
85.7854268208
  0
LINE
  5
427
100
AcDbEntity
  8
07
100
AcDbLine
 62
7
  6
CONTINUOUS
 10
66.212878088
 20
124.3700623902
 11
65.704111209
 21
124.8788292692
  0
LINE
  5
428
100
AcDbEntity
  8
07
100
AcDbLine
 62
7
  6
CONTINUOUS
 10
67.954608285
 20
123.793639791
 11
67.6545731973
 21
124.0936748788
  0
LINE
  5
429
100
AcDbEntity
  8
07
100
AcDbLine
 62
7
  6
CONTINUOUS
 10
65.5793889868
 20
128.094142715
 11
66.0793889868
 21
127.594142715
  0
LINE
  5
42A
100
AcDbEntity
  8
07
100
AcDbLine
 62
7
  6
CONTINUOUS
 10
67.8887187886
 20
130.2717581864
 11
68.1431022281
 21
130.0173747469
  0
LINE
  5
42B
100
AcDbEntity
  8
07
100
AcDbLine
 62
7
  6
CONTINUOUS
 10
67.7360887249
 20
131.467360352
 11
67.6088970052
 21
131.5945520717
  0
LINE
  5
42C
100
AcDbEntity
  8
07
100
AcDbLine
 62
7
  6
CONTINUOUS
 10
68.2046375248
 20
135.0949614285
 11
68.4546667646
 21
134.8449321887
  0
LINE
  5
42D
100
AcDbEntity
  8
SCHRAFFIERT
100
AcDbLine
 62
2
  6
CONTINUOUS
 10
69.879111209
 20
234.5576228093
 11
69.879111209
 21
230.9076228093
  0
LINE
  5
42E
100
AcDbEntity
  8
05
100
AcDbLine
 62
7
  6
CONTINUOUS
 10
70.004111209
 20
234.4326228093
 11
70.004111209
 21
231.0326228093
  0
LINE
  5
42F
100
AcDbEntity
  8
0
100
AcDbLine
 62
2
  6
CONTINUOUS
 10
70.9525293619
 20
182.5553774685
 11
70.9525293619
 21
183.7220441351
  0
LINE
  5
430
100
AcDbEntity
  8
0
100
AcDbLine
 62
2
  6
CONTINUOUS
 10
67.4525293619
 20
183.1387108018
 11
70.9525293619
 21
182.5553774685
  0
LINE
  5
431
100
AcDbEntity
  8
0
100
AcDbLine
 62
2
  6
CONTINUOUS
 10
70.9525293619
 20
183.7220441351
 11
67.4525293619
 21
183.1387108018
  0
HATCH
  5
432
100
AcDbEntity
  8
0
100
AcDbHatch
 62
2
  6
CONTINUOUS
 10
0.0
 20
0.0
 30
0.0
210
0.0
220
0.0
230
1.0
  2

 70
1
 71
1
 91
1
 92
1
 93
3
 72
1
 10
70.9525293619
 20
183.7220441351
 11
67.4525293619
 21
183.1387108018
 72
1
 10
67.4525293619
 20
183.1387108018
 11
70.9525293619
 21
182.5553774685
 72
1
 10
70.9525293619
 20
182.5553774685
 11
70.9525293619
 21
183.7220441351
 97
3
330
42F
330
430
330
431
 75
0
 76
1
 98
1
 10
0.0
 20
0.0
  0
LINE
  5
433
100
AcDbEntity
  8
0
100
AcDbLine
 62
2
  6
CONTINUOUS
 10
79.4084039519
 20
194.045040519
 11
79.4084039519
 21
224.545040519
  0
LINE
  5
434
100
AcDbEntity
  8
0
100
AcDbLine
 62
2
  6
CONTINUOUS
 10
79.9917372852
 20
195.795040519
 11
79.4084039519
 21
192.295040519
  0
LINE
  5
435
100
AcDbEntity
  8
0
100
AcDbLine
 62
2
  6
CONTINUOUS
 10
79.4084039519
 20
192.295040519
 11
78.8250706185
 21
195.795040519
  0
LINE
  5
436
100
AcDbEntity
  8
0
100
AcDbLine
 62
2
  6
CONTINUOUS
 10
78.8250706185
 20
195.795040519
 11
79.9917372852
 21
195.795040519
  0
HATCH
  5
437
100
AcDbEntity
  8
0
100
AcDbHatch
 62
2
  6
CONTINUOUS
 10
0.0
 20
0.0
 30
0.0
210
0.0
220
0.0
230
1.0
  2

 70
1
 71
1
 91
1
 92
1
 93
3
 72
1
 10
79.4084039519
 20
192.295040519
 11
78.8250706185
 21
195.795040519
 72
1
 10
78.8250706185
 20
195.795040519
 11
79.9917372852
 21
195.795040519
 72
1
 10
79.9917372852
 20
195.795040519
 11
79.4084039519
 21
192.295040519
 97
3
330
434
330
435
330
436
 75
0
 76
1
 98
1
 10
0.0
 20
0.0
  0
LINE
  5
438
100
AcDbEntity
  8
0
100
AcDbLine
 62
2
  6
CONTINUOUS
 10
133.6694643272
 20
115.3624027023
 11
126.5077087794
 21
115.3624027023
  0
LINE
  5
439
100
AcDbEntity
  8
07
100
AcDbLine
 62
7
  6
CONTINUOUS
 10
67.6545731973
 20
119.0930900834
 11
59.7536492207
 21
119.0930900834
  0
LINE
  5
43A
100
AcDbEntity
  8
025
100
AcDbLine
 62
2
  6
CONTINUOUS
 10
63.704111209
 20
119.3931251712
 11
59.453614133
 21
119.3931251712
  0
LINE
  5
43B
100
AcDbEntity
  8
07
100
AcDbLine
 62
7
  6
CONTINUOUS
 10
139.0519017794
 20
123.409166157
 11
133.3028360469
 21
123.409166157
  0
LINE
  5
43C
100
AcDbEntity
  8
07
100
AcDbLine
 62
7
  6
CONTINUOUS
 10
131.0642617794
 20
123.409166157
 11
125.3151960469
 21
123.409166157
  0
LINE
  5
43D
100
AcDbEntity
  8
025
100
AcDbLine
 62
2
  6
CONTINUOUS
 10
125.0608126075
 20
123.6635495965
 11
131.0642617794
 21
123.6635495965
  0
LINE
  5
43E
100
AcDbEntity
  8
025
100
AcDbLine
 62
2
  6
CONTINUOUS
 10
59.453614133
 20
123.793639791
 11
63.704111209
 21
123.793639791
  0
LINE
  5
43F
100
AcDbEntity
  8
05
100
AcDbLine
 62
7
  6
CONTINUOUS
 10
59.1026784605
 20
124.0936748788
 11
63.704111209
 21
124.0936748788
  0
LINE
  5
440
100
AcDbEntity
  8
07
100
AcDbLine
 62
7
  6
CONTINUOUS
 10
65.454111209
 20
124.0936748788
 11
68.3055439575
 21
124.0936748788
  0
LINE
  5
441
100
AcDbEntity
  8
07
100
AcDbLine
 62
7
  6
CONTINUOUS
 10
67.6088970052
 20
124.3700623902
 11
65.454111209
 21
124.3700623902
  0
LINE
  5
442
100
AcDbEntity
  8
07
100
AcDbLine
 62
7
  6
CONTINUOUS
 10
136.1519305692
 20
124.426699915
 11
133.3028360469
 21
124.426699915
  0
LINE
  5
443
100
AcDbEntity
  8
05
100
AcDbLine
 62
7
  6
CONTINUOUS
 10
67.979111209
 20
136.4949614285
 11
67.954608285
 21
136.5091081982
  0
LINE
  5
444
100
AcDbEntity
  8
07
100
AcDbLine
 62
7
  6
CONTINUOUS
 10
124.2826249366
 20
80.8123842193
 11
123.6825547611
 21
81.4124543947
  0
LINE
  5
445
100
AcDbEntity
  8
05
100
AcDbLine
 62
7
  6
CONTINUOUS
 10
65.704111209
 20
141.5949614285
 11
66.954111209
 21
140.3449614285
  0
LINE
  5
446
100
AcDbEntity
  8
07
100
AcDbLine
 62
7
  6
CONTINUOUS
 10
67.954608285
 20
139.845516984
 11
67.7045790453
 21
140.0955462238
  0
LINE
  5
447
100
AcDbEntity
  8
07
100
AcDbLine
 62
7
  6
CONTINUOUS
 10
59.2035848932
 20
135.0949614285
 11
58.9535556534
 21
134.8449321887
  0
LINE
  5
448
100
AcDbEntity
  8
07
100
AcDbLine
 62
7
  6
CONTINUOUS
 10
66.212878088
 20
131.5945520717
 11
65.704111209
 21
131.0857851928
  0
LINE
  5
449
100
AcDbEntity
  8
07
100
AcDbLine
 62
7
  6
CONTINUOUS
 10
123.6825547611
 20
189.0088071436
 11
124.1826132407
 21
189.5088656231
  0
LINE
  5
44A
100
AcDbEntity
  8
07
100
AcDbLine
 62
7
  6
CONTINUOUS
 10
59.453614133
 20
123.793639791
 11
59.7536492207
 21
124.0936748788
  0
LINE
  5
44B
100
AcDbEntity
  8
07
100
AcDbLine
 62
7
  6
CONTINUOUS
 10
66.0793889868
 20
125.5937918378
 11
65.454111209
 21
124.96851406
  0
LINE
  5
44C
100
AcDbEntity
  8
05
100
AcDbLine
 62
7
  6
CONTINUOUS
 10
66.6637221633
 20
143.6386301002
 11
65.704111209
 21
143.0845984574
  0
LINE
  5
44D
100
AcDbEntity
  8
025
100
AcDbLine
 62
2
  6
CONTINUOUS
 10
128.3672800695
 20
130.4472936294
 11
65.1527302971
 21
129.7011990666
  0
LINE
  5
44E
100
AcDbEntity
  8
07
100
AcDbLine
 62
7
  6
CONTINUOUS
 10
67.8887187886
 20
125.6928562756
 11
67.7360887249
 21
125.6928562756
  0
LINE
  5
44F
100
AcDbEntity
  8
07
100
AcDbLine
 62
7
  6
CONTINUOUS
 10
139.6115453463
 20
126.0547539277
 11
139.3062852189
 21
126.0547539277
  0
LINE
  5
450
100
AcDbEntity
  8
07
100
AcDbLine
 62
7
  6
CONTINUOUS
 10
133.3028360469
 20
126.0547539277
 11
124.7555524801
 21
126.0547539277
  0
LINE
  5
451
100
AcDbEntity
  8
025
100
AcDbLine
 62
2
  6
CONTINUOUS
 10
124.2467856011
 20
126.5635208067
 11
132.1835489132
 21
126.5635208067
  0
LINE
  5
452
100
AcDbEntity
  8
07
100
AcDbLine
 62
7
  6
CONTINUOUS
 10
65.5793889868
 20
128.094142715
 11
63.704111209
 21
128.094142715
  0
LINE
  5
453
100
AcDbEntity
  8
07
100
AcDbLine
 62
7
  6
CONTINUOUS
 10
67.8887187886
 20
130.2717581864
 11
67.7360887249
 21
130.2717581864
  0
LINE
  5
454
100
AcDbEntity
  8
07
100
AcDbLine
 62
7
  6
CONTINUOUS
 10
65.704111209
 20
131.0857851928
 11
63.704111209
 21
131.0857851928
  0
LINE
  5
455
100
AcDbEntity
  8
05
100
AcDbLine
 62
7
  6
CONTINUOUS
 10
63.704111209
 20
131.0949614285
 11
63.1088117474
 21
131.0949614285
  0
LINE
  5
456
100
AcDbEntity
  8
07
100
AcDbLine
 62
7
  6
CONTINUOUS
 10
68.1431022281
 20
131.5945520717
 11
63.704111209
 21
131.5945520717
  0
LINE
  5
457
100
AcDbEntity
  8
05
100
AcDbLine
 62
7
  6
CONTINUOUS
 10
63.704111209
 20
133.5949614285
 11
63.1088117474
 21
133.5949614285
  0
LINE
  5
458
100
AcDbEntity
  8
025
100
AcDbLine
 62
2
  6
CONTINUOUS
 10
124.2467856011
 20
134.7037908704
 11
132.1835489132
 21
134.7037908704
  0
LINE
  5
459
100
AcDbEntity
  8
025
100
AcDbLine
 62
2
  6
CONTINUOUS
 10
59.1228329049
 20
134.8449321887
 11
59.4051720862
 21
134.8449321887
  0
LINE
  5
45A
100
AcDbEntity
  8
025
100
AcDbLine
 62
2
  6
CONTINUOUS
 10
59.7352305657
 20
134.8449321887
 11
61.954111209
 21
134.8449321887
  0
LINE
  5
45B
100
AcDbEntity
  8
07
100
AcDbLine
 62
7
  6
CONTINUOUS
 10
68.454111209
 20
135.0949614285
 11
67.7045790453
 21
135.0949614285
  0
LINE
  5
45C
100
AcDbEntity
  8
05
100
AcDbLine
 62
7
  6
CONTINUOUS
 10
63.704111209
 20
135.0949614285
 11
58.954111209
 21
135.0949614285
  0
LINE
  5
45D
100
AcDbEntity
  8
07
100
AcDbLine
 62
7
  6
CONTINUOUS
 10
62.5703774762
 20
135.0949614285
 11
59.2035848932
 21
135.0949614285
  0
LINE
  5
45E
100
AcDbEntity
  8
0
100
AcDbLine
 62
2
  6
CONTINUOUS
 10
57.9476438616
 20
135.0949614285
 11
43.4758505513
 21
135.0949614285
  0
LINE
  5
45F
100
AcDbEntity
  8
07
100
AcDbLine
 62
7
  6
CONTINUOUS
 10
139.6115453463
 20
135.2125577494
 11
139.3062852189
 21
135.2125577494
  0
LINE
  5
460
100
AcDbEntity
  8
07
100
AcDbLine
 62
7
  6
CONTINUOUS
 10
132.1835489132
 20
135.2125577494
 11
124.7555524801
 21
135.2125577494
  0
LINE
  5
461
100
AcDbEntity
  8
05
100
AcDbLine
 62
7
  6
CONTINUOUS
 10
67.954608285
 20
136.4949614285
 11
67.979111209
 21
136.4949614285
  0
LINE
  5
462
100
AcDbEntity
  8
07
100
AcDbLine
 62
7
  6
CONTINUOUS
 10
136.1519305692
 20
136.8406117621
 11
132.1835489132
 21
136.8406117621
  0
LINE
  5
463
100
AcDbEntity
  8
025
100
AcDbLine
 62
2
  6
CONTINUOUS
 10
125.0608126075
 20
137.6037620806
 11
132.1835489132
 21
137.6037620806
  0
LINE
  5
464
100
AcDbEntity
  8
07
100
AcDbLine
 62
7
  6
CONTINUOUS
 10
139.0519017794
 20
137.8581455201
 11
125.3151960469
 21
137.8581455201
  0
LINE
  5
465
100
AcDbEntity
  8
025
100
AcDbLine
 62
2
  6
CONTINUOUS
 10
67.290316636
 20
143.4547100499
 11
66.6637221633
 21
143.6386301002
  0
LINE
  5
466
100
AcDbEntity
  8
025
100
AcDbLine
 62
2
  6
CONTINUOUS
 10
64.7202542794
 20
143.5389365339
 11
63.704111209
 21
143.854786371
  0
LINE
  5
467
100
AcDbEntity
  8
07
100
AcDbLine
 62
7
  6
CONTINUOUS
 10
127.4329933576
 20
93.813787728
 11
128.6835489132
 21
92.5632321725
  0
LINE
  5
468
100
AcDbEntity
  8
07
100
AcDbLine
 62
7
  6
CONTINUOUS
 10
140.6845430652
 20
90.2134836345
 11
140.0844728898
 21
90.8135538099
  0
LINE
  5
469
100
AcDbEntity
  8
07
100
AcDbLine
 62
7
  6
CONTINUOUS
 10
135.9341044687
 20
98.8144894824
 11
136.9341044687
 21
97.8144894824
  0
LINE
  5
46A
100
AcDbEntity
  8
025
100
AcDbLine
 62
2
  6
CONTINUOUS
 10
63.3156099038
 20
178.4395992079
 11
63.6494732495
 21
177.9621523872
  0
LINE
  5
46B
100
AcDbEntity
  8
025
100
AcDbLine
 62
2
  6
CONTINUOUS
 10
63.3156099038
 20
179.3925868739
 11
63.6494732495
 21
178.9151400532
  0
LINE
  5
46C
100
AcDbEntity
  8
07
100
AcDbLine
 62
7
  6
CONTINUOUS
 10
67.8887187886
 20
125.6928562756
 11
68.1431022281
 21
125.9472397151
  0
LINE
  5
46D
100
AcDbEntity
  8
07
100
AcDbLine
 62
7
  6
CONTINUOUS
 10
67.7360887249
 20
124.49725411
 11
67.6088970052
 21
124.3700623902
  0
LINE
  5
46E
100
AcDbEntity
  8
07
100
AcDbLine
 62
7
  6
CONTINUOUS
 10
123.1824962816
 20
179.5076960325
 11
122.6824378021
 21
179.0076375529
  0
LINE
  5
46F
100
AcDbEntity
  8
SCHRAFFIERT
100
AcDbLine
 62
2
  6
CONTINUOUS
 10
136.684075229
 20
189.1657088125
 11
137.0272320396
 21
189.5088656231
  0
LINE
  5
470
100
AcDbEntity
  8
07
100
AcDbLine
 62
7
  6
CONTINUOUS
 10
67.954608285
 20
119.3931251712
 11
67.6545731973
 21
119.0930900834
  0
LINE
  5
471
100
AcDbEntity
  8
SCHRAFFIERT
100
AcDbLine
 62
2
  6
CONTINUOUS
 10
136.684075229
 20
187.5840225914
 11
138.6089182606
 21
189.5088656231
  0
LINE
  5
472
100
AcDbEntity
  8
SCHRAFFIERT
100
AcDbLine
 62
2
  6
CONTINUOUS
 10
136.684075229
 20
186.0023363704
 11
140.1875445337
 21
189.5058056751
  0
LINE
  5
473
100
AcDbEntity
  8
SCHRAFFIERT
100
AcDbLine
 62
2
  6
CONTINUOUS
 10
136.684075229
 20
184.4206501493
 11
140.6845430652
 21
188.4211179856
  0
LINE
  5
474
100
AcDbEntity
  8
SCHRAFFIERT
100
AcDbLine
 62
2
  6
CONTINUOUS
 10
136.684075229
 20
182.8389639282
 11
140.6845430652
 21
186.8394317645
  0
LINE
  5
475
100
AcDbEntity
  8
SCHRAFFIERT
100
AcDbLine
 62
2
  6
CONTINUOUS
 10
136.684075229
 20
181.2572777071
 11
140.6845430652
 21
185.2577455434
  0
LINE
  5
476
100
AcDbEntity
  8
SCHRAFFIERT
100
AcDbLine
 62
2
  6
CONTINUOUS
 10
136.684075229
 20
179.6755914861
 11
140.6845430652
 21
183.6760593223
  0
LINE
  5
477
100
AcDbEntity
  8
SCHRAFFIERT
100
AcDbLine
 62
2
  6
CONTINUOUS
 10
136.684075229
 20
178.093905265
 11
139.9844611939
 21
181.3942912299
  0
LINE
  5
478
100
AcDbEntity
  8
SCHRAFFIERT
100
AcDbLine
 62
2
  6
CONTINUOUS
 10
140.0980999146
 20
181.5079299506
 11
140.6845430652
 21
182.0943731013
  0
LINE
  5
479
100
AcDbEntity
  8
025
100
AcDbLine
 62
2
  6
CONTINUOUS
 10
60.1267165845
 20
133.2758032397
 11
127.739191004
 21
166.7192823433
  0
LINE
  5
47A
100
AcDbEntity
  8
0
100
AcDbLine
 62
2
  6
CONTINUOUS
 10
136.6203122253
 20
144.3995803115
 11
140.1203122253
 21
144.9829136448
  0
LINE
  5
47B
100
AcDbEntity
  8
0
100
AcDbLine
 62
2
  6
CONTINUOUS
 10
140.1203122253
 20
144.9829136448
 11
136.6203122253
 21
145.5662469782
  0
LINE
  5
47C
100
AcDbEntity
  8
0
100
AcDbLine
 62
2
  6
CONTINUOUS
 10
136.6203122253
 20
145.5662469782
 11
136.6203122253
 21
144.3995803115
  0
HATCH
  5
47D
100
AcDbEntity
  8
0
100
AcDbHatch
 62
2
  6
CONTINUOUS
 10
0.0
 20
0.0
 30
0.0
210
0.0
220
0.0
230
1.0
  2

 70
1
 71
1
 91
1
 92
1
 93
3
 72
1
 10
140.1203122253
 20
144.9829136448
 11
136.6203122253
 21
145.5662469782
 72
1
 10
136.6203122253
 20
145.5662469782
 11
136.6203122253
 21
144.3995803115
 72
1
 10
136.6203122253
 20
144.3995803115
 11
140.1203122253
 21
144.9829136448
 97
3
330
47A
330
47B
330
47C
 75
0
 76
1
 98
1
 10
0.0
 20
0.0
  0
LINE
  5
47E
100
AcDbEntity
  8
0
100
AcDbLine
 62
2
  6
CONTINUOUS
 10
124.2467856011
 20
144.9829136448
 11
127.7467856011
 21
145.5662469782
  0
LINE
  5
47F
100
AcDbEntity
  8
0
100
AcDbLine
 62
2
  6
CONTINUOUS
 10
127.7467856011
 20
144.3995803115
 11
124.2467856011
 21
144.9829136448
  0
LINE
  5
480
100
AcDbEntity
  8
0
100
AcDbLine
 62
2
  6
CONTINUOUS
 10
127.7467856011
 20
145.5662469782
 11
127.7467856011
 21
144.3995803115
  0
HATCH
  5
481
100
AcDbEntity
  8
0
100
AcDbHatch
 62
2
  6
CONTINUOUS
 10
0.0
 20
0.0
 30
0.0
210
0.0
220
0.0
230
1.0
  2

 70
1
 71
1
 91
1
 92
1
 93
3
 72
1
 10
127.7467856011
 20
145.5662469782
 11
127.7467856011
 21
144.3995803115
 72
1
 10
127.7467856011
 20
144.3995803115
 11
124.2467856011
 21
144.9829136448
 72
1
 10
124.2467856011
 20
144.9829136448
 11
127.7467856011
 21
145.5662469782
 97
3
330
47E
330
47F
330
480
 75
0
 76
1
 98
1
 10
0.0
 20
0.0
  0
LINE
  5
482
100
AcDbEntity
  8
025
100
AcDbLine
 62
2
  6
CONTINUOUS
 10
66.6637221633
 20
143.6386301002
 11
64.7202542794
 21
143.5389365339
  0
LINE
  5
483
100
AcDbEntity
  8
07
100
AcDbLine
 62
7
  6
CONTINUOUS
 10
67.7045790453
 20
140.0955462238
 11
63.704111209
 21
140.0955462238
  0
LINE
  5
484
100
AcDbEntity
  8
05
100
AcDbLine
 62
7
  6
CONTINUOUS
 10
63.704111209
 20
140.3449614285
 11
67.704111209
 21
140.3449614285
  0
LINE
  5
485
100
AcDbEntity
  8
05
100
AcDbLine
 62
7
  6
CONTINUOUS
 10
63.704111209
 20
141.5949614285
 11
65.704111209
 21
141.5949614285
  0
LINE
  5
486
100
AcDbEntity
  8
05
100
AcDbLine
 62
7
  6
CONTINUOUS
 10
65.704111209
 20
143.0845984574
 11
63.704111209
 21
143.0845984574
  0
LINE
  5
487
100
AcDbEntity
  8
0
100
AcDbLine
 62
2
  6
CONTINUOUS
 10
136.6203122253
 20
144.9829136448
 11
127.7467856011
 21
144.9829136448
  0
LINE
  5
488
100
AcDbEntity
  8
025
100
AcDbLine
 62
2
  6
CONTINUOUS
 10
68.454111209
 20
143.3283692799
 11
67.290316636
 21
143.4547100499
  0
LINE
  5
489
100
AcDbEntity
  8
025
100
AcDbLine
 62
2
  6
CONTINUOUS
 10
63.6494732495
 20
177.9621523872
 11
63.9833365951
 21
177.7232701456
  0
LINE
  5
48A
100
AcDbEntity
  8
025
100
AcDbLine
 62
2
  6
CONTINUOUS
 10
63.6494732495
 20
178.9151400532
 11
63.9833365951
 21
178.6762578116
  0
LINE
  5
48B
100
AcDbEntity
  8
025
100
AcDbLine
 62
2
  6
CONTINUOUS
 10
66.9051967791
 20
176.5298119252
 11
67.3964346973
 21
176.1725739035
  0
LINE
  5
48C
100
AcDbEntity
  8
025
100
AcDbLine
 62
2
  6
CONTINUOUS
 10
66.2374700878
 20
177.0866743847
 11
66.9051967791
 21
176.5298119252
  0
LINE
  5
48D
100
AcDbEntity
  8
025
100
AcDbLine
 62
2
  6
CONTINUOUS
 10
66.2374700878
 20
178.0396620507
 11
66.9051967791
 21
177.4827995912
  0
LINE
  5
48E
100
AcDbEntity
  8
025
100
AcDbLine
 62
2
  6
CONTINUOUS
 10
61.3953397568
 20
178.7578970884
 11
61.6456578504
 21
178.5190148467
  0
LINE
  5
48F
100
AcDbEntity
  8
025
100
AcDbLine
 62
2
  6
CONTINUOUS
 10
61.3953397568
 20
179.7108847544
 11
61.6456578504
 21
179.4720025127
  0
LINE
  5
490
100
AcDbEntity
  8
07
100
AcDbLine
 62
7
  6
CONTINUOUS
 10
125.3151960469
 20
123.409166157
 11
125.0608126075
 21
123.6635495965
  0
LINE
  5
491
100
AcDbEntity
  8
07
100
AcDbLine
 62
7
  6
CONTINUOUS
 10
124.7555524801
 20
126.0547539277
 11
124.2467856011
 21
126.5635208067
  0
LINE
  5
492
100
AcDbEntity
  8
025
100
AcDbLine
 62
2
  6
CONTINUOUS
 10
65.736516238
 20
177.6438545068
 11
66.2374700878
 21
177.0866743847
  0
LINE
  5
493
100
AcDbEntity
  8
025
100
AcDbLine
 62
2
  6
CONTINUOUS
 10
65.736516238
 20
178.5968421728
 11
66.2374700878
 21
178.0396620507
  0
LINE
  5
494
100
AcDbEntity
  8
SCHRAFFIERT
100
AcDbLine
 62
2
  6
CONTINUOUS
 10
136.684075229
 20
176.5122190439
 11
139.9844611939
 21
179.8126050088
  0
LINE
  5
495
100
AcDbEntity
  8
SCHRAFFIERT
100
AcDbLine
 62
2
  6
CONTINUOUS
 10
136.684075229
 20
174.9305328228
 11
141.2229199917
 21
179.4693775855
  0
LINE
  5
496
100
AcDbEntity
  8
SCHRAFFIERT
100
AcDbLine
 62
2
  6
CONTINUOUS
 10
136.684075229
 20
173.3488466018
 11
141.6846600243
 21
178.3494313971
  0
LINE
  5
497
100
AcDbEntity
  8
SCHRAFFIERT
100
AcDbLine
 62
2
  6
CONTINUOUS
 10
137.4237921673
 20
172.506877319
 11
141.6846600243
 21
176.767745176
  0
LINE
  5
498
100
AcDbEntity
  8
SCHRAFFIERT
100
AcDbLine
 62
2
  6
CONTINUOUS
 10
139.0054783884
 20
172.506877319
 11
141.6846600243
 21
175.1860589549
  0
LINE
  5
499
100
AcDbEntity
  8
SCHRAFFIERT
100
AcDbLine
 62
2
  6
CONTINUOUS
 10
139.6344202582
 20
171.5541329678
 11
141.6846600243
 21
173.6043727339
  0
LINE
  5
49A
100
AcDbEntity
  8
SCHRAFFIERT
100
AcDbLine
 62
2
  6
CONTINUOUS
 10
139.6344202582
 20
169.9724467467
 11
141.6846600243
 21
172.0226865128
  0
LINE
  5
49B
100
AcDbEntity
  8
SCHRAFFIERT
100
AcDbLine
 62
2
  6
CONTINUOUS
 10
139.6344202582
 20
168.3907605256
 11
141.6846600243
 21
170.4410002917
  0
LINE
  5
49C
100
AcDbEntity
  8
SCHRAFFIERT
100
AcDbLine
 62
2
  6
CONTINUOUS
 10
139.6344202582
 20
166.8090743046
 11
141.6846600243
 21
168.8593140706
  0
LINE
  5
49D
100
AcDbEntity
  8
SCHRAFFIERT
100
AcDbLine
 62
2
  6
CONTINUOUS
 10
139.6344202582
 20
165.2273880835
 11
141.6846600243
 21
167.2776278496
  0
LINE
  5
49E
100
AcDbEntity
  8
SCHRAFFIERT
100
AcDbLine
 62
2
  6
CONTINUOUS
 10
139.6344202582
 20
163.6457018624
 11
141.6846600243
 21
165.6959416285
  0
LINE
  5
49F
100
AcDbEntity
  8
07
100
AcDbLine
 62
7
  6
CONTINUOUS
 10
122.9806834161
 20
157.505122933
 11
141.3864144103
 21
157.505122933
  0
LINE
  5
4A0
100
AcDbEntity
  8
025
100
AcDbLine
 62
2
  6
CONTINUOUS
 10
59.4253815677
 20
157.5422056218
 11
67.9148098643
 21
157.5422056218
  0
LINE
  5
4A1
100
AcDbEntity
  8
025
100
AcDbLine
 62
2
  6
CONTINUOUS
 10
63.9833365951
 20
177.7232701456
 11
64.4007451928
 21
177.5641212054
  0
LINE
  5
4A2
100
AcDbEntity
  8
025
100
AcDbLine
 62
2
  6
CONTINUOUS
 10
63.9833365951
 20
178.6762578116
 11
64.4007451928
 21
178.5171088714
  0
LINE
  5
4A3
100
AcDbEntity
  8
025
100
AcDbLine
 62
2
  6
CONTINUOUS
 10
66.9051967791
 20
177.4827995912
 11
67.4525293619
 21
177.2435996871
  0
LINE
  5
4A4
100
AcDbEntity
  8
025
100
AcDbLine
 62
2
  6
CONTINUOUS
 10
60.8943859071
 20
179.0761949688
 11
61.3953397568
 21
178.7578970884
  0
LINE
  5
4A5
100
AcDbEntity
  8
025
100
AcDbLine
 62
2
  6
CONTINUOUS
 10
60.8943859071
 20
180.0291826348
 11
61.3953397568
 21
179.7108847544
  0
LINE
  5
4A6
100
AcDbEntity
  8
07
100
AcDbLine
 62
7
  6
CONTINUOUS
 10
137.1694643272
 20
123.409166157
 11
136.1519305692
 21
124.426699915
  0
LINE
  5
4A7
100
AcDbEntity
  8
05
100
AcDbLine
 62
7
  6
CONTINUOUS
 10
122.6944706878
 20
235.6910674236
 11
122.9022706648
 21
233.3159028181
  0
LINE
  5
4A8
100
AcDbEntity
  8
05
100
AcDbLine
 62
7
  6
CONTINUOUS
 10
119.5835489132
 20
240.2910674236
 11
119.5835489132
 21
247.0910674236
  0
LINE
  5
4A9
100
AcDbEntity
  8
SCHRAFFIERT
100
AcDbLine
 62
2
  6
CONTINUOUS
 10
119.8335489132
 20
247.3410674236
 11
119.8335489132
 21
240.0410674236
  0
LINE
  5
4AA
100
AcDbEntity
  8
05
100
AcDbLine
 62
7
  6
CONTINUOUS
 10
120.1835489132
 20
236.4910674236
 11
120.1835489132
 21
239.6910674236
  0
LINE
  5
4AB
100
AcDbEntity
  8
05
100
AcDbLine
 62
7
  6
CONTINUOUS
 10
120.1835489132
 20
247.6910674236
 11
120.1835489132
 21
249.8910674236
  0
LINE
  5
4AC
100
AcDbEntity
  8
SCHRAFFIERT
100
AcDbLine
 62
2
  6
CONTINUOUS
 10
120.3335489132
 20
247.6910674236
 11
120.3335489132
 21
239.6910674236
  0
LINE
  5
4AD
100
AcDbEntity
  8
SCHRAFFIERT
100
AcDbLine
 62
2
  6
CONTINUOUS
 10
121.0335489132
 20
247.6910674236
 11
121.0335489132
 21
239.6910674236
  0
LINE
  5
4AE
100
AcDbEntity
  8
SCHRAFFIERT
100
AcDbLine
 62
2
  6
CONTINUOUS
 10
122.0335489132
 20
247.6910674236
 11
122.0335489132
 21
239.6910674236
  0
LINE
  5
4AF
100
AcDbEntity
  8
07
100
AcDbLine
 62
7
  6
CONTINUOUS
 10
122.6824378021
 20
179.0076375529
 11
122.6824378021
 21
157.8033685471
  0
LINE
  5
4B0
100
AcDbEntity
  8
05
100
AcDbLine
 62
7
  6
CONTINUOUS
 10
122.6835490082
 20
231.3159028381
 11
122.6835490082
 21
235.652621984
  0
LINE
  5
4B1
100
AcDbEntity
  8
035
100
AcDbLine
 62
7
  6
CONTINUOUS
 10
123.2188475629
 20
252.8152346745
 11
123.2188475629
 21
252.4152346745
  0
LINE
  5
4B2
100
AcDbEntity
  8
SCHRAFFIERT
100
AcDbLine
 62
2
  6
CONTINUOUS
 10
123.2335489132
 20
247.6910674236
 11
123.2335489132
 21
239.6910674236
  0
LINE
  5
4B3
100
AcDbEntity
  8
07
100
AcDbLine
 62
7
  6
CONTINUOUS
 10
123.6825547611
 20
189.0088071436
 11
123.6825547611
 21
181.5079299506
  0
LINE
  5
4B4
100
AcDbEntity
  8
0
100
AcDbLine
 62
2
  6
CONTINUOUS
 10
123.6825547611
 20
80.6124543947
 11
123.6825547611
 21
69.3951449862
  0
LINE
  5
4B5
100
AcDbEntity
  8
07
100
AcDbLine
 62
7
  6
CONTINUOUS
 10
123.6825547611
 20
81.4124543947
 11
123.6825547611
 21
90.2134836345
  0
LINE
  5
4B6
100
AcDbEntity
  8
0
100
AcDbLine
 62
2
  6
CONTINUOUS
 10
123.6825547611
 20
189.8088071436
 11
123.6825547611
 21
197.8533548359
  0
LINE
  5
4B7
100
AcDbEntity
  8
0
100
AcDbLine
 62
2
  6
CONTINUOUS
 10
123.6835489982
 20
220.5159028681
 11
123.6835489982
 21
210.8730252019
  0
LINE
  5
4B8
100
AcDbEntity
  8
05
100
AcDbLine
 62
7
  6
CONTINUOUS
 10
123.6835489982
 20
221.3159028681
 11
123.6835489982
 21
227.8159028681
  0
LINE
  5
4B9
100
AcDbEntity
  8
05
100
AcDbLine
 62
7
  6
CONTINUOUS
 10
123.6835489982
 20
228.3159028681
 11
123.6835489982
 21
230.8159028431
  0
LINE
  5
4BA
100
AcDbEntity
  8
010
100
AcDbLine
 62
2
  6
CONTINUOUS
 10
124.2286186208
 20
189.5088656231
 11
124.2286186208
 21
181.5079299506
  0
LINE
  5
4BB
100
AcDbEntity
  8
010
100
AcDbLine
 62
2
  6
CONTINUOUS
 10
124.2326190886
 20
80.8623900672
 11
124.2326190886
 21
90.763547962
  0
LINE
  5
4BC
100
AcDbEntity
  8
07
100
AcDbLine
 62
7
  6
CONTINUOUS
 10
124.2467856011
 20
134.7037908704
 11
124.2467856011
 21
126.5635208067
  0
LINE
  5
4BD
100
AcDbEntity
  8
0
100
AcDbLine
 62
2
  6
CONTINUOUS
 10
124.2467856011
 20
135.5037908704
 11
124.2467856011
 21
145.7829136448
  0
LINE
  5
4BE
100
AcDbEntity
  8
05
100
AcDbLine
 62
7
  6
CONTINUOUS
 10
124.3085489132
 20
251.7421101041
 11
124.3085489132
 21
262.8159028431
  0
LINE
  5
4BF
100
AcDbEntity
  8
07
100
AcDbLine
 62
7
  6
CONTINUOUS
 10
124.3826366325
 20
181.5079299506
 11
124.3826366325
 21
179.5076960325
  0
LINE
  5
4C0
100
AcDbEntity
  8
025
100
AcDbLine
 62
2
  6
CONTINUOUS
 10
124.549574402
 20
220.8159028681
 11
124.549574402
 21
228.3159028681
  0
LINE
  5
4C1
100
AcDbEntity
  8
SCHRAFFIERT
100
AcDbLine
 62
2
  6
CONTINUOUS
 10
124.8335489132
 20
247.6910674236
 11
124.8335489132
 21
239.6910674236
  0
LINE
  5
4C2
100
AcDbEntity
  8
010
100
AcDbLine
 62
2
  6
CONTINUOUS
 10
124.8954633718
 20
135.2125577494
 11
124.8954633718
 21
126.0547539277
  0
LINE
  5
4C3
100
AcDbEntity
  8
07
100
AcDbLine
 62
7
  6
CONTINUOUS
 10
125.0608126075
 20
137.6037620806
 11
125.0608126075
 21
135.2125577494
  0
LINE
  5
4C4
100
AcDbEntity
  8
07
100
AcDbLine
 62
7
  6
CONTINUOUS
 10
125.0608126075
 20
126.0547539277
 11
125.0608126075
 21
123.6635495965
  0
LINE
  5
4C5
100
AcDbEntity
  8
05
100
AcDbLine
 62
7
  6
CONTINUOUS
 10
126.3592870572
 20
251.7421101041
 11
126.3592870572
 21
263.6792116826
  0
LINE
  5
4C6
100
AcDbEntity
  8
SCHRAFFIERT
100
AcDbLine
 62
2
  6
CONTINUOUS
 10
126.7335489132
 20
247.6910674236
 11
126.7335489132
 21
239.6910674236
  0
LINE
  5
4C7
100
AcDbEntity
  8
0
100
AcDbLine
 62
2
  6
CONTINUOUS
 10
127.1825547611
 20
197.9943526056
 11
127.1825547611
 21
196.827685939
  0
LINE
  5
4C8
100
AcDbEntity
  8
0
100
AcDbLine
 62
2
  6
CONTINUOUS
 10
123.6825547611
 20
197.4110192723
 11
127.1825547611
 21
197.9943526056
  0
LINE
  5
4C9
100
AcDbEntity
  8
0
100
AcDbLine
 62
2
  6
CONTINUOUS
 10
127.1825547611
 20
196.827685939
 11
123.6825547611
 21
197.4110192723
  0
HATCH
  5
4CA
100
AcDbEntity
  8
0
100
AcDbHatch
 62
2
  6
CONTINUOUS
 10
0.0
 20
0.0
 30
0.0
210
0.0
220
0.0
230
1.0
  2

 70
1
 71
1
 91
1
 92
1
 93
3
 72
1
 10
127.1825547611
 20
196.827685939
 11
123.6825547611
 21
197.4110192723
 72
1
 10
123.6825547611
 20
197.4110192723
 11
127.1825547611
 21
197.9943526056
 72
1
 10
127.1825547611
 20
197.9943526056
 11
127.1825547611
 21
196.827685939
 97
3
330
4C7
330
4C8
330
4C9
 75
0
 76
1
 98
1
 10
0.0
 20
0.0
  0
LINE
  5
4CB
100
AcDbEntity
  8
0
100
AcDbLine
 62
2
  6
CONTINUOUS
 10
127.1835489982
 20
212.2563585352
 11
127.1835489982
 21
211.0896918686
  0
LINE
  5
4CC
100
AcDbEntity
  8
0
100
AcDbLine
 62
2
  6
CONTINUOUS
 10
123.6835489982
 20
211.6730252019
 11
127.1835489982
 21
212.2563585352
  0
LINE
  5
4CD
100
AcDbEntity
  8
0
100
AcDbLine
 62
2
  6
CONTINUOUS
 10
127.1835489982
 20
211.0896918686
 11
123.6835489982
 21
211.6730252019
  0
HATCH
  5
4CE
100
AcDbEntity
  8
0
100
AcDbHatch
 62
2
  6
CONTINUOUS
 10
0.0
 20
0.0
 30
0.0
210
0.0
220
0.0
230
1.0
  2

 70
1
 71
1
 91
1
 92
1
 93
3
 72
1
 10
127.1835489982
 20
211.0896918686
 11
123.6835489982
 21
211.6730252019
 72
1
 10
123.6835489982
 20
211.6730252019
 11
127.1835489982
 21
212.2563585352
 72
1
 10
127.1835489982
 20
212.2563585352
 11
127.1835489982
 21
211.0896918686
 97
3
330
4CB
330
4CC
330
4CD
 75
0
 76
1
 98
1
 10
0.0
 20
0.0
  0
LINE
  5
4CF
100
AcDbEntity
  8
07
100
AcDbLine
 62
7
  6
CONTINUOUS
 10
127.4329933576
 20
97.8144894824
 11
127.4329933576
 21
93.813787728
  0
LINE
  5
4D0
100
AcDbEntity
  8
0
100
AcDbLine
 62
2
  6
CONTINUOUS
 10
127.4329933576
 20
99.1144310029
 11
127.4329933576
 21
106.2765434632
  0
LINE
  5
4D1
100
AcDbEntity
  8
010
100
AcDbLine
 62
2
  6
CONTINUOUS
 10
128.1829933576
 20
98.5644894824
 11
128.1829933576
 21
93.063787728
  0
LINE
  5
4D2
100
AcDbEntity
  8
05
100
AcDbLine
 62
7
  6
CONTINUOUS
 10
128.6835489132
 20
189.5088656231
 11
128.6835489132
 21
175.5076960325
  0
LINE
  5
4D3
100
AcDbEntity
  8
05
100
AcDbLine
 62
7
  6
CONTINUOUS
 10
128.6835489132
 20
90.8135538099
 11
128.6835489132
 21
92.5632321725
  0
LINE
  5
4D4
100
AcDbEntity
  8
SCHRAFFIERT
100
AcDbLine
 62
2
  6
CONTINUOUS
 10
128.8335489132
 20
247.6910674236
 11
128.8335489132
 21
239.6910674236
  0
LINE
  5
4D5
100
AcDbEntity
  8
05
100
AcDbLine
 62
7
  6
CONTINUOUS
 10
130.0649960939
 20
233.3159028181
 11
130.0649960939
 21
235.652621984
  0
LINE
  5
4D6
100
AcDbEntity
  8
05
100
AcDbLine
 62
7
  6
CONTINUOUS
 10
130.9929499899
 20
171.5076960325
 11
130.9929499899
 21
176.5076960325
  0
LINE
  5
4D7
100
AcDbEntity
  8
07
100
AcDbLine
 62
7
  6
CONTINUOUS
 10
131.0642617794
 20
126.0547539277
 11
131.0642617794
 21
123.409166157
  0
LINE
  5
4D8
100
AcDbEntity
  8
05
100
AcDbLine
 62
7
  6
CONTINUOUS
 10
125.4435369126
 20
251.7421101041
 11
125.4532481072
 21
262.9864322052
  0
LINE
  5
4D9
100
AcDbEntity
  8
SCHRAFFIERT
100
AcDbLine
 62
2
  6
CONTINUOUS
 10
139.6344202582
 20
162.0640156413
 11
141.6846600243
 21
164.1142554074
  0
LINE
  5
4DA
100
AcDbEntity
  8
SCHRAFFIERT
100
AcDbLine
 62
2
  6
CONTINUOUS
 10
139.6344202582
 20
160.4823294203
 11
141.6846600243
 21
162.5325691863
  0
LINE
  5
4DB
100
AcDbEntity
  8
SCHRAFFIERT
100
AcDbLine
 62
2
  6
CONTINUOUS
 10
139.6344202582
 20
158.9006431992
 11
141.6846600243
 21
160.9508829653
  0
LINE
  5
4DC
100
AcDbEntity
  8
SCHRAFFIERT
100
AcDbLine
 62
2
  6
CONTINUOUS
 10
139.8205862132
 20
157.505122933
 11
141.6846600243
 21
159.3691967442
  0
LINE
  5
4DD
100
AcDbEntity
  8
SCHRAFFIERT
100
AcDbLine
 62
2
  6
CONTINUOUS
 10
141.4022724342
 20
157.505122933
 11
141.6846600243
 21
157.7875105231
  0
LINE
  5
4DE
100
AcDbEntity
  8
07
100
AcDbLine
 62
7
  6
CONTINUOUS
 10
125.3151960469
 20
137.8581455201
 11
125.0608126075
 21
137.6037620806
  0
LINE
  5
4DF
100
AcDbEntity
  8
07
100
AcDbLine
 62
7
  6
CONTINUOUS
 10
124.2467856011
 20
134.7037908704
 11
124.7555524801
 21
135.2125577494
  0
LINE
  5
4E0
100
AcDbEntity
  8
05
100
AcDbLine
 62
7
  6
CONTINUOUS
 10
67.954111209
 20
169.0949614285
 11
59.454111209
 21
169.0949614285
  0
LINE
  5
4E1
100
AcDbEntity
  8
05
100
AcDbLine
 62
7
  6
CONTINUOUS
 10
132.1835489132
 20
171.5076960325
 11
130.9929499899
 21
171.5076960325
  0
LINE
  5
4E2
100
AcDbEntity
  8
07
100
AcDbLine
 62
7
  6
CONTINUOUS
 10
140.0844728898
 20
172.506877319
 11
132.1835489132
 21
172.506877319
  0
LINE
  5
4E3
100
AcDbEntity
  8
025
100
AcDbLine
 62
2
  6
CONTINUOUS
 10
61.6456578504
 20
178.5190148467
 11
62.2301569522
 21
178.4395992079
  0
LINE
  5
4E4
100
AcDbEntity
  8
025
100
AcDbLine
 62
2
  6
CONTINUOUS
 10
61.6456578504
 20
179.4720025127
 11
62.2301569522
 21
179.3925868739
  0
LINE
  5
4E5
100
AcDbEntity
  8
025
100
AcDbLine
 62
2
  6
CONTINUOUS
 10
59.9556930561
 20
180.2680648764
 11
60.8943859071
 21
180.0291826348
  0
LINE
  5
4E6
100
AcDbEntity
  8
07
100
AcDbLine
 62
7
  6
CONTINUOUS
 10
139.6115453463
 20
135.2125577494
 11
140.1203122253
 21
134.7037908704
  0
LINE
  5
4E7
100
AcDbEntity
  8
07
100
AcDbLine
 62
7
  6
CONTINUOUS
 10
139.3062852189
 20
137.6037620806
 11
139.0519017794
 21
137.8581455201
  0
LINE
  5
4E8
100
AcDbEntity
  8
05
100
AcDbLine
 62
7
  6
CONTINUOUS
 10
61.704111209
 20
219.795040519
 11
60.454111209
 21
221.045040519
  0
LINE
  5
4E9
100
AcDbEntity
  8
05
100
AcDbLine
 62
7
  6
CONTINUOUS
 10
59.329111209
 20
226.295040519
 11
59.429111209
 21
226.195040519
  0
LINE
  5
4EA
100
AcDbEntity
  8
05
100
AcDbLine
 62
7
  6
CONTINUOUS
 10
57.704111209
 20
230.7326228093
 11
57.404111209
 21
231.0326228093
  0
LINE
  5
4EB
100
AcDbEntity
  8
SCHRAFFIERT
100
AcDbLine
 62
2
  6
CONTINUOUS
 10
131.2335489132
 20
247.6910674236
 11
131.2335489132
 21
239.6910674236
  0
LINE
  5
4EC
100
AcDbEntity
  8
MITTE
100
AcDbLine
 62
2
  6
CENTER
 10
132.1835489132
 20
264.5376899144
 11
132.1835489132
 21
217.6336344133
  0
LINE
  5
4ED
100
AcDbEntity
  8
MITTE
100
AcDbLine
 62
2
  6
CENTER
 10
132.1835489132
 20
190.1909453892
 11
132.1835489132
 21
156.6780262079
  0
LINE
  5
4EE
100
AcDbEntity
  8
MITTE
100
AcDbLine
 62
2
  6
CENTER
 10
132.1835489132
 20
138.5307353341
 11
132.1835489132
 21
122.8495225902
  0
LINE
  5
4EF
100
AcDbEntity
  8
MITTE
100
AcDbLine
 62
2
  6
CENTER
 10
132.1835489132
 20
79.5379300087
 11
132.1835489132
 21
99.4420628742
  0
LINE
  5
4F0
100
AcDbEntity
  8
SCHRAFFIERT
100
AcDbLine
 62
2
  6
CONTINUOUS
 10
133.1335489132
 20
247.6910674236
 11
133.1335489132
 21
239.6910674236
  0
LINE
  5
4F1
100
AcDbEntity
  8
07
100
AcDbLine
 62
7
  6
CONTINUOUS
 10
133.3028360469
 20
126.0547539277
 11
133.3028360469
 21
123.409166157
  0
LINE
  5
4F2
100
AcDbEntity
  8
05
100
AcDbLine
 62
7
  6
CONTINUOUS
 10
134.3021017325
 20
233.3159028181
 11
134.3021017325
 21
235.652621984
  0
LINE
  5
4F3
100
AcDbEntity
  8
SCHRAFFIERT
100
AcDbLine
 62
2
  6
CONTINUOUS
 10
135.5335489132
 20
247.6910674236
 11
135.5335489132
 21
239.6910674236
  0
LINE
  5
4F4
100
AcDbEntity
  8
05
100
AcDbLine
 62
7
  6
CONTINUOUS
 10
135.6835489132
 20
90.8135538099
 11
135.6835489132
 21
92.5632321725
  0
LINE
  5
4F5
100
AcDbEntity
  8
07
100
AcDbLine
 62
7
  6
CONTINUOUS
 10
136.1519305692
 20
136.8406117621
 11
136.1519305692
 21
124.426699915
  0
LINE
  5
4F6
100
AcDbEntity
  8
010
100
AcDbLine
 62
2
  6
CONTINUOUS
 10
136.1841044687
 20
98.5644894824
 11
136.1841044687
 21
93.063787728
  0
LINE
  5
4F7
100
AcDbEntity
  8
07
100
AcDbLine
 62
7
  6
CONTINUOUS
 10
136.684075229
 20
189.5088656231
 11
136.684075229
 21
172.506877319
  0
LINE
  5
4F8
100
AcDbEntity
  8
07
100
AcDbLine
 62
7
  6
CONTINUOUS
 10
136.9341044687
 20
97.8144894824
 11
136.9341044687
 21
93.813787728
  0
LINE
  5
4F9
100
AcDbEntity
  8
0
100
AcDbLine
 62
2
  6
CONTINUOUS
 10
136.9341044687
 20
99.1144310029
 11
136.9341044687
 21
106.2765434632
  0
LINE
  5
4FA
100
AcDbEntity
  8
010
100
AcDbLine
 62
2
  6
CONTINUOUS
 10
137.1694643272
 20
137.8581455201
 11
137.1694643272
 21
123.409166157
  0
LINE
  5
4FB
100
AcDbEntity
  8
0
100
AcDbLine
 62
2
  6
CONTINUOUS
 10
137.1694643272
 20
122.609166157
 11
137.1694643272
 21
114.5624027023
  0
LINE
  5
4FC
100
AcDbEntity
  8
0
100
AcDbLine
 62
2
  6
CONTINUOUS
 10
137.1835488282
 20
212.2563585352
 11
137.1835488282
 21
211.0896918686
  0
LINE
  5
4FD
100
AcDbEntity
  8
0
100
AcDbLine
 62
2
  6
CONTINUOUS
 10
137.1835488282
 20
211.0896918686
 11
140.6835488282
 21
211.6730252019
  0
LINE
  5
4FE
100
AcDbEntity
  8
0
100
AcDbLine
 62
2
  6
CONTINUOUS
 10
140.6835488282
 20
211.6730252019
 11
137.1835488282
 21
212.2563585352
  0
HATCH
  5
4FF
100
AcDbEntity
  8
0
100
AcDbHatch
 62
2
  6
CONTINUOUS
 10
0.0
 20
0.0
 30
0.0
210
0.0
220
0.0
230
1.0
  2

 70
1
 71
1
 91
1
 92
1
 93
3
 72
1
 10
137.1835488282
 20
211.0896918686
 11
140.6835488282
 21
211.6730252019
 72
1
 10
140.6835488282
 20
211.6730252019
 11
137.1835488282
 21
212.2563585352
 72
1
 10
137.1835488282
 20
212.2563585352
 11
137.1835488282
 21
211.0896918686
 97
3
330
4FC
330
4FD
330
4FE
 75
0
 76
1
 98
1
 10
0.0
 20
0.0
  0
LINE
  5
500
100
AcDbEntity
  8
0
100
AcDbLine
 62
2
  6
CONTINUOUS
 10
137.1845430652
 20
197.9943526056
 11
137.1845430652
 21
196.827685939
  0
LINE
  5
501
100
AcDbEntity
  8
0
100
AcDbLine
 62
2
  6
CONTINUOUS
 10
137.1845430652
 20
196.827685939
 11
140.6845430652
 21
197.4110192723
  0
LINE
  5
502
100
AcDbEntity
  8
0
100
AcDbLine
 62
2
  6
CONTINUOUS
 10
140.6845430652
 20
197.4110192723
 11
137.1845430652
 21
197.9943526056
  0
HATCH
  5
503
100
AcDbEntity
  8
0
100
AcDbHatch
 62
2
  6
CONTINUOUS
 10
0.0
 20
0.0
 30
0.0
210
0.0
220
0.0
230
1.0
  2

 70
1
 71
1
 91
1
 92
1
 93
3
 72
1
 10
137.1845430652
 20
196.827685939
 11
140.6845430652
 21
197.4110192723
 72
1
 10
140.6845430652
 20
197.4110192723
 11
137.1845430652
 21
197.9943526056
 72
1
 10
137.1845430652
 20
197.9943526056
 11
137.1845430652
 21
196.827685939
 97
3
330
500
330
501
330
502
 75
0
 76
1
 98
1
 10
0.0
 20
0.0
  0
LINE
  5
504
100
AcDbEntity
  8
SCHRAFFIERT
100
AcDbLine
 62
2
  6
CONTINUOUS
 10
137.6335489132
 20
247.6910674236
 11
137.6335489132
 21
239.6910674236
  0
LINE
  5
505
100
AcDbEntity
  8
07
100
AcDbLine
 62
7
  6
CONTINUOUS
 10
139.3062852189
 20
137.6037620806
 11
139.3062852189
 21
135.2125577494
  0
LINE
  5
506
100
AcDbEntity
  8
07
100
AcDbLine
 62
7
  6
CONTINUOUS
 10
139.3062852189
 20
126.0547539277
 11
139.3062852189
 21
123.6635495965
  0
LINE
  5
507
100
AcDbEntity
  8
010
100
AcDbLine
 62
2
  6
CONTINUOUS
 10
139.4716344546
 20
135.2125577494
 11
139.4716344546
 21
126.0547539277
  0
LINE
  5
508
100
AcDbEntity
  8
SCHRAFFIERT
100
AcDbLine
 62
2
  6
CONTINUOUS
 10
139.5335489132
 20
247.6910674236
 11
139.5335489132
 21
239.6910674236
  0
LINE
  5
509
100
AcDbEntity
  8
07
100
AcDbLine
 62
7
  6
CONTINUOUS
 10
139.6344202582
 20
172.506877319
 11
139.6344202582
 21
157.505122933
  0
LINE
  5
50A
100
AcDbEntity
  8
025
100
AcDbLine
 62
2
  6
CONTINUOUS
 10
139.8175234244
 20
220.8159028681
 11
139.8175234244
 21
228.3159028681
  0
LINE
  5
50B
100
AcDbEntity
  8
07
100
AcDbLine
 62
7
  6
CONTINUOUS
 10
139.9844611939
 20
181.5079299506
 11
139.9844611939
 21
179.5076960325
  0
LINE
  5
50C
100
AcDbEntity
  8
05
100
AcDbLine
 62
7
  6
CONTINUOUS
 10
140.0585489132
 20
251.7421101041
 11
140.0585489132
 21
262.8159028431
  0
LINE
  5
50D
100
AcDbEntity
  8
010
100
AcDbLine
 62
2
  6
CONTINUOUS
 10
140.0844728898
 20
172.506877319
 11
140.0844728898
 21
157.505122933
  0
LINE
  5
50E
100
AcDbEntity
  8
07
100
AcDbLine
 62
7
  6
CONTINUOUS
 10
140.1203122253
 20
134.7037908704
 11
140.1203122253
 21
126.5635208067
  0
LINE
  5
50F
100
AcDbEntity
  8
0
100
AcDbLine
 62
2
  6
CONTINUOUS
 10
140.1203122253
 20
135.5037908704
 11
140.1203122253
 21
145.7829136448
  0
LINE
  5
510
100
AcDbEntity
  8
010
100
AcDbLine
 62
2
  6
CONTINUOUS
 10
140.1344787377
 20
80.8623900672
 11
140.1344787377
 21
90.763547962
  0
LINE
  5
511
100
AcDbEntity
  8
010
100
AcDbLine
 62
2
  6
CONTINUOUS
 10
140.1384792056
 20
189.5088656231
 11
140.1384792056
 21
181.5079299506
  0
LINE
  5
512
100
AcDbEntity
  8
0
100
AcDbLine
 62
2
  6
CONTINUOUS
 10
140.6835488282
 20
220.5159028681
 11
140.6835488282
 21
210.8730252019
  0
LINE
  5
513
100
AcDbEntity
  8
05
100
AcDbLine
 62
7
  6
CONTINUOUS
 10
140.6835488282
 20
221.3159028681
 11
140.6835488282
 21
227.8159028681
  0
LINE
  5
514
100
AcDbEntity
  8
05
100
AcDbLine
 62
7
  6
CONTINUOUS
 10
140.6835488282
 20
228.3159028681
 11
140.6835488282
 21
230.8159028431
  0
LINE
  5
515
100
AcDbEntity
  8
07
100
AcDbLine
 62
7
  6
CONTINUOUS
 10
140.6845430652
 20
189.0088071436
 11
140.6845430652
 21
181.5079299506
  0
LINE
  5
516
100
AcDbEntity
  8
0
100
AcDbLine
 62
2
  6
CONTINUOUS
 10
140.6845430652
 20
80.6124543947
 11
140.6845430652
 21
69.3951449862
  0
LINE
  5
517
100
AcDbEntity
  8
07
100
AcDbLine
 62
7
  6
CONTINUOUS
 10
140.6845430652
 20
81.4124543947
 11
140.6845430652
 21
90.2134836345
  0
LINE
  5
518
100
AcDbEntity
  8
0
100
AcDbLine
 62
2
  6
CONTINUOUS
 10
140.6845430652
 20
189.8088071436
 11
140.6845430652
 21
197.8533548359
  0
LINE
  5
519
100
AcDbEntity
  8
SCHRAFFIERT
100
AcDbLine
 62
2
  6
CONTINUOUS
 10
141.1335489132
 20
247.6910674236
 11
141.1335489132
 21
239.6910674236
  0
LINE
  5
51A
100
AcDbEntity
  8
05
100
AcDbLine
 62
7
  6
CONTINUOUS
 10
141.6835488182
 20
231.3159028381
 11
141.6835488182
 21
235.652621984
  0
LINE
  5
51B
100
AcDbEntity
  8
07
100
AcDbLine
 62
7
  6
CONTINUOUS
 10
141.6846600243
 20
179.0076375529
 11
141.6846600243
 21
157.8033685471
  0
LINE
  5
51C
100
AcDbEntity
  8
SCHRAFFIERT
100
AcDbLine
 62
2
  6
CONTINUOUS
 10
142.3335489132
 20
247.6910674236
 11
142.3335489132
 21
239.6910674236
  0
LINE
  5
51D
100
AcDbEntity
  8
SCHRAFFIERT
100
AcDbLine
 62
2
  6
CONTINUOUS
 10
143.3335489132
 20
247.6910674236
 11
143.3335489132
 21
239.6910674236
  0
LINE
  5
51E
100
AcDbEntity
  8
05
100
AcDbLine
 62
7
  6
CONTINUOUS
 10
141.6726271386
 20
235.6910674236
 11
141.4648271616
 21
233.3159028181
  0
LINE
  5
51F
100
AcDbEntity
  8
07
100
AcDbLine
 62
7
  6
CONTINUOUS
 10
137.1694643272
 20
137.8581455201
 11
136.1519305692
 21
136.8406117621
  0
LINE
  5
520
100
AcDbEntity
  8
SCHRAFFIERT
100
AcDbLine
 62
2
  6
CONTINUOUS
 10
136.1519305692
 20
136.6129324439
 11
137.3971436455
 21
137.8581455201
  0
LINE
  5
521
100
AcDbEntity
  8
SCHRAFFIERT
100
AcDbLine
 62
2
  6
CONTINUOUS
 10
136.1519305692
 20
135.0037015336
 11
139.0063745558
 21
137.8581455201
  0
LINE
  5
522
100
AcDbEntity
  8
SCHRAFFIERT
100
AcDbLine
 62
2
  6
CONTINUOUS
 10
136.1519305692
 20
133.3944706232
 11
139.3062852189
 21
136.5488252729
  0
LINE
  5
523
100
AcDbEntity
  8
SCHRAFFIERT
100
AcDbLine
 62
2
  6
CONTINUOUS
 10
136.1519305692
 20
131.7852397129
 11
139.5792486057
 21
135.2125577494
  0
LINE
  5
524
100
AcDbEntity
  8
SCHRAFFIERT
100
AcDbLine
 62
2
  6
CONTINUOUS
 10
136.1519305692
 20
130.1760088026
 11
140.1203122253
 21
134.1443904587
  0
LINE
  5
525
100
AcDbEntity
  8
SCHRAFFIERT
100
AcDbLine
 62
2
  6
CONTINUOUS
 10
136.1519305692
 20
128.5667778923
 11
140.1203122253
 21
132.5351595484
  0
LINE
  5
526
100
AcDbEntity
  8
SCHRAFFIERT
100
AcDbLine
 62
2
  6
CONTINUOUS
 10
136.1519305692
 20
126.957546982
 11
140.1203122253
 21
130.9259286381
  0
LINE
  5
527
100
AcDbEntity
  8
SCHRAFFIERT
100
AcDbLine
 62
2
  6
CONTINUOUS
 10
136.1519305692
 20
125.3483160717
 11
140.1203122253
 21
129.3166977278
  0
LINE
  5
528
100
AcDbEntity
  8
025
100
AcDbLine
 62
2
  6
CONTINUOUS
 10
67.0801772839
 20
169.0949614285
 11
67.4525293619
 21
169.1997900717
  0
LINE
  5
529
100
AcDbEntity
  8
025
100
AcDbLine
 62
2
  6
CONTINUOUS
 10
62.9053206517
 20
169.0949614285
 11
67.4525293619
 21
170.3751415265
  0
LINE
  5
52A
100
AcDbEntity
  8
025
100
AcDbLine
 62
2
  6
CONTINUOUS
 10
60.8743093171
 20
169.0949614285
 11
67.4525293619
 21
170.9469341261
  0
LINE
  5
52B
100
AcDbEntity
  8
025
100
AcDbLine
 62
2
  6
CONTINUOUS
 10
59.9556930561
 20
170.0116939523
 11
67.4525293619
 21
172.1222855808
  0
LINE
  5
52C
100
AcDbEntity
  8
025
100
AcDbLine
 62
2
  6
CONTINUOUS
 10
59.9556930561
 20
170.5834865519
 11
67.4525293619
 21
172.6940781804
  0
LINE
  5
52D
100
AcDbEntity
  8
025
100
AcDbLine
 62
2
  6
CONTINUOUS
 10
59.9556930561
 20
171.7588380067
 11
67.4525293619
 21
173.8694296351
  0
LINE
  5
52E
100
AcDbEntity
  8
025
100
AcDbLine
 62
2
  6
CONTINUOUS
 10
59.9556930561
 20
172.3306306063
 11
67.4525293619
 21
174.4412222347
  0
LINE
  5
52F
100
AcDbEntity
  8
025
100
AcDbLine
 62
2
  6
CONTINUOUS
 10
59.9556930561
 20
173.505982061
 11
67.4525293619
 21
175.6165736895
  0
LINE
  5
530
100
AcDbEntity
  8
025
100
AcDbLine
 62
2
  6
CONTINUOUS
 10
59.9556930561
 20
174.0777746606
 11
67.3964346973
 21
176.1725739035
  0
LINE
  5
531
100
AcDbEntity
  8
025
100
AcDbLine
 62
2
  6
CONTINUOUS
 10
59.9556930561
 20
175.2531261153
 11
66.2957699912
 21
177.0380541513
  0
LINE
  5
532
100
AcDbEntity
  8
025
100
AcDbLine
 62
2
  6
CONTINUOUS
 10
67.2853642611
 20
177.3166555901
 11
67.4525293619
 21
177.3637177438
  0
LINE
  5
533
100
AcDbEntity
  8
025
100
AcDbLine
 62
2
  6
CONTINUOUS
 10
65.0687895467
 20
177.5641212054
 11
65.736516238
 21
177.6438545068
  0
LINE
  5
534
100
AcDbEntity
  8
025
100
AcDbLine
 62
2
  6
CONTINUOUS
 10
65.0687895467
 20
178.5171088714
 11
65.736516238
 21
178.5968421728
  0
LINE
  5
535
100
AcDbEntity
  8
025
100
AcDbLine
 62
2
  6
CONTINUOUS
 10
60.2733556114
 20
179.0240746597
 11
60.8943859071
 21
179.0761949688
  0
LINE
  5
536
100
AcDbEntity
  8
05
100
AcDbLine
 62
7
  6
CONTINUOUS
 10
132.1835489132
 20
176.5076960325
 11
130.9929499899
 21
176.5076960325
  0
LINE
  5
537
100
AcDbEntity
  8
025
100
AcDbLine
 62
2
  6
CONTINUOUS
 10
64.4007451928
 20
177.5641212054
 11
65.0687895467
 21
177.5641212054
  0
LINE
  5
538
100
AcDbEntity
  8
025
100
AcDbLine
 62
2
  6
CONTINUOUS
 10
62.2301569522
 20
178.4395992079
 11
63.3156099038
 21
178.4395992079
  0
LINE
  5
539
100
AcDbEntity
  8
025
100
AcDbLine
 62
2
  6
CONTINUOUS
 10
64.4007451928
 20
178.5171088714
 11
65.0687895467
 21
178.5171088714
  0
LINE
  5
53A
100
AcDbEntity
  8
025
100
AcDbLine
 62
2
  6
CONTINUOUS
 10
123.020992305
 20
179.0076375529
 11
123.5856706676
 21
179.0076375529
  0
LINE
  5
53B
100
AcDbEntity
  8
025
100
AcDbLine
 62
2
  6
CONTINUOUS
 10
124.2457876266
 20
179.0076375529
 11
128.6835489132
 21
179.0076375529
  0
LINE
  5
53C
100
AcDbEntity
  8
025
100
AcDbLine
 62
2
  6
CONTINUOUS
 10
62.2301569522
 20
179.3925868739
 11
63.3156099038
 21
179.3925868739
  0
LINE
  5
53D
100
AcDbEntity
  8
07
100
AcDbLine
 62
7
  6
CONTINUOUS
 10
141.1846015448
 20
179.5076960325
 11
139.9844611939
 21
179.5076960325
  0
LINE
  5
53E
100
AcDbEntity
  8
07
100
AcDbLine
 62
7
  6
CONTINUOUS
 10
128.6835489132
 20
179.5076960325
 11
123.1824962816
 21
179.5076960325
  0
LINE
  5
53F
100
AcDbEntity
  8
07
100
AcDbLine
 62
7
  6
CONTINUOUS
 10
140.6845430652
 20
181.5079299506
 11
139.9844611939
 21
181.5079299506
  0
LINE
  5
540
100
AcDbEntity
  8
07
100
AcDbLine
 62
7
  6
CONTINUOUS
 10
128.6835489132
 20
181.5079299506
 11
123.6825547611
 21
181.5079299506
  0
LINE
  5
541
100
AcDbEntity
  8
0
100
AcDbLine
 62
2
  6
CONTINUOUS
 10
55.1850448225
 20
183.1387108018
 11
98.9648025007
 21
183.1387108018
  0
LINE
  5
542
100
AcDbEntity
  8
05
100
AcDbLine
 62
7
  6
CONTINUOUS
 10
69.704111209
 20
234.7326228093
 11
70.004111209
 21
234.4326228093
  0
LINE
  5
543
100
AcDbEntity
  8
SCHRAFFIERT
100
AcDbLine
 62
2
  6
CONTINUOUS
 10
144.0335489132
 20
247.6910674236
 11
144.0335489132
 21
239.6910674236
  0
LINE
  5
544
100
AcDbEntity
  8
05
100
AcDbLine
 62
7
  6
CONTINUOUS
 10
144.1835489132
 20
249.8910674236
 11
144.1835489132
 21
247.6910674236
  0
LINE
  5
545
100
AcDbEntity
  8
05
100
AcDbLine
 62
7
  6
CONTINUOUS
 10
144.1835489132
 20
239.6910674236
 11
144.1835489132
 21
236.4910674236
  0
LINE
  5
546
100
AcDbEntity
  8
SCHRAFFIERT
100
AcDbLine
 62
2
  6
CONTINUOUS
 10
144.5335489132
 20
247.3410674236
 11
144.5335489132
 21
240.0410674236
  0
LINE
  5
547
100
AcDbEntity
  8
05
100
AcDbLine
 62
7
  6
CONTINUOUS
 10
144.7835489132
 20
247.0910674236
 11
144.7835489132
 21
240.2910674236
  0
LINE
  5
548
100
AcDbEntity
  8
SCHRAFFIERT
100
AcDbLine
 62
2
  6
CONTINUOUS
 10
136.495737946
 20
124.0828925382
 11
140.1203122253
 21
127.7074668175
  0
LINE
  5
549
100
AcDbEntity
  8
07
100
AcDbLine
 62
7
  6
CONTINUOUS
 10
139.6115453463
 20
126.0547539277
 11
140.1203122253
 21
126.5635208067
  0
LINE
  5
54A
100
AcDbEntity
  8
SCHRAFFIERT
100
AcDbLine
 62
2
  6
CONTINUOUS
 10
137.4312424752
 20
123.409166157
 11
139.3062852189
 21
125.2842089008
  0
LINE
  5
54B
100
AcDbEntity
  8
SCHRAFFIERT
100
AcDbLine
 62
2
  6
CONTINUOUS
 10
139.0404733855
 20
123.409166157
 11
139.3062852189
 21
123.6749779905
  0
LINE
  5
54C
100
AcDbEntity
  8
07
100
AcDbLine
 62
7
  6
CONTINUOUS
 10
139.3062852189
 20
123.6635495965
 11
139.0519017794
 21
123.409166157
  0
LINE
  5
54D
100
AcDbEntity
  8
025
100
AcDbLine
 62
2
  6
CONTINUOUS
 10
59.9556930561
 20
175.8249187149
 11
65.8738811491
 21
177.4910719742
  0
LINE
  5
54E
100
AcDbEntity
  8
025
100
AcDbLine
 62
2
  6
CONTINUOUS
 10
66.6374961558
 20
177.7060532509
 11
67.4525293619
 21
177.9355103434
  0
LINE
  5
54F
100
AcDbEntity
  8
025
100
AcDbLine
 62
2
  6
CONTINUOUS
 10
59.9556930561
 20
177.0002701697
 11
63.6038834919
 21
178.0273487771
  0
LINE
  5
550
100
AcDbEntity
  8
025
100
AcDbLine
 62
2
  6
CONTINUOUS
 10
65.5458635766
 20
178.5740763222
 11
67.4525293619
 21
179.1108617982
  0
LINE
  5
551
100
AcDbEntity
  8
025
100
AcDbLine
 62
2
  6
CONTINUOUS
 10
59.9556930561
 20
177.5720627693
 11
63.0371885865
 21
178.4395992079
  0
LINE
  5
552
100
AcDbEntity
  8
025
100
AcDbLine
 62
2
  6
CONTINUOUS
 10
63.9535370219
 20
178.6975796756
 11
67.4525293619
 21
179.6826543978
  0
LINE
  5
553
100
AcDbEntity
  8
025
100
AcDbLine
 62
2
  6
CONTINUOUS
 10
59.9556930561
 20
178.747414224
 11
60.9647410208
 21
179.0314924805
  0
LINE
  5
554
100
AcDbEntity
  8
025
100
AcDbLine
 62
2
  6
CONTINUOUS
 10
62.2473508453
 20
179.3925868739
 11
67.4525293619
 21
180.8580058525
  0
LINE
  5
555
100
AcDbEntity
  8
025
100
AcDbLine
 62
2
  6
CONTINUOUS
 10
61.3804777324
 20
179.7203278416
 11
67.4525293619
 21
181.4297984521
  0
LINE
  5
556
100
AcDbEntity
  8
025
100
AcDbLine
 62
2
  6
CONTINUOUS
 10
59.9556930561
 20
180.4945582784
 11
67.4525293619
 21
182.6051499068
  0
LINE
  5
557
100
AcDbEntity
  8
025
100
AcDbLine
 62
2
  6
CONTINUOUS
 10
59.9556930561
 20
181.066350878
 11
67.4525293619
 21
183.1769425064
  0
LINE
  5
558
100
AcDbEntity
  8
025
100
AcDbLine
 62
2
  6
CONTINUOUS
 10
59.9556930561
 20
182.2417023327
 11
67.4525293619
 21
184.3522939612
  0
LINE
  5
559
100
AcDbEntity
  8
025
100
AcDbLine
 62
2
  6
CONTINUOUS
 10
59.9556930561
 20
182.8134949323
 11
67.4525293619
 21
184.9240865608
  0
LINE
  5
55A
100
AcDbEntity
  8
025
100
AcDbLine
 62
2
  6
CONTINUOUS
 10
59.9556930561
 20
183.988846387
 11
67.4525293619
 21
186.0994380155
  0
LINE
  5
55B
100
AcDbEntity
  8
025
100
AcDbLine
 62
2
  6
CONTINUOUS
 10
59.9556930561
 20
184.5606389867
 11
67.4525293619
 21
186.6712306151
  0
LINE
  5
55C
100
AcDbEntity
  8
025
100
AcDbLine
 62
2
  6
CONTINUOUS
 10
59.9556930561
 20
185.7359904414
 11
67.4525293619
 21
187.8465820699
  0
LINE
  5
55D
100
AcDbEntity
  8
025
100
AcDbLine
 62
2
  6
CONTINUOUS
 10
59.9556930561
 20
186.307783041
 11
67.4525293619
 21
188.4183746695
  0
LINE
  5
55E
100
AcDbEntity
  8
025
100
AcDbLine
 62
2
  6
CONTINUOUS
 10
59.9556930561
 20
187.4831344957
 11
67.4525293619
 21
189.5937261242
  0
LINE
  5
55F
100
AcDbEntity
  8
025
100
AcDbLine
 62
2
  6
CONTINUOUS
 10
59.9556930561
 20
188.0549270953
 11
67.4525293619
 21
190.1655187238
  0
LINE
  5
560
100
AcDbEntity
  8
0
100
AcDbLine
 62
2
  6
CONTINUOUS
 10
123.6825547611
 20
189.0088071436
 11
132.1835489132
 21
189.0088071436
  0
LINE
  5
561
100
AcDbEntity
  8
025
100
AcDbLine
 62
2
  6
CONTINUOUS
 10
123.6825547611
 20
189.0088071436
 11
129.9160814475
 21
189.0088071436
  0
LINE
  5
562
100
AcDbEntity
  8
07
100
AcDbLine
 62
7
  6
CONTINUOUS
 10
140.1844845857
 20
189.5088656231
 11
124.1826132407
 21
189.5088656231
  0
LINE
  5
563
100
AcDbEntity
  8
05
100
AcDbLine
 62
7
  6
CONTINUOUS
 10
67.954111209
 20
192.295040519
 11
59.454111209
 21
192.295040519
  0
LINE
  5
564
100
AcDbEntity
  8
0
100
AcDbLine
 62
2
  6
CONTINUOUS
 10
68.78678393
 20
192.295040519
 11
79.8084039519
 21
192.295040519
  0
LINE
  5
565
100
AcDbEntity
  8
0
100
AcDbLine
 62
2
  6
CONTINUOUS
 10
127.1825547611
 20
197.4110192723
 11
137.1845430652
 21
197.4110192723
  0
LINE
  5
566
100
AcDbEntity
  8
025
100
AcDbLine
 62
2
  6
CONTINUOUS
 10
60.2354209043
 20
218.0911449274
 11
62.2613689392
 21
217.2881107135
  0
LINE
  5
567
100
AcDbEntity
  8
05
100
AcDbLine
 62
7
  6
CONTINUOUS
 10
66.6637221633
 20
217.7513718473
 11
65.704111209
 21
218.3054034901
  0
LINE
  5
568
100
AcDbEntity
  8
05
100
AcDbLine
 62
7
  6
CONTINUOUS
 10
67.904111209
 20
222.6605105729
 11
67.709111209
 21
222.7730938754
  0
LINE
  5
569
100
AcDbEntity
  8
07
100
AcDbLine
 62
7
  6
CONTINUOUS
 10
141.1846015448
 20
179.5076960325
 11
141.6846600243
 21
179.0076375529
  0
LINE
  5
56A
100
AcDbEntity
  8
07
100
AcDbLine
 62
7
  6
CONTINUOUS
 10
128.4329933576
 20
98.8144894824
 11
127.4329933576
 21
97.8144894824
  0
LINE
  5
56B
100
AcDbEntity
  8
07
100
AcDbLine
 62
7
  6
CONTINUOUS
 10
123.6825547611
 20
90.2134836345
 11
124.2826249366
 21
90.8135538099
  0
LINE
  5
56C
100
AcDbEntity
  8
07
100
AcDbLine
 62
7
  6
CONTINUOUS
 10
135.6835489132
 20
92.5632321725
 11
136.9341044687
 21
93.813787728
  0
LINE
  5
56D
100
AcDbEntity
  8
025
100
AcDbLine
 62
2
  6
CONTINUOUS
 10
59.9556930561
 20
189.2302785501
 11
67.4525293619
 21
191.3408701785
  0
LINE
  5
56E
100
AcDbEntity
  8
025
100
AcDbLine
 62
2
  6
CONTINUOUS
 10
59.9556930561
 20
189.8020711497
 11
67.4525293619
 21
191.9126627781
  0
LINE
  5
56F
100
AcDbEntity
  8
025
100
AcDbLine
 62
2
  6
CONTINUOUS
 10
59.9556930561
 20
190.9774226044
 11
64.6358811542
 21
192.295040519
  0
LINE
  5
570
100
AcDbEntity
  8
025
100
AcDbLine
 62
2
  6
CONTINUOUS
 10
59.9556930561
 20
191.549215204
 11
62.6048698196
 21
192.295040519
  0
LINE
  5
571
100
AcDbEntity
  8
07
100
AcDbLine
 62
7
  6
CONTINUOUS
 10
140.6845430652
 20
189.0088071436
 11
140.1844845857
 21
189.5088656231
  0
LINE
  5
572
100
AcDbEntity
  8
07
100
AcDbLine
 62
7
  6
CONTINUOUS
 10
140.6845430652
 20
81.4124543947
 11
140.0844728898
 21
80.8123842193
  0
LINE
  5
573
100
AcDbEntity
  8
025
100
AcDbLine
 62
2
  6
CONTINUOUS
 10
58.954111209
 20
217.9514865627
 11
60.2354209043
 21
218.0911449274
  0
LINE
  5
574
100
AcDbEntity
  8
0
100
AcDbLine
 62
2
  6
CONTINUOUS
 10
127.1835489982
 20
211.6730252019
 11
137.1835488282
 21
211.6730252019
  0
LINE
  5
575
100
AcDbEntity
  8
05
100
AcDbLine
 62
7
  6
CONTINUOUS
 10
61.704111209
 20
218.3054034901
 11
65.704111209
 21
218.3054034901
  0
LINE
  5
576
100
AcDbEntity
  8
05
100
AcDbLine
 62
7
  6
CONTINUOUS
 10
61.704111209
 20
219.795040519
 11
65.704111209
 21
219.795040519
  0
LINE
  5
577
100
AcDbEntity
  8
05
100
AcDbLine
 62
7
  6
CONTINUOUS
 10
124.549574402
 20
220.8159028681
 11
139.8175234244
 21
220.8159028681
  0
LINE
  5
578
100
AcDbEntity
  8
05
100
AcDbLine
 62
7
  6
CONTINUOUS
 10
59.704111209
 20
221.045040519
 11
67.704111209
 21
221.045040519
  0
LINE
  5
579
100
AcDbEntity
  8
025
100
AcDbLine
 62
2
  6
CONTINUOUS
 10
123.6835489982
 20
221.3159028681
 11
140.6835488282
 21
221.3159028681
  0
LINE
  5
57A
100
AcDbEntity
  8
025
100
AcDbLine
 62
2
  6
CONTINUOUS
 10
59.4524059388
 20
222.545040519
 11
67.9558164792
 21
222.545040519
  0
LINE
  5
57B
100
AcDbEntity
  8
05
100
AcDbLine
 62
7
  6
CONTINUOUS
 10
59.429111209
 20
222.7730938754
 11
67.979111209
 21
222.7730938754
  0
LINE
  5
57C
100
AcDbEntity
  8
025
100
AcDbLine
 62
2
  6
CONTINUOUS
 10
65.0557798034
 20
217.9165723173
 11
68.454111209
 21
217.5674267514
  0
LINE
  5
57D
100
AcDbEntity
  8
05
100
AcDbLine
 62
7
  6
CONTINUOUS
 10
123.6835489982
 20
221.3159028681
 11
124.549574402
 21
220.8159028681
  0
LINE
  5
57E
100
AcDbEntity
  8
05
100
AcDbLine
 62
7
  6
CONTINUOUS
 10
120.1835489132
 20
239.6910674236
 11
119.5835489132
 21
240.2910674236
  0
LINE
  5
57F
100
AcDbEntity
  8
025
100
AcDbLine
 62
2
  6
CONTINUOUS
 10
62.2613689392
 20
217.2881107135
 11
65.0557798034
 21
217.9165723173
  0
LINE
  5
580
100
AcDbEntity
  8
05
100
AcDbLine
 62
7
  6
CONTINUOUS
 10
59.429111209
 20
224.895040519
 11
67.979111209
 21
224.895040519
  0
LINE
  5
581
100
AcDbEntity
  8
0
100
AcDbLine
 62
2
  6
CONTINUOUS
 10
57.8533901268
 20
226.295040519
 11
43.4758505513
 21
226.295040519
  0
LINE
  5
582
100
AcDbEntity
  8
05
100
AcDbLine
 62
7
  6
CONTINUOUS
 10
58.954111209
 20
226.295040519
 11
68.454111209
 21
226.295040519
  0
LINE
  5
583
100
AcDbEntity
  8
0
100
AcDbLine
 62
2
  6
CONTINUOUS
 10
69.3523052436
 20
226.295040519
 11
79.8084039519
 21
226.295040519
  0
LINE
  5
584
100
AcDbEntity
  8
05
100
AcDbLine
 62
7
  6
CONTINUOUS
 10
58.9541112565
 20
227.5450405065
 11
62.6448347993
 21
227.5450405065
  0
LINE
  5
585
100
AcDbEntity
  8
05
100
AcDbLine
 62
7
  6
CONTINUOUS
 10
64.7633876187
 20
227.5450405065
 11
68.4541111615
 21
227.5450405065
  0
LINE
  5
586
100
AcDbEntity
  8
025
100
AcDbLine
 62
2
  6
CONTINUOUS
 10
123.6835489982
 20
227.8159028681
 11
140.6835488282
 21
227.8159028681
  0
LINE
  5
587
100
AcDbEntity
  8
05
100
AcDbLine
 62
7
  6
CONTINUOUS
 10
123.6835489982
 20
228.3159028681
 11
140.6835488282
 21
228.3159028681
  0
LINE
  5
588
100
AcDbEntity
  8
05
100
AcDbLine
 62
7
  6
CONTINUOUS
 10
69.304111209
 20
228.7326228093
 11
58.104111209
 21
228.7326228093
  0
LINE
  5
589
100
AcDbEntity
  8
05
100
AcDbLine
 62
7
  6
CONTINUOUS
 10
69.704111209
 20
230.7326228093
 11
57.704111209
 21
230.7326228093
  0
LINE
  5
58A
100
AcDbEntity
  8
05
100
AcDbLine
 62
7
  6
CONTINUOUS
 10
123.1835490032
 20
230.8159028431
 11
141.1835488232
 21
230.8159028431
  0
LINE
  5
58B
100
AcDbEntity
  8
05
100
AcDbLine
 62
7
  6
CONTINUOUS
 10
122.6835490082
 20
233.3159028181
 11
130.0649960939
 21
233.3159028181
  0
LINE
  5
58C
100
AcDbEntity
  8
05
100
AcDbLine
 62
7
  6
CONTINUOUS
 10
134.3021017325
 20
233.3159028181
 11
141.6835488182
 21
233.3159028181
  0
LINE
  5
58D
100
AcDbEntity
  8
05
100
AcDbLine
 62
7
  6
CONTINUOUS
 10
69.704111209
 20
234.7326228093
 11
57.704111209
 21
234.7326228093
  0
LINE
  5
58E
100
AcDbEntity
  8
05
100
AcDbLine
 62
7
  6
CONTINUOUS
 10
143.3835489132
 20
235.6910674236
 11
120.9835489132
 21
235.6910674236
  0
LINE
  5
58F
100
AcDbEntity
  8
05
100
AcDbLine
 62
7
  6
CONTINUOUS
 10
140.6835488282
 20
227.8159028681
 11
139.8175234244
 21
228.3159028681
  0
LINE
  5
590
100
AcDbEntity
  8
025
100
AcDbLine
 62
2
  6
CONTINUOUS
 10
65.7856658294
 20
239.6006435348
 11
129.3109037044
 21
256.5700132225
  0
LINE
  5
591
100
AcDbEntity
  8
05
100
AcDbLine
 62
7
  6
CONTINUOUS
 10
58.104111209
 20
236.2326228093
 11
69.304111209
 21
236.2326228093
  0
LINE
  5
592
100
AcDbEntity
  8
05
100
AcDbLine
 62
7
  6
CONTINUOUS
 10
59.5645111951
 20
236.7581441496
 11
67.8778261209
 21
236.7581441496
  0
LINE
  5
593
100
AcDbEntity
  8
035
100
AcDbLine
 62
7
  6
CONTINUOUS
 10
59.766611209
 20
237.0947064347
 11
59.2217605338
 21
237.0947064347
  0
LINE
  5
594
100
AcDbEntity
  8
05
100
AcDbLine
 62
7
  6
CONTINUOUS
 10
144.1835489132
 20
239.6910674236
 11
120.1835489132
 21
239.6910674236
  0
LINE
  5
595
100
AcDbEntity
  8
05
100
AcDbLine
 62
7
  6
CONTINUOUS
 10
60.266611209
 20
242.795040519
 11
67.141611209
 21
242.795040519
  0
LINE
  5
596
100
AcDbEntity
  8
05
100
AcDbLine
 62
7
  6
CONTINUOUS
 10
144.1835489132
 20
247.6910674236
 11
120.1835489132
 21
247.6910674236
  0
LINE
  5
597
100
AcDbEntity
  8
05
100
AcDbLine
 62
7
  6
CONTINUOUS
 10
144.1835489132
 20
247.6910674236
 11
144.7835489132
 21
247.0910674236
  0
LINE
  5
598
100
AcDbEntity
  8
0
100
AcDbLine
 62
7
  6
CONTINUOUS
 10
205.0
 20
5.0
 11
205.0
 21
292.0
  0
LINE
  5
599
100
AcDbEntity
  8
0
100
AcDbLine
 62
7
  6
CONTINUOUS
 10
210.0
 20
0.0
 11
210.0
 21
297.0
  0
LINE
  5
59A
100
AcDbEntity
  8
05
100
AcDbLine
 62
7
  6
CONTINUOUS
 10
120.9835489132
 20
250.6910674236
 11
143.3835489132
 21
250.6910674236
  0
LINE
  5
59B
100
AcDbEntity
  8
05
100
AcDbLine
 62
7
  6
CONTINUOUS
 10
123.9043488853
 20
251.7421101041
 11
140.530978737
 21
251.7421101041
  0
LINE
  5
59C
100
AcDbEntity
  8
035
100
AcDbLine
 62
7
  6
CONTINUOUS
 10
124.3085489132
 20
252.4152346745
 11
123.2188475629
 21
252.4152346745
  0
LINE
  5
59D
100
AcDbEntity
  8
05
100
AcDbLine
 62
7
  6
CONTINUOUS
 10
125.3085489132
 20
263.8159028431
 11
139.0585489132
 21
263.8159028431
  0
LINE
  5
59E
100
AcDbEntity
  8
0
100
AcDbLine
 62
7
  6
CONTINUOUS
 10
5.0
 20
292.0
 11
205.0
 21
292.0
  0
LINE
  5
59F
100
AcDbEntity
  8
0
100
AcDbLine
 62
7
  6
CONTINUOUS
 10
0.0
 20
297.0
 11
210.0
 21
297.0
  0
ARC
  5
5A0
100
AcDbEntity
  8
05
100
AcDbCircle
 62
7
  6
CONTINUOUS
 10
83.1227221871
 20
143.9833313417
 40
23.8047619209
100
AcDbArc
 50
207.2196554593
 51
212.7803445407
  0
ARC
  5
5A1
100
AcDbEntity
  8
05
100
AcDbCircle
 62
7
  6
CONTINUOUS
 10
73.7615321045
 20
139.736217161
 40
12.2961568378
100
AcDbArc
 50
202.1761779096
 51
209.9632973231
  0
ARC
  5
5A2
100
AcDbEntity
  8
05
100
AcDbCircle
 62
7
  6
CONTINUOUS
 10
67.704111209
 20
139.9449614285
 40
0.4
100
AcDbArc
 50
0.0
 51
90.0
  0
ARC
  5
5A3
100
AcDbEntity
  8
05
100
AcDbCircle
 62
7
  6
CONTINUOUS
 10
67.704111209
 20
139.0759015361
 40
0.4
100
AcDbArc
 50
270.0
 51
360.0
  0
CIRCLE
  5
5A4
100
AcDbEntity
  8
025
100
AcDbCircle
 62
2
  6
CONTINUOUS
 10
65.1527302971
 20
129.7011990666
 40
0.32
  0
HATCH
  5
5A5
100
AcDbEntity
  8
025
100
AcDbHatch
 62
2
  6
CONTINUOUS
 10
0.0
 20
0.0
 30
0.0
210
0.0
220
0.0
230
1.0
  2

 70
1
 71
1
 91
1
 92
1
 93
1
 72
2
 10
65.1527302971
 20
129.7011990666
 40
0.32
 50
0.0
 51
360.0
 73
1
 97
1
330
5A4
 75
0
 76
1
 98
1
 10
0.0
 20
0.0
  0
CIRCLE
  5
5A6
100
AcDbEntity
  8
025
100
AcDbCircle
 62
2
  6
CONTINUOUS
 10
66.1441659722
 20
120.6859688685
 40
0.32
  0
HATCH
  5
5A7
100
AcDbEntity
  8
025
100
AcDbHatch
 62
2
  6
CONTINUOUS
 10
0.0
 20
0.0
 30
0.0
210
0.0
220
0.0
230
1.0
  2

 70
1
 71
1
 91
1
 92
1
 93
1
 72
2
 10
66.1441659722
 20
120.6859688685
 40
0.32
 50
0.0
 51
360.0
 73
1
 97
1
330
5A6
 75
0
 76
1
 98
1
 10
0.0
 20
0.0
  0
CIRCLE
  5
5A8
100
AcDbEntity
  8
025
100
AcDbCircle
 62
2
  6
CONTINUOUS
 10
60.1267165845
 20
133.2758032397
 40
0.32
  0
HATCH
  5
5A9
100
AcDbEntity
  8
025
100
AcDbHatch
 62
2
  6
CONTINUOUS
 10
0.0
 20
0.0
 30
0.0
210
0.0
220
0.0
230
1.0
  2

 70
1
 71
1
 91
1
 92
1
 93
1
 72
2
 10
60.1267165845
 20
133.2758032397
 40
0.32
 50
0.0
 51
360.0
 73
1
 97
1
330
5A8
 75
0
 76
1
 98
1
 10
0.0
 20
0.0
  0
ARC
  5
5AA
100
AcDbEntity
  8
07
100
AcDbCircle
 62
7
  6
CONTINUOUS
 10
59.1026784605
 20
124.2427976858
 40
0.149122807
100
AcDbArc
 50
180.0
 51
270.0
  0
ARC
  5
5AB
100
AcDbEntity
  8
07
100
AcDbCircle
 62
7
  6
CONTINUOUS
 10
68.3055439575
 20
124.2427976858
 40
0.149122807
100
AcDbArc
 50
270.0
 51
360.0
  0
ARC
  5
5AC
100
AcDbEntity
  8
05
100
AcDbCircle
 62
7
  6
CONTINUOUS
 10
59.454111209
 20
168.9949614285
 40
0.1
100
AcDbArc
 50
90.0
 51
178.0
  0
ARC
  5
5AD
100
AcDbEntity
  8
05
100
AcDbCircle
 62
7
  6
CONTINUOUS
 10
67.954111209
 20
168.9949614285
 40
0.1
100
AcDbArc
 50
2.0
 51
90.0
  0
ARC
  5
5AE
100
AcDbEntity
  8
035
100
AcDbCircle
 62
7
  6
CONTINUOUS
 10
61.3434936056
 20
239.3092220511
 40
1.75
100
AcDbArc
 50
154.2998195036
 51
205.7001804964
  0
ARC
  5
5AF
100
AcDbEntity
  8
05
100
AcDbCircle
 62
7
  6
CONTINUOUS
 10
67.141611209
 20
242.295040519
 40
0.5
100
AcDbArc
 50
0.0
 51
90.0
  0
ARC
  5
5B0
100
AcDbEntity
  8
05
100
AcDbCircle
 62
7
  6
CONTINUOUS
 10
60.266611209
 20
242.295040519
 40
0.5
100
AcDbArc
 50
90.0
 51
180.0
  0
ARC
  5
5B1
100
AcDbEntity
  8
05
100
AcDbCircle
 62
7
  6
CONTINUOUS
 10
67.877827018
 20
236.2934906249
 40
0.4646535246
100
AcDbArc
 50
352.472841102
 51
90.0001106134
  0
ARC
  5
5B2
100
AcDbEntity
  8
05
100
AcDbCircle
 62
7
  6
CONTINUOUS
 10
59.5645104829
 20
236.2934906249
 40
0.4646535246
100
AcDbArc
 50
89.9999121864
 51
187.527158898
  0
ARC
  5
5B3
100
AcDbEntity
  8
05
100
AcDbCircle
 62
7
  6
CONTINUOUS
 10
67.704111209
 20
222.3141004114
 40
0.4
100
AcDbArc
 50
0.0
 51
60.0
  0
ARC
  5
5B4
100
AcDbEntity
  8
05
100
AcDbCircle
 62
7
  6
CONTINUOUS
 10
67.704111209
 20
221.445040519
 40
0.4
100
AcDbArc
 50
270.0
 51
360.0
  0
ARC
  5
5B5
100
AcDbEntity
  8
05
100
AcDbCircle
 62
7
  6
CONTINUOUS
 10
59.704111209
 20
222.3141004114
 40
0.4
100
AcDbArc
 50
120.0
 51
180.0
  0
ARC
  5
5B6
100
AcDbEntity
  8
05
100
AcDbCircle
 62
7
  6
CONTINUOUS
 10
59.704111209
 20
221.445040519
 40
0.4
100
AcDbArc
 50
180.0
 51
270.0
  0
ARC
  5
5B7
100
AcDbEntity
  8
05
100
AcDbCircle
 62
7
  6
CONTINUOUS
 10
69.304111209
 20
229.1326228093
 40
0.4
100
AcDbArc
 50
270.0
 51
360.0
  0
ARC
  5
5B8
100
AcDbEntity
  8
05
100
AcDbCircle
 62
7
  6
CONTINUOUS
 10
69.304111209
 20
235.8326228093
 40
0.4
100
AcDbArc
 50
0.0
 51
90.0
  0
ARC
  5
5B9
100
AcDbEntity
  8
05
100
AcDbCircle
 62
7
  6
CONTINUOUS
 10
58.104111209
 20
229.1326228093
 40
0.4
100
AcDbArc
 50
180.0
 51
270.0
  0
ARC
  5
5BA
100
AcDbEntity
  8
05
100
AcDbCircle
 62
7
  6
CONTINUOUS
 10
58.104111209
 20
235.8326228093
 40
0.4
100
AcDbArc
 50
90.0
 51
180.0
  0
ARC
  5
5BB
100
AcDbEntity
  8
05
100
AcDbCircle
 62
7
  6
CONTINUOUS
 10
60.7172442711
 20
242.3496688325
 40
0.3843620117
100
AcDbArc
 50
78.7878878277
 51
184.5717961582
  0
CIRCLE
  5
5BC
100
AcDbEntity
  8
025
100
AcDbCircle
 62
2
  6
CONTINUOUS
 10
65.7856658294
 20
239.6006435348
 40
0.32
  0
HATCH
  5
5BD
100
AcDbEntity
  8
025
100
AcDbHatch
 62
2
  6
CONTINUOUS
 10
0.0
 20
0.0
 30
0.0
210
0.0
220
0.0
230
1.0
  2

 70
1
 71
1
 91
1
 92
1
 93
1
 72
2
 10
65.7856658294
 20
239.6006435348
 40
0.32
 50
0.0
 51
360.0
 73
1
 97
1
330
5BC
 75
0
 76
1
 98
1
 10
0.0
 20
0.0
  0
ARC
  5
5BE
100
AcDbEntity
  8
05
100
AcDbCircle
 62
7
  6
CONTINUOUS
 10
68.204111164
 20
226.5450405165
 40
0.2499999975
100
AcDbArc
 50
270.0
 51
360.0
  0
ARC
  5
5BF
100
AcDbEntity
  8
05
100
AcDbCircle
 62
7
  6
CONTINUOUS
 10
59.204111254
 20
226.5450405165
 40
0.2499999975
100
AcDbArc
 50
180.0
 51
270.0
  0
ARC
  5
5C0
100
AcDbEntity
  8
05
100
AcDbCircle
 62
7
  6
CONTINUOUS
 10
67.954111209
 20
192.395040519
 40
0.1
100
AcDbArc
 50
270.0
 51
358.0
  0
ARC
  5
5C1
100
AcDbEntity
  8
05
100
AcDbCircle
 62
7
  6
CONTINUOUS
 10
59.454111209
 20
192.395040519
 40
0.1
100
AcDbArc
 50
182.0
 51
270.0
  0
ARC
  5
5C2
100
AcDbEntity
  8
05
100
AcDbCircle
 62
7
  6
CONTINUOUS
 10
152.2983907042
 20
188.7902074976
 40
24.5923136756
100
AcDbArc
 50
196.2083633875
 51
209.9632973231
  0
ARC
  5
5C3
100
AcDbEntity
  8
07
100
AcDbCircle
 62
7
  6
CONTINUOUS
 10
122.9806834161
 20
157.8033685471
 40
0.298245614
100
AcDbArc
 50
180.0
 51
270.0
  0
ARC
  5
5C4
100
AcDbEntity
  8
07
100
AcDbCircle
 62
7
  6
CONTINUOUS
 10
141.3864144103
 20
157.8033685471
 40
0.298245614
100
AcDbArc
 50
270.0
 51
360.0
  0
ARC
  5
5C5
100
AcDbEntity
  8
05
100
AcDbCircle
 62
7
  6
CONTINUOUS
 10
171.0207708695
 20
197.284435859
 40
47.6095238418
100
AcDbArc
 50
207.2196554593
 51
212.7803445407
  0
ARC
  5
5C6
100
AcDbEntity
  8
035
100
AcDbCircle
 62
7
  6
CONTINUOUS
 10
127.4623137063
 20
256.8442659071
 40
3.5
100
AcDbArc
 50
154.2998195036
 51
205.7001804964
  0
ARC
  5
5C7
100
AcDbEntity
  8
05
100
AcDbCircle
 62
7
  6
CONTINUOUS
 10
125.3085489132
 20
262.8159028431
 40
1.0
100
AcDbArc
 50
90.0
 51
180.0
  0
ARC
  5
5C8
100
AcDbEntity
  8
05
100
AcDbCircle
 62
7
  6
CONTINUOUS
 10
139.0585489132
 20
262.8159028431
 40
1.0
100
AcDbArc
 50
0.0
 51
90.0
  0
ARC
  5
5C9
100
AcDbEntity
  8
05
100
AcDbCircle
 62
7
  6
CONTINUOUS
 10
123.9043474611
 20
250.8128030549
 40
0.9293070492
100
AcDbArc
 50
89.9999121864
 51
187.527158898
  0
ARC
  5
5CA
100
AcDbEntity
  8
05
100
AcDbCircle
 62
7
  6
CONTINUOUS
 10
140.5309805311
 20
250.8128030549
 40
0.9293070492
100
AcDbArc
 50
352.472841102
 51
90.0001106134
  0
ARC
  5
5CB
100
AcDbEntity
  8
05
100
AcDbCircle
 62
7
  6
CONTINUOUS
 10
120.9835489132
 20
236.4910674236
 40
0.8
100
AcDbArc
 50
180.0
 51
270.0
  0
ARC
  5
5CC
100
AcDbEntity
  8
05
100
AcDbCircle
 62
7
  6
CONTINUOUS
 10
120.9835489132
 20
249.8910674236
 40
0.8
100
AcDbArc
 50
90.0
 51
180.0
  0
ARC
  5
5CD
100
AcDbEntity
  8
05
100
AcDbCircle
 62
7
  6
CONTINUOUS
 10
143.3835489132
 20
236.4910674236
 40
0.8
100
AcDbArc
 50
270.0
 51
360.0
  0
ARC
  5
5CE
100
AcDbEntity
  8
05
100
AcDbCircle
 62
7
  6
CONTINUOUS
 10
143.3835489132
 20
249.8910674236
 40
0.8
100
AcDbArc
 50
0.0
 51
90.0
  0
ARC
  5
5CF
100
AcDbEntity
  8
05
100
AcDbCircle
 62
7
  6
CONTINUOUS
 10
126.2098150373
 20
262.9251594699
 40
0.7687240234
100
AcDbArc
 50
78.7878878277
 51
184.5717961582
  0
ARC
  5
5D0
100
AcDbEntity
  8
05
100
AcDbCircle
 62
7
  6
CONTINUOUS
 10
123.1835490032
 20
231.3159028381
 40
0.499999995
100
AcDbArc
 50
180.0
 51
270.0
  0
ARC
  5
5D1
100
AcDbEntity
  8
05
100
AcDbCircle
 62
7
  6
CONTINUOUS
 10
141.1835488232
 20
231.3159028381
 40
0.499999995
100
AcDbArc
 50
270.0
 51
360.0
  0
ENDSEC
  0
SECTION
  2
OBJECTS
  0
DICTIONARY
  5
C
100
AcDbDictionary
280
0
281
1
  3
ACAD_GROUP
350
D
  3
ACAD_MLINESTYLE
350
17
  3
ACAD_LAYOUT
350
1A
  3
ACAD_PLOTSETTINGS
350
19
  3
ACAD_PLOTSTYLENAME
350
E
  3
ACAD_TABLESTYLE
350
       5D2
  0
DICTIONARY
  5
D
102
{ACAD_REACTORS
330
C
102
}
100
AcDbDictionary
280
0
281
1
  0
ACDBDICTIONARYWDFLT
  5
E
102
{ACAD_REACTORS
330
C
102
}
100
AcDbDictionary
281
1
  3
Normal
350
F
100
AcDbDictionaryWithDefault
340
F
  0
DICTIONARY
  5
17
102
{ACAD_REACTORS
330
C
102
}
100
AcDbDictionary
280
0
281
1
  3
Standard
350
18
  0
DICTIONARY
  5
5D2
330
C
100
AcDbDictionary
281
1
  3
Standard
350
       5D5
  3
Standard1
350
       5D6
  0
DICTIONARY
  5
19
102
{ACAD_REACTORS
330
C
102
}
100
AcDbDictionary
281
1
  0
DICTIONARY
  5
1A
102
{ACAD_REACTORS
330
C
102
}
100
AcDbDictionary
281
1
  3
Model
350
5D3
  3
Layout1
350
5D4
  0
ACDBPLACEHOLDER
  5
F
102
{ACAD_REACTORS
330
E
102
}
  0
MLINESTYLE
  5
18
102
{ACAD_REACTORS
330
17
102
}
100
AcDbMlineStyle
  2
STANDARD
 70
0
  3

 62
256
 51
90.0
 52
90.0
 71
2
 49
0.5
 62
256
  6
BYLAYER
 49
-0.5
 62
256
  6
BYLAYER
  0
LAYOUT
  5
5D3
102
{ACAD_REACTORS
330
1A
102
}
100
AcDbPlotSettings
  1

  2
none_device
  4

  6

 40
0.0
 41
0.0
 42
0.0
 43
0.0
 44
210.0
 45
297.0
 46
0.0
 47
0.0
 48
0.0
 49
0.0
140
0.0
141
0.0
142
1.0
143
1.0
 70
1024
 72
1
 73
0
 74
0
  7

 75
0
147
1.0
148
0.0
149
0.0
100
AcDbLayout
  1
Model
 70
0
 71
0
 10
0.0
 20
0.0
 11
210.0
 21
297.0
 12
0.0
 22
0.0
 32
0.0
 14
0.0
 24
0.0
 34
0.0
 15
0.0
 25
0.0
 35
0.0
146
0.0
 13
0.0
 23
0.0
 33
0.0
 16
1.0
 26
0.0
 36
0.0
 17
0.0
 27
1.0
 37
0.0
 76
0
330
20C
345
0
346
0
  0
LAYOUT
  5
5D4
102
{ACAD_REACTORS
330
1A
102
}
100
AcDbPlotSettings
  1

  2
none_device
  4

  6

 40
0.0
 41
0.0
 42
0.0
 43
0.0
 44
210.0
 45
297.0
 46
0.0
 47
0.0
 48
0.0
 49
0.0
140
0.0
141
0.0
142
1.0
143
1.0
 70
0
 72
1
 73
0
 74
0
  7

 75
0
147
1.0
148
0.0
149
0.0
100
AcDbLayout
  1
Layout1
 70
0
 71
1
 10
0.0
 20
0.0
 11
210.0
 21
297.0
 12
0.0
 22
0.0
 32
0.0
 14
0.0
 24
0.0
 34
0.0
 15
0.0
 25
0.0
 35
0.0
146
0.0
 13
0.0
 23
0.0
 33
0.0
 16
1.0
 26
0.0
 36
0.0
 17
0.0
 27
1.0
 37
0.0
 76
0
330
20D
345
0
346
0
  0
TABLESTYLE
  5
5D5
102
{ACAD_REACTORS
330
5D2
330
2B0
102
}
330
5D2
100
AcDbTableStyle
  3
Standard
 70
0
 71
0
 40
0.06
 41
0.06
280
1
281
1
  7
Standard
140
0.18
170
1
 62
0
 63
7
283
0
  7
Standard
140
0.18
170
1
 62
0
 63
7
283
0
  7
Standard
140
0.18
170
1
 62
0
 63
7
283
0
  0
TABLESTYLE
  5
5D6
102
{ACAD_REACTORS
330
5D2
102
}
330
5D2
100
AcDbTableStyle
  3
Standard1
 70
1
 71
0
 40
0.06
 41
0.06
280
1
281
1
  7
Standard
140
0.18
170
1
 62
0
 63
7
283
0
  7
Standard
140
0.18
170
1
 62
0
 63
7
283
0
  7
Standard
140
0.18
170
1
 62
0
 63
7
283
0
  0
ENDSEC
  0
EOF
