  0
SECTION
  2
HEADER
  9
$ACADVER
  1
AC1009
  9
$INSBASE
 10
0.0
 20
0.0
 30
0.0
  9
$EXTMIN
 10
0.0
 20
0.0
 30
0.0
  9
$EXTMAX
 10
420.0
 20
297.0
 30
0.0
  9
$LIMMIN
 10
0.0
 20
0.0
  9
$LIMMAX
 10
420.0
 20
297.0
  9
$ORTHOMODE
 70
     1
  9
$REGENMODE
 70
     1
  9
$FILLMODE
 70
     1
  9
$QTEXTMODE
 70
     0
  9
$MIRRTEXT
 70
     1
  9
$DRAGMODE
 70
     2
  9
$LTSCALE
 40
5.0
  9
$OSMODE
 70
    32
  9
$ATTMODE
 70
     1
  9
$TEXTSIZE
 40
3.5
  9
$TRACEWID
 40
26.0
  9
$TEXTSTYLE
  7
ARIAL
  9
$CLAYER
  8
MITTE
  9
$CELTYPE
  6
BYLAYER
  9
$CECOLOR
 62
   256
  9
$DIMSCALE
 40
0.0
  9
$DIMASZ
 40
3.5
  9
$DIMEXO
 40
0.8
  9
$DIMDLI
 40
8.0
  9
$DIMRND
 40
0.0
  9
$DIMDLE
 40
0.0
  9
$DIMEXE
 40
0.8
  9
$DIMTP
 40
0.0
  9
$DIMTM
 40
0.0
  9
$DIMTXT
 40
3.5
  9
$DIMCEN
 40
1.5
  9
$DIMTSZ
 40
0.0
  9
$DIMTOL
 70
     0
  9
$DIMLIM
 70
     0
  9
$DIMTIH
 70
     0
  9
$DIMTOH
 70
     0
  9
$DIMSE1
 70
     0
  9
$DIMSE2
 70
     0
  9
$DIMTAD
 70
     1
  9
$DIMZIN
 70
     0
  9
$DIMBLK
  1

  9
$DIMASO
 70
     0
  9
$DIMSHO
 70
     0
  9
$DIMPOST
  1

  9
$DIMAPOST
  1
"
  9
$DIMALT
 70
     0
  9
$DIMALTD
 70
     3
  9
$DIMALTF
 40
0.03937
  9
$DIMLFAC
 40
0.333333
  9
$DIMTOFL
 70
     0
  9
$DIMTVP
 40
0.0
  9
$DIMTIX
 70
     0
  9
$DIMSOXD
 70
     0
  9
$DIMSAH
 70
     0
  9
$DIMBLK1
  1

  9
$DIMBLK2
  1

  9
$DIMSTYLE
  2
STANDARD
  9
$DIMCLRD
 70
     4
  9
$DIMCLRE
 70
     4
  9
$DIMCLRT
 70
     3
  9
$DIMTFAC
 40
1.0
  9
$DIMGAP
 40
1.0
  9
$LUNITS
 70
     2
  9
$LUPREC
 70
     2
  9
$SKETCHINC
 40
1.0
  9
$FILLETRAD
 40
0.6
  9
$AUNITS
 70
     0
  9
$AUPREC
 70
     0
  9
$MENU
  1
acad
  9
$ELEVATION
 40
0.0
  9
$PELEVATION
 40
0.0
  9
$THICKNESS
 40
0.0
  9
$LIMCHECK
 70
     0
  9
$BLIPMODE
 70
     0
  9
$CHAMFERA
 40
0.0
  9
$CHAMFERB
 40
0.0
  9
$SKPOLY
 70
     0
  9
$TDCREATE
 40
2449841.368306
  9
$TDUPDATE
 40
2451897.492287
  9
$TDINDWG
 40
0.017273
  9
$TDUSRTIMER
 40
0.017273
  9
$USRTIMER
 70
     1
  9
$ANGBASE
 50
0.0
  9
$ANGDIR
 70
     0
  9
$PDMODE
 70
     0
  9
$PDSIZE
 40
0.0
  9
$PLINEWID
 40
0.0
  9
$COORDS
 70
     2
  9
$SPLFRAME
 70
     0
  9
$SPLINETYPE
 70
     6
  9
$SPLINESEGS
 70
     8
  9
$ATTDIA
 70
     0
  9
$ATTREQ
 70
     1
  9
$HANDLING
 70
     1
  9
$HANDSEED
  5
761
  9
$SURFTAB1
 70
     6
  9
$SURFTAB2
 70
     6
  9
$SURFTYPE
 70
     6
  9
$SURFU
 70
     6
  9
$SURFV
 70
     6
  9
$UCSNAME
  2

  9
$UCSORG
 10
0.0
 20
0.0
 30
0.0
  9
$UCSXDIR
 10
1.0
 20
0.0
 30
0.0
  9
$UCSYDIR
 10
0.0
 20
1.0
 30
0.0
  9
$PUCSNAME
  2

  9
$PUCSORG
 10
0.0
 20
0.0
 30
0.0
  9
$PUCSXDIR
 10
1.0
 20
0.0
 30
0.0
  9
$PUCSYDIR
 10
0.0
 20
1.0
 30
0.0
  9
$USERI1
 70
     0
  9
$USERI2
 70
     0
  9
$USERI3
 70
     0
  9
$USERI4
 70
     0
  9
$USERI5
 70
     0
  9
$USERR1
 40
0.0
  9
$USERR2
 40
0.0
  9
$USERR3
 40
0.0
  9
$USERR4
 40
0.0
  9
$USERR5
 40
0.0
  9
$WORLDVIEW
 70
     1
  9
$SHADEDGE
 70
     3
  9
$SHADEDIF
 70
    70
  9
$TILEMODE
 70
     1
  9
$MAXACTVP
 70
    16
  9
$PLIMCHECK
 70
     0
  9
$PEXTMIN
 10
1.000000E+020
 20
1.000000E+020
 30
1.000000E+020
  9
$PEXTMAX
 10
-1.000000E+020
 20
-1.000000E+020
 30
-1.000000E+020
  9
$PLIMMIN
 10
0.0
 20
0.0
  9
$PLIMMAX
 10
12.0
 20
9.0
  9
$UNITMODE
 70
     0
  9
$VISRETAIN
 70
     0
  9
$PLINEGEN
 70
     0
  9
$PSLTSCALE
 70
     0
  0
ENDSEC
  0
SECTION
  2
TABLES
  0
TABLE
  2
VPORT
 70
     2
  0
VPORT
  2
*ACTIVE
 70
     0
 10
0.0
 20
0.0
 11
1.0
 21
1.0
 12
210.000001
 22
159.320935
 13
0.0
 23
0.0
 14
1.0
 24
1.0
 15
2.0
 25
2.0
 16
0.0
 26
0.0
 36
1.0
 17
0.0
 27
0.0
 37
0.0
 40
321.422955
 41
1.525
 42
50.0
 43
0.0
 44
0.0
 50
0.0
 51
0.0
 71
     0
 72
   500
 73
     1
 74
     0
 75
     0
 76
     0
 77
     0
 78
     0
  0
ENDTAB
  0
TABLE
  2
LTYPE
 70
     2
  0
LTYPE
  2
AUSGEZOGEN
 70
     0
  3
Ausgezogene Linie
 72
    65
 73
     0
 40
0.0
  0
LTYPE
  2
CENTER
 70
     0
  3
____ _ ____ _ ____ _ ____ _ ____ _ ____ _ ____
 72
    65
 73
     4
 40
2.0
 49
1.25
 49
-0.25
 49
0.25
 49
-0.25
  0
ENDTAB
  0
TABLE
  2
LAYER
 70
     8
  0
LAYER
  2
0
 70
     0
 62
     8
  6
AUSGEZOGEN
  0
LAYER
  2
05
 70
     0
 62
     2
  6
AUSGEZOGEN
  0
LAYER
  2
BEM1
 70
     0
 62
     4
  6
AUSGEZOGEN
  0
LAYER
  2
MITTE
 70
     0
 62
     4
  6
CENTER
  0
LAYER
  2
TOL
 70
     0
 62
     4
  6
AUSGEZOGEN
  0
LAYER
  2
035
 70
     0
 62
     3
  6
AUSGEZOGEN
  0
LAYER
  2
025
 70
     0
 62
     4
  6
AUSGEZOGEN
  0
LAYER
  2
RAHMEN
 70
     0
 62
     2
  6
AUSGEZOGEN
  0
ENDTAB
  0
TABLE
  2
STYLE
 70
     4
  0
STYLE
  2
STANDARD
 70
     0
 40
0.0
 41
0.7
 50
15.0
 71
     0
 42
3.5
  3
txt
  4

  0
STYLE
  2
HELV
 70
     0
 40
0.0
 41
1.0
 50
0.0
 71
     0
 42
5.0
  3
helv
  4

  0
STYLE
  2
SCRIPTS
 70
     0
 40
0.0
 41
1.0
 50
0.0
 71
     0
 42
5.0
  3
scripts
  4

  0
STYLE
  2
ARIAL
 70
     0
 40
0.0
 41
1.0
 50
0.0
 71
     0
 42
3.5
  3
txt
  4

  0
ENDTAB
  0
TABLE
  2
VIEW
 70
     0
  0
ENDTAB
  0
TABLE
  2
UCS
 70
     0
  0
ENDTAB
  0
TABLE
  2
APPID
 70
     1
  0
APPID
  2
ACAD
 70
     0
  0
ENDTAB
  0
TABLE
  2
DIMSTYLE
 70
     1
  0
DIMSTYLE
  2
STANDARD
 70
     0
  3

  4
"
  5

  6

  7

 40
0.0
 41
3.5
 42
0.8
 43
8.0
 44
0.8
 45
0.0
 46
0.0
 47
0.0
 48
0.0
140
3.5
141
1.5
142
0.0
143
0.03937
144
0.333333
145
0.0
146
1.0
147
1.0
 71
     0
 72
     0
 73
     0
 74
     0
 75
     0
 76
     0
 77
     1
 78
     0
170
     0
171
     3
172
     0
173
     0
174
     0
175
     0
176
     4
177
     4
178
     3
  0
ENDTAB
  0
ENDSEC
  0
SECTION
  2
BLOCKS
  0
BLOCK
  8
0
  2
$MODEL_SPACE
 70
     0
 10
0.0
 20
0.0
 30
0.0
  3
$MODEL_SPACE
  1

  0
ENDBLK
  5
6
  8
0
  0
BLOCK
 67
     1
  8
0
  2
$PAPER_SPACE
 70
     0
 10
0.0
 20
0.0
 30
0.0
  3
$PAPER_SPACE
  1

  0
ENDBLK
  5
9
 67
     1
  8
0
  0
BLOCK
  8
0
  2
*X0
 70
     1
 10
0.0
 20
0.0
 30
0.0
  3
*X0
  1

  0
LINE
  5
4F5
  8
0
 62
     0
 10
51.502223
 20
198.933987
 30
0.0
 11
51.856175
 21
199.287939
 31
0.0
  0
LINE
  5
4F6
  8
0
 62
     0
 10
56.093234
 20
203.524998
 30
0.0
 11
56.447187
 21
203.878951
 31
0.0
  0
LINE
  5
4F7
  8
0
 62
     0
 10
51.323989
 20
199.109306
 30
0.0
 11
51.677698
 21
199.463015
 31
0.0
  0
LINE
  5
4F8
  8
0
 62
     0
 10
55.918158
 20
203.703476
 30
0.0
 11
56.271868
 21
204.057185
 31
0.0
  0
LINE
  5
4F9
  8
0
 62
     0
 10
51.158412
 20
199.297283
 30
0.0
 11
51.514
 21
199.652871
 31
0.0
  0
LINE
  5
4FA
  8
0
 62
     0
 10
55.728303
 20
203.867173
 30
0.0
 11
56.083891
 21
204.222762
 31
0.0
  0
LINE
  5
4FB
  8
0
 62
     0
 10
51.005667
 20
199.498091
 30
0.0
 11
51.365362
 21
199.857786
 31
0.0
  0
LINE
  5
4FC
  8
0
 62
     0
 10
55.523388
 20
204.015812
 30
0.0
 11
55.883083
 21
204.375507
 31
0.0
  0
LINE
  5
4FD
  8
0
 62
     0
 10
50.866139
 20
199.712117
 30
0.0
 11
51.232406
 21
200.078384
 31
0.0
  0
LINE
  5
4FE
  8
0
 62
     0
 10
55.30279
 20
204.148767
 30
0.0
 11
55.669057
 21
204.515034
 31
0.0
  0
LINE
  5
4FF
  8
0
 62
     0
 10
50.740457
 20
199.939987
 30
0.0
 11
51.116179
 21
200.315709
 31
0.0
  0
LINE
  5
500
  8
0
 62
     0
 10
55.065464
 20
204.264995
 30
0.0
 11
55.441186
 21
204.640717
 31
0.0
  0
LINE
  5
501
  8
0
 62
     0
 10
50.629548
 20
200.182632
 30
0.0
 11
51.01828
 21
200.571364
 31
0.0
  0
LINE
  5
502
  8
0
 62
     0
 10
54.809809
 20
204.362894
 30
0.0
 11
55.198541
 21
204.751625
 31
0.0
  0
LINE
  5
503
  8
0
 62
     0
 10
50.534739
 20
200.441377
 30
0.0
 11
50.941124
 21
200.847762
 31
0.0
  0
LINE
  5
504
  8
0
 62
     0
 10
54.533412
 20
204.44005
 30
0.0
 11
54.939797
 21
204.846434
 31
0.0
  0
LINE
  5
505
  8
0
 62
     0
 10
50.457911
 20
200.718102
 30
0.0
 11
50.888414
 21
201.148605
 31
0.0
  0
LINE
  5
506
  8
0
 62
     0
 10
54.232569
 20
204.49276
 30
0.0
 11
54.663071
 21
204.923262
 31
0.0
  0
LINE
  5
507
  8
0
 62
     0
 10
50.401783
 20
201.015528
 30
0.0
 11
50.866134
 21
201.479878
 31
0.0
  0
LINE
  5
508
  8
0
 62
     0
 10
53.901296
 20
204.51504
 30
0.0
 11
54.365646
 21
204.97939
 31
0.0
  0
LINE
  5
509
  8
0
 62
     0
 10
50.37043
 20
201.337728
 30
0.0
 11
50.884908
 21
201.852206
 31
0.0
  0
LINE
  5
50A
  8
0
 62
     0
 10
53.528967
 20
204.496265
 30
0.0
 11
54.043446
 21
205.010744
 31
0.0
  0
LINE
  5
50B
  8
0
 62
     0
 10
50.370351
 20
201.691202
 30
0.0
 11
50.96716
 21
202.288011
 31
0.0
  0
LINE
  5
50C
  8
0
 62
     0
 10
53.093162
 20
204.414014
 30
0.0
 11
53.689972
 21
205.010823
 31
0.0
  0
LINE
  5
50D
  8
0
 62
     0
 10
50.413009
 20
202.087414
 30
0.0
 11
51.182802
 21
202.857207
 31
0.0
  0
LINE
  5
50E
  8
0
 62
     0
 10
52.523967
 20
204.198372
 30
0.0
 11
53.29376
 21
204.968164
 31
0.0
  0
LINE
  5
50F
  8
0
 62
     0
 10
50.522532
 20
202.55049
 30
0.0
 11
52.830683
 21
204.858641
 31
0.0
  0
LINE
  5
510
  8
0
 62
     0
 10
50.774159
 20
203.15567
 30
0.0
 11
52.225503
 21
204.607015
 31
0.0
  0
LINE
  5
511
  8
0
 62
     0
 10
51.693137
 20
198.771348
 30
0.0
 11
52.049469
 21
199.127679
 31
0.0
  0
LINE
  5
512
  8
0
 62
     0
 10
56.253494
 20
203.331705
 30
0.0
 11
56.609826
 21
203.688037
 31
0.0
  0
LINE
  5
513
  8
0
 62
     0
 10
51.896952
 20
198.62161
 30
0.0
 11
52.257933
 21
198.98259
 31
0.0
  0
LINE
  5
514
  8
0
 62
     0
 10
56.398584
 20
203.123241
 30
0.0
 11
56.759564
 21
203.484221
 31
0.0
  0
LINE
  5
515
  8
0
 62
     0
 10
52.114107
 20
198.48521
 30
0.0
 11
52.48228
 21
198.853384
 31
0.0
  0
LINE
  5
516
  8
0
 62
     0
 10
56.52779
 20
202.898894
 30
0.0
 11
56.895963
 21
203.267067
 31
0.0
  0
LINE
  5
517
  8
0
 62
     0
 10
52.345291
 20
198.362841
 30
0.0
 11
52.723667
 21
198.741218
 31
0.0
  0
LINE
  5
518
  8
0
 62
     0
 10
56.639956
 20
202.657506
 30
0.0
 11
57.018332
 21
203.035883
 31
0.0
  0
LINE
  5
519
  8
0
 62
     0
 10
52.591515
 20
198.255512
 30
0.0
 11
52.983857
 21
198.647853
 31
0.0
  0
LINE
  5
51A
  8
0
 62
     0
 10
56.73332
 20
202.397317
 30
0.0
 11
57.125661
 21
202.789658
 31
0.0
  0
LINE
  5
51B
  8
0
 62
     0
 10
52.854216
 20
198.16466
 30
0.0
 11
53.265503
 21
198.575947
 31
0.0
  0
LINE
  5
51C
  8
0
 62
     0
 10
56.805227
 20
202.11567
 30
0.0
 11
57.216514
 21
202.526957
 31
0.0
  0
LINE
  5
51D
  8
0
 62
     0
 10
53.135438
 20
198.092328
 30
0.0
 11
53.572721
 21
198.529611
 31
0.0
  0
LINE
  5
51E
  8
0
 62
     0
 10
56.851563
 20
201.808453
 30
0.0
 11
57.288846
 21
202.245736
 31
0.0
  0
LINE
  5
51F
  8
0
 62
     0
 10
53.438152
 20
198.041488
 30
0.0
 11
53.91227
 21
198.515607
 31
0.0
  0
LINE
  5
520
  8
0
 62
     0
 10
56.865567
 20
201.468904
 30
0.0
 11
57.339685
 21
201.943022
 31
0.0
  0
LINE
  5
521
  8
0
 62
     0
 10
53.766867
 20
198.016651
 30
0.0
 11
54.296529
 21
198.546313
 31
0.0
  0
LINE
  5
522
  8
0
 62
     0
 10
56.834861
 20
201.084644
 30
0.0
 11
57.364523
 21
201.614306
 31
0.0
  0
LINE
  5
523
  8
0
 62
     0
 10
54.128913
 20
198.025143
 30
0.0
 11
54.753244
 21
198.649474
 31
0.0
  0
LINE
  5
524
  8
0
 62
     0
 10
56.7317
 20
200.62793
 30
0.0
 11
57.356031
 21
201.252261
 31
0.0
  0
LINE
  5
525
  8
0
 62
     0
 10
54.537633
 20
198.080309
 30
0.0
 11
55.386461
 21
198.929138
 31
0.0
  0
LINE
  5
526
  8
0
 62
     0
 10
56.452036
 20
199.994713
 30
0.0
 11
57.300864
 21
200.843541
 31
0.0
  0
LINE
  5
527
  8
0
 62
     0
 10
55.022874
 20
198.211997
 30
0.0
 11
57.169176
 21
200.358299
 31
0.0
  0
LINE
  5
528
  8
0
 62
     0
 10
55.696657
 20
198.532226
 30
0.0
 11
56.848947
 21
199.684517
 31
0.0
  0
ENDBLK
  5
52A
  8
0
  0
BLOCK
  8
0
  2
*X1
 70
     1
 10
0.0
 20
0.0
 30
0.0
  3
*X1
  1

  0
LINE
  5
52D
  8
0
 62
     0
 10
51.910248
 20
200.402672
 30
0.0
 11
52.206011
 21
200.698435
 31
0.0
  0
LINE
  5
52E
  8
0
 62
     0
 10
51.793402
 20
200.639379
 30
0.0
 11
52.104303
 21
200.950281
 31
0.0
  0
LINE
  5
52F
  8
0
 62
     0
 10
52.950675
 20
201.796653
 30
0.0
 11
53.220111
 21
202.066088
 31
0.0
  0
LINE
  5
530
  8
0
 62
     0
 10
51.70141
 20
200.900941
 30
0.0
 11
52.037036
 21
201.236566
 31
0.0
  0
LINE
  5
531
  8
0
 62
     0
 10
52.723668
 20
201.923198
 30
0.0
 11
53.017697
 21
202.217227
 31
0.0
  0
LINE
  5
532
  8
0
 62
     0
 10
51.639222
 20
201.192306
 30
0.0
 11
52.01673
 21
201.569814
 31
0.0
  0
LINE
  5
533
  8
0
 62
     0
 10
52.496684
 20
202.049768
 30
0.0
 11
52.790713
 21
202.343797
 31
0.0
  0
LINE
  5
534
  8
0
 62
     0
 10
51.615937
 20
201.522575
 30
0.0
 11
52.075918
 21
201.982556
 31
0.0
  0
LINE
  5
535
  8
0
 62
     0
 10
52.269701
 20
202.176338
 30
0.0
 11
52.56373
 21
202.470367
 31
0.0
  0
LINE
  5
536
  8
0
 62
     0
 10
51.651045
 20
201.911236
 30
0.0
 11
52.336746
 21
202.596937
 31
0.0
  0
LINE
  5
537
  8
0
 62
     0
 10
51.805526
 20
202.41927
 30
0.0
 11
52.101173
 21
202.714917
 31
0.0
  0
LINE
  5
538
  8
0
 62
     0
 10
52.049103
 20
200.187974
 30
0.0
 11
52.336108
 21
200.474979
 31
0.0
  0
LINE
  5
539
  8
0
 62
     0
 10
52.286054
 20
200.071371
 30
0.0
 11
52.435021
 21
200.220339
 31
0.0
  0
ENDBLK
  5
53B
  8
0
  0
BLOCK
  8
0
  2
ZKOPF
 70
     2
 10
0.0
 20
0.0
 30
0.0
  3
ZKOPF
  1

  0
ATTDEF
  5
50
  8
0
 62
     4
 10
-13.321429
 20
37.0
 30
0.0
 40
2.5
  1
Dobler
  7
SCRIPTS
 72
     1
 11
-8.5
 21
37.0
 31
0.0
  3
Name des Konstrukteurs ?
  2
NAME
 70
     0
  0
POLYLINE
  5
51
  8
0
 62
     2
 66
     1
 10
0.0
 20
0.0
 30
0.0
  0
VERTEX
  5
689
  8
0
 62
     2
 10
-51.0
 20
0.0
 30
0.0
  0
VERTEX
  5
68A
  8
0
 62
     2
 10
-51.0
 20
46.0
 30
0.0
  0
SEQEND
  5
68B
  8
0
 62
     2
  0
POLYLINE
  5
52
  8
0
 62
     2
 66
     1
 10
0.0
 20
0.0
 30
0.0
  0
VERTEX
  5
68C
  8
0
 62
     2
 10
-17.0
 20
9.0
 30
0.0
  0
VERTEX
  5
68D
  8
0
 62
     2
 10
-17.0
 20
46.0
 30
0.0
  0
SEQEND
  5
68E
  8
0
 62
     2
  0
POLYLINE
  5
53
  8
0
 62
     2
 66
     1
 10
0.0
 20
0.0
 30
0.0
  0
VERTEX
  5
68F
  8
0
 62
     2
 10
-32.0
 20
26.0
 30
0.0
  0
VERTEX
  5
690
  8
0
 62
     2
 10
-32.0
 20
46.0
 30
0.0
  0
SEQEND
  5
691
  8
0
 62
     2
  0
POLYLINE
  5
54
  8
0
 62
     2
 66
     1
 10
0.0
 20
0.0
 30
0.0
  0
VERTEX
  5
692
  8
0
 62
     2
 10
-133.0
 20
41.0
 30
0.0
  0
VERTEX
  5
693
  8
0
 62
     2
 10
-92.0
 20
41.0
 30
0.0
  0
SEQEND
  5
694
  8
0
 62
     2
  0
POLYLINE
  5
55
  8
0
 62
     2
 66
     1
 10
0.0
 20
0.0
 30
0.0
  0
VERTEX
  5
695
  8
0
 62
     2
 10
-145.0
 20
0.0
 30
0.0
  0
VERTEX
  5
696
  8
0
 62
     2
 10
-145.0
 20
46.0
 30
0.0
  0
SEQEND
  5
697
  8
0
 62
     2
  0
POLYLINE
  5
56
  8
0
 62
     2
 66
     1
 10
0.0
 20
0.0
 30
0.0
  0
VERTEX
  5
698
  8
0
 62
     2
 10
-158.0
 20
0.0
 30
0.0
  0
VERTEX
  5
699
  8
0
 62
     2
 10
-158.0
 20
46.0
 30
0.0
  0
SEQEND
  5
69A
  8
0
 62
     2
  0
LINE
  5
57
  8
0
 62
     2
 10
-200.0
 20
6.0
 30
0.0
 11
-133.0
 21
6.0
 31
0.0
  0
POLYLINE
  5
58
  8
0
 62
     4
 66
     1
 10
0.0
 20
0.0
 30
0.0
  0
VERTEX
  5
69B
  8
0
 62
     4
 10
-200.0
 20
11.0
 30
0.0
  0
VERTEX
  5
69C
  8
0
 62
     4
 10
-133.0
 20
11.0
 30
0.0
  0
SEQEND
  5
69D
  8
0
 62
     4
  0
POLYLINE
  5
59
  8
0
 62
     4
 66
     1
 10
0.0
 20
0.0
 30
0.0
  0
VERTEX
  5
69E
  8
0
 62
     4
 10
-200.0
 20
16.0
 30
0.0
  0
VERTEX
  5
69F
  8
0
 62
     4
 10
-133.0
 20
16.0
 30
0.0
  0
SEQEND
  5
6A0
  8
0
 62
     4
  0
POLYLINE
  5
5A
  8
0
 62
     4
 66
     1
 10
0.0
 20
0.0
 30
0.0
  0
VERTEX
  5
6A1
  8
0
 62
     4
 10
-200.0
 20
21.0
 30
0.0
  0
VERTEX
  5
6A2
  8
0
 62
     4
 10
-133.0
 20
21.0
 30
0.0
  0
SEQEND
  5
6A3
  8
0
 62
     4
  0
POLYLINE
  5
5B
  8
0
 62
     4
 66
     1
 10
0.0
 20
0.0
 30
0.0
  0
VERTEX
  5
6A4
  8
0
 62
     4
 10
-200.0
 20
26.0
 30
0.0
  0
VERTEX
  5
6A5
  8
0
 62
     4
 10
-133.0
 20
26.0
 30
0.0
  0
SEQEND
  5
6A6
  8
0
 62
     4
  0
POLYLINE
  5
5C
  8
0
 62
     4
 66
     1
 10
0.0
 20
0.0
 30
0.0
  0
VERTEX
  5
6A7
  8
0
 62
     4
 10
-200.0
 20
31.0
 30
0.0
  0
VERTEX
  5
6A8
  8
0
 62
     4
 10
-133.0
 20
31.0
 30
0.0
  0
SEQEND
  5
6A9
  8
0
 62
     4
  0
POLYLINE
  5
5D
  8
0
 62
     4
 66
     1
 10
0.0
 20
0.0
 30
0.0
  0
VERTEX
  5
6AA
  8
0
 62
     4
 10
-200.0
 20
36.0
 30
0.0
  0
VERTEX
  5
6AB
  8
0
 62
     4
 10
-133.0
 20
36.0
 30
0.0
  0
SEQEND
  5
6AC
  8
0
 62
     4
  0
POLYLINE
  5
5E
  8
0
 62
     4
 66
     1
 10
0.0
 20
0.0
 30
0.0
  0
VERTEX
  5
6AD
  8
0
 62
     4
 10
-200.0
 20
41.0
 30
0.0
  0
VERTEX
  5
6AE
  8
0
 62
     4
 10
-133.0
 20
41.0
 30
0.0
  0
SEQEND
  5
6AF
  8
0
 62
     4
  0
TEXT
  5
5F
  8
0
 62
     4
 10
-50.0
 20
6.0
 30
0.0
 40
1.5
  1
Zeichn. Nr.
 51
15.0
  0
TEXT
  5
60
  8
0
 62
     4
 10
-50.0
 20
23.0
 30
0.0
 40
1.5
  1
Ersetzt durch:         Blatt
 51
15.0
  0
TEXT
  5
61
  8
0
 62
     4
 10
-50.0
 20
38.0
 30
0.0
 40
1.5
  1
Gezeichnet
 51
15.0
  0
TEXT
  5
62
  8
0
 62
     4
 10
-50.0
 20
27.0
 30
0.0
 40
1.5
  1
Gesehen
 51
15.0
  0
TEXT
  5
63
  8
0
 62
     4
 10
-31.0
 20
42.0
 30
0.0
 40
1.5
  1
Datum     Name
 51
15.0
  0
TEXT
  5
64
  8
0
 62
     4
 10
-91.0
 20
42.0
 30
0.0
 40
1.5
  1
Werkstoff:      Massstab:
 51
15.0
  0
TEXT
  5
65
  8
0
 62
     4
 10
-132.0
 20
23.0
 30
0.0
 40
1.5
  1
Benennung:
 51
15.0
  0
LINE
  5
66
  8
0
 62
     2
 10
-133.0
 20
33.0
 30
0.0
 11
-92.0
 21
33.0
 31
0.0
  0
TEXT
  5
67
  8
0
 62
     4
 10
-132.0
 20
39.0
 30
0.0
 40
1.5
  1
*)Lieferant darf ohne 
 51
15.0
  0
TEXT
  5
68
  8
0
 62
     4
 10
-132.0
 20
36.5
 30
0.0
 40
1.5
  1
 Ruecksprache nicht 
 51
15.0
  0
TEXT
  5
69
  8
0
 62
     4
 10
-132.0
 20
34.0
 30
0.0
 40
1.5
  1
 geaendert werden
 51
15.0
  0
TEXT
  5
6A
  8
0
 62
     4
 10
-132.0
 20
30.0
 30
0.0
 40
1.5
  1
Zeichnung urheberrechtlich
 51
15.0
  0
TEXT
  5
6B
  8
0
 62
     4
 10
-132.0
 20
27.5
 30
0.0
 40
1.5
  1
geschuetzt (DIN 34) (C)
 51
15.0
  0
TEXT
  5
6C
  8
0
 62
     4
 10
-50.0
 20
32.0
 30
0.0
 40
1.5
  1
Geprueft
 51
15.0
  0
TEXT
  5
6D
  8
0
 62
     4
 10
-50.0
 20
15.0
 30
0.0
 40
1.5
  1
Ersatz fuer:           von  Blatt
 51
15.0
  0
TEXT
  5
6E
  8
0
 62
     4
 10
-197.0
 20
1.0
 30
0.0
 40
1.5
  1
Ind.  Aenderung             Datum    Name
 51
15.0
  0
ATTDEF
  5
6F
  8
0
 62
     4
 10
-28.875
 20
37.0
 30
0.0
 40
2.5
  1
01.10.91
 41
0.7
 51
15.0
 72
     1
 11
-24.5
 21
37.0
 31
0.0
  3
Datum der Zeichnung ?
  2
DATE
 70
     0
  0
ATTDEF
  5
70
  8
0
 62
     4
 10
-80.5
 20
36.0
 30
0.0
 40
2.5
  1

 41
0.7
 51
15.0
 72
     1
 11
-80.5
 21
36.0
 31
0.0
  3
Aus welchem Werkstoff ?
  2
WERKSTOFF
 70
     0
  0
ATTDEF
  5
71
  8
0
 62
     2
 10
-92.0
 20
12.5
 30
0.0
 40
5.0
  1

 41
0.7
 51
15.0
 72
     1
 11
-92.0
 21
12.5
 31
0.0
  3
Zeichnungsname ?
  2
BENENNUNG
 70
     0
  0
ATTDEF
  5
72
  8
0
 62
     3
 10
-90.265457
 20
21.082191
 30
0.0
 40
3.5
  1
()
 41
0.7
 51
15.0
 72
     1
 11
-89.040457
 21
21.082191
 31
0.0
  3
Zu welchem Produkt ?
  2
TEIL
 70
     0
  0
ATTDEF
  5
73
  8
0
 62
     3
 10
-20.550219
 20
1.976541
 30
0.0
 40
3.5
  1

 41
0.7
 51
15.0
 72
     1
 11
-20.550219
 21
1.976541
 31
0.0
  3
Zeichnungsnummer ?
  2
NUMMER
 70
     0
  0
ATTDEF
  5
74
  8
0
 62
     2
 10
-63.482672
 20
34.656056
 30
0.0
 40
5.0
  1
5:1
 41
0.7
 51
15.0
 72
     1
 11
-60.566005
 21
34.656056
 31
0.0
  3
Hauptmassstab:
  2
MASS
 70
     0
  0
ATTDEF
  5
75
  8
0
 62
     3
 10
-60.480701
 20
28.210451
 30
0.0
 40
3.5
  1

 41
0.7
 51
15.0
 72
     1
 11
-60.480701
 21
28.210451
 31
0.0
  3
Nebenmassstab:
  2
MASS2
 70
     0
  0
ATTDEF
  5
76
  8
0
 62
     4
 10
-81.0
 20
29.0
 30
0.0
 40
2.5
  1

 41
0.7
 51
15.0
 72
     1
 11
-81.0
 21
29.0
 31
0.0
  3
Werkstoffzusatz:
  2
TEIL
 70
     0
  0
ATTDEF
  5
77
  8
0
 62
     3
 10
-107.711452
 20
59.004319
 30
0.0
 40
3.5
  1
Freimasstoleranzen %%p0.1
 41
0.7
 51
15.0
  3
Freimasstoleranzen:
  2
TOL
 70
     0
  0
ATTDEF
  5
78
  8
0
 62
     3
 10
-107.711452
 20
54.004319
 30
0.0
 40
3.5
  1
nicht bemasste Radien R=0.2
 41
0.7
 51
15.0
  3
Nicht bemasste Radien:
  2
RADIEN
 70
     0
  0
ATTDEF
  5
79
  8
0
 62
     3
 10
-107.711452
 20
49.004319
 30
0.0
 40
3.5
  1
nicht bemasste Facetten 0.5 x 45%%D
 41
0.7
 51
15.0
  3
nicht bemasste Facetten:
  2
FACETTE
 70
     0
  0
POLYLINE
  5
7A
  8
0
 62
     2
 66
     1
 10
0.0
 20
0.0
 30
0.0
  0
VERTEX
  5
6B0
  8
0
 62
     2
 10
-191.0
 20
0.0
 30
0.0
  0
VERTEX
  5
6B1
  8
0
 62
     2
 10
-191.0
 20
46.0
 30
0.0
  0
SEQEND
  5
6B2
  8
0
 62
     2
  0
POLYLINE
  5
7B
  8
0
 62
     2
 66
     1
 10
0.0
 20
0.0
 30
0.0
  0
VERTEX
  5
6B3
  8
0
 62
     2
 10
-133.0
 20
0.0
 30
0.0
  0
VERTEX
  5
6B4
  8
0
 62
     2
 10
-133.0
 20
46.0
 30
0.0
  0
SEQEND
  5
6B5
  8
0
 62
     2
  0
POLYLINE
  5
7C
  8
0
 62
     2
 66
     1
 10
0.0
 20
0.0
 30
0.0
  0
VERTEX
  5
6B6
  8
0
 62
     2
 10
-92.0
 20
26.0
 30
0.0
  0
VERTEX
  5
6B7
  8
0
 62
     2
 10
-92.0
 20
46.0
 30
0.0
  0
SEQEND
  5
6B8
  8
0
 62
     2
  0
POLYLINE
  5
7D
  8
0
 62
     2
 66
     1
 10
0.0
 20
0.0
 30
0.0
  0
VERTEX
  5
6B9
  8
0
 62
     2
 10
-69.0
 20
26.0
 30
0.0
  0
VERTEX
  5
6BA
  8
0
 62
     2
 10
-69.0
 20
46.0
 30
0.0
  0
SEQEND
  5
6BB
  8
0
 62
     2
  0
ATTDEF
  5
7E
  8
0
 62
     4
 10
-197.186267
 20
7.0
 30
0.0
 40
2.5
  1

 41
0.7
 51
15.0
  3
Index1:
  2
INDEX1
 70
     0
  0
ATTDEF
  5
7F
  8
0
 62
     4
 10
-190.348743
 20
7.0
 30
0.0
 40
2.5
  1

 41
0.7
 51
15.0
  3
Aenderung1:
  2
A1
 70
     0
  0
ATTDEF
  5
80
  8
0
 62
     4
 10
-157.348743
 20
7.0
 30
0.0
 40
2.5
  1

 41
0.7
 51
15.0
  3
Datum1:
  2
DATUM1
 70
     0
  0
ATTDEF
  5
81
  8
0
 62
     4
 10
-144.46499
 20
7.0
 30
0.0
 40
2.5
  1

 41
0.7
 51
15.0
  3
Name1:
  2
NAME1
 70
     0
  0
ATTDEF
  5
82
  8
0
 62
     4
 10
-197.186267
 20
12.0
 30
0.0
 40
2.5
  1

 41
0.7
 51
15.0
  3
Index2:
  2
INDEX2
 70
     0
  0
ATTDEF
  5
83
  8
0
 62
     4
 10
-190.348743
 20
12.0
 30
0.0
 40
2.5
  1

 41
0.7
 51
15.0
  3
Aenderung2:
  2
A2
 70
     0
  0
ATTDEF
  5
84
  8
0
 62
     4
 10
-157.348743
 20
12.0
 30
0.0
 40
2.5
  1

 41
0.7
 51
15.0
  3
Datum2:
  2
DATUM2
 70
     0
  0
ATTDEF
  5
85
  8
0
 62
     4
 10
-144.46499
 20
12.0
 30
0.0
 40
2.5
  1

 41
0.7
 51
15.0
  3
Name2
  2
NAME2
 70
     0
  0
ATTDEF
  5
86
  8
0
 62
     4
 10
-197.186267
 20
17.0
 30
0.0
 40
2.5
  1

 41
0.7
 51
15.0
  3
Index3:
  2
INDEX3
 70
     0
  0
ATTDEF
  5
87
  8
0
 62
     4
 10
-190.348743
 20
17.0
 30
0.0
 40
2.5
  1

 41
0.7
 51
15.0
  3
Aenderung3
  2
A3
 70
     0
  0
ATTDEF
  5
88
  8
0
 62
     4
 10
-157.348743
 20
17.0
 30
0.0
 40
2.5
  1

 41
0.7
 51
15.0
  3
Datum3:
  2
DATUM3
 70
     0
  0
ATTDEF
  5
89
  8
0
 62
     4
 10
-144.46499
 20
17.0
 30
0.0
 40
2.5
  1

 41
0.7
 51
15.0
  3
Name3:
  2
NAME3
 70
     0
  0
ATTDEF
  5
8A
  8
0
 62
     4
 10
-197.186267
 20
22.0
 30
0.0
 40
2.5
  1

 41
0.7
 51
15.0
  3
Index4:
  2
INDEX4
 70
     0
  0
ATTDEF
  5
8B
  8
0
 62
     4
 10
-190.348743
 20
22.0
 30
0.0
 40
2.5
  1

 41
0.7
 51
15.0
  3
Aenderung4:
  2
A4
 70
     0
  0
ATTDEF
  5
8C
  8
0
 62
     4
 10
-157.348743
 20
22.0
 30
0.0
 40
2.5
  1

 41
0.7
 51
15.0
  3
Datum4:
  2
DATUM4
 70
     0
  0
ATTDEF
  5
8D
  8
0
 62
     4
 10
-144.46499
 20
22.0
 30
0.0
 40
2.5
  1

 41
0.7
 51
15.0
  3
Name4:
  2
NAME4
 70
     0
  0
ATTDEF
  5
8E
  8
0
 62
     4
 10
-197.186267
 20
27.0
 30
0.0
 40
2.5
  1

 41
0.7
 51
15.0
  3
Index5:
  2
INDEX5
 70
     0
  0
ATTDEF
  5
8F
  8
0
 62
     4
 10
-190.348743
 20
27.0
 30
0.0
 40
2.5
  1

 41
0.7
 51
15.0
  3
Aenderung5:
  2
A5
 70
     0
  0
ATTDEF
  5
90
  8
0
 62
     4
 10
-157.348743
 20
27.0
 30
0.0
 40
2.5
  1

 41
0.7
 51
15.0
  3
Datum5:
  2
DATUM5
 70
     0
  0
ATTDEF
  5
91
  8
0
 62
     4
 10
-144.46499
 20
27.0
 30
0.0
 40
2.5
  1

 41
0.7
 51
15.0
  3
Name5
  2
NAME5
 70
     0
  0
ATTDEF
  5
92
  8
0
 62
     4
 10
-197.186267
 20
32.0
 30
0.0
 40
2.5
  1

 41
0.7
 51
15.0
  3
Index6:
  2
INDEX6
 70
     0
  0
ATTDEF
  5
93
  8
0
 62
     4
 10
-190.348743
 20
32.0
 30
0.0
 40
2.5
  1

 41
0.7
 51
15.0
  3
Aenderung6:
  2
A6
 70
     0
  0
ATTDEF
  5
94
  8
0
 62
     4
 10
-157.348743
 20
32.0
 30
0.0
 40
2.5
  1

 41
0.7
 51
15.0
  3
Datum6:
  2
DATUM6
 70
     0
  0
ATTDEF
  5
95
  8
0
 62
     4
 10
-144.46499
 20
32.0
 30
0.0
 40
2.5
  1

 41
0.7
 51
15.0
  3
Name6:
  2
NAME6
 70
     0
  0
ATTDEF
  5
96
  8
0
 62
     4
 10
-197.186267
 20
37.0
 30
0.0
 40
2.5
  1

 41
0.7
 51
15.0
  3
Index7:
  2
INDEX7
 70
     0
  0
ATTDEF
  5
97
  8
0
 62
     4
 10
-190.348743
 20
37.0
 30
0.0
 40
2.5
  1

 41
0.7
 51
15.0
  3
Aenderung7:
  2
A7
 70
     0
  0
ATTDEF
  5
98
  8
0
 62
     4
 10
-157.348743
 20
37.0
 30
0.0
 40
2.5
  1

 41
0.7
 51
15.0
  3
Datum7:
  2
DATUM7
 70
     0
  0
ATTDEF
  5
99
  8
0
 62
     4
 10
-144.46499
 20
37.0
 30
0.0
 40
2.5
  1

 41
0.7
 51
15.0
  3
Name7:
  2
NAME7
 70
     0
  0
ATTDEF
  5
9A
  8
0
 62
     4
 10
-197.186267
 20
42.0
 30
0.0
 40
2.5
  1

 41
0.7
 51
15.0
  3
Index8:
  2
INDEX8
 70
     0
  0
ATTDEF
  5
9B
  8
0
 62
     4
 10
-190.348743
 20
42.0
 30
0.0
 40
2.5
  1

 41
0.7
 51
15.0
  3
Aenderung8:
  2
A8
 70
     0
  0
ATTDEF
  5
9C
  8
0
 62
     4
 10
-157.348743
 20
42.0
 30
0.0
 40
2.5
  1

 41
0.7
 51
15.0
  3
Datum8:
  2
DATUM8
 70
     0
  0
ATTDEF
  5
9D
  8
0
 62
     4
 10
-144.46499
 20
42.0
 30
0.0
 40
2.5
  1

 41
0.7
 51
15.0
  3
Name8:
  2
NAME8
 70
     0
  0
POLYLINE
  5
9E
  8
0
 62
     2
 66
     1
 10
0.0
 20
0.0
 30
0.0
  0
VERTEX
  5
6BC
  8
0
 62
     2
 10
0.0
 20
0.0
 30
0.0
  0
VERTEX
  5
6BD
  8
0
 62
     2
 10
0.0
 20
46.0
 30
0.0
  0
SEQEND
  5
6BE
  8
0
 62
     2
  0
POLYLINE
  5
9F
  8
0
 62
     2
 66
     1
 10
0.0
 20
0.0
 30
0.0
  0
VERTEX
  5
6BF
  8
0
 62
     2
 10
-200.0
 20
46.0
 30
0.0
  0
VERTEX
  5
6C0
  8
0
 62
     2
 10
-200.0
 20
0.0
 30
0.0
  0
SEQEND
  5
6C1
  8
0
 62
     2
  0
POLYLINE
  5
A0
  8
0
 62
     2
 66
     1
 10
0.0
 20
0.0
 30
0.0
  0
VERTEX
  5
6C2
  8
0
 62
     2
 10
0.0
 20
9.0
 30
0.0
  0
VERTEX
  5
6C3
  8
0
 62
     2
 10
-133.0
 20
9.0
 30
0.0
  0
SEQEND
  5
6C4
  8
0
 62
     2
  0
POLYLINE
  5
A1
  8
0
 62
     2
 66
     1
 10
0.0
 20
0.0
 30
0.0
  0
VERTEX
  5
6C5
  8
0
 62
     2
 10
0.0
 20
18.0
 30
0.0
  0
VERTEX
  5
6C6
  8
0
 62
     2
 10
-51.0
 20
18.0
 30
0.0
  0
SEQEND
  5
6C7
  8
0
 62
     2
  0
POLYLINE
  5
A2
  8
0
 62
     2
 66
     1
 10
0.0
 20
0.0
 30
0.0
  0
VERTEX
  5
6C8
  8
0
 62
     2
 10
0.0
 20
26.0
 30
0.0
  0
VERTEX
  5
6C9
  8
0
 62
     2
 10
-133.0
 20
26.0
 30
0.0
  0
SEQEND
  5
6CA
  8
0
 62
     2
  0
POLYLINE
  5
A3
  8
0
 62
     2
 66
     1
 10
0.0
 20
0.0
 30
0.0
  0
VERTEX
  5
6CB
  8
0
 62
     2
 10
0.0
 20
31.0
 30
0.0
  0
VERTEX
  5
6CC
  8
0
 62
     2
 10
-51.0
 20
31.0
 30
0.0
  0
SEQEND
  5
6CD
  8
0
 62
     2
  0
POLYLINE
  5
A4
  8
0
 62
     2
 66
     1
 10
0.0
 20
0.0
 30
0.0
  0
VERTEX
  5
6CE
  8
0
 62
     2
 10
0.0
 20
36.0
 30
0.0
  0
VERTEX
  5
6CF
  8
0
 62
     2
 10
-51.0
 20
36.0
 30
0.0
  0
SEQEND
  5
6D0
  8
0
 62
     2
  0
POLYLINE
  5
A5
  8
0
 62
     2
 66
     1
 10
0.0
 20
0.0
 30
0.0
  0
VERTEX
  5
6D1
  8
0
 62
     2
 10
0.0
 20
41.0
 30
0.0
  0
VERTEX
  5
6D2
  8
0
 62
     2
 10
-51.0
 20
41.0
 30
0.0
  0
SEQEND
  5
6D3
  8
0
 62
     2
  0
POLYLINE
  5
A6
  8
0
 62
     2
 66
     1
 10
0.0
 20
0.0
 30
0.0
  0
VERTEX
  5
6D4
  8
0
 62
     2
 10
0.0
 20
46.0
 30
0.0
  0
VERTEX
  5
6D5
  8
0
 62
     2
 10
-200.0
 20
46.0
 30
0.0
  0
SEQEND
  5
6D6
  8
0
 62
     2
  0
TEXT
  5
A7
  8
035
 10
517.653158
 20
512.84859
 30
0.0
 40
3.5
  1
  
 41
0.7
 51
15.0
  0
LINE
  5
A9
  8
035
 10
-131.889278
 20
3.208952
 30
0.0
 11
-130.181445
 21
3.208952
 31
0.0
  0
LINE
  5
AA
  8
035
 10
-131.338562
 20
5.693072
 30
0.0
 11
-129.320214
 21
5.693072
 31
0.0
  0
LINE
  5
AB
  8
035
 10
-131.889278
 20
3.208952
 30
0.0
 11
-131.338562
 21
5.693072
 31
0.0
  0
LINE
  5
AC
  8
035
 10
-130.181445
 20
3.208952
 30
0.0
 11
-129.871668
 21
4.60627
 31
0.0
  0
LINE
  5
AD
  8
035
 10
-126.377637
 20
3.208952
 30
0.0
 11
-125.826921
 21
5.693072
 31
0.0
  0
LINE
  5
AE
  8
035
 10
-127.775692
 20
4.60627
 30
0.0
 11
-127.534753
 21
5.693072
 31
0.0
  0
LINE
  5
AF
  8
035
 10
-129.871668
 20
4.60627
 30
0.0
 11
-128.318356
 21
3.208952
 31
0.0
  0
LINE
  5
B0
  8
035
 10
-129.320214
 20
5.693072
 30
0.0
 11
-127.775692
 21
4.60627
 31
0.0
  0
LINE
  5
B1
  8
035
 10
-127.534753
 20
5.693072
 30
0.0
 11
-125.826921
 21
5.693072
 31
0.0
  0
LINE
  5
B2
  8
035
 10
-128.318356
 20
3.208952
 30
0.0
 11
-126.377637
 21
3.208952
 31
0.0
  0
LINE
  5
B3
  8
035
 10
-125.523721
 20
3.208952
 30
0.0
 11
-124.973005
 21
5.693072
 31
0.0
  0
LINE
  5
B4
  8
035
 10
-123.718348
 20
3.648931
 30
0.0
 11
-123.572674
 21
4.306023
 31
0.0
  0
LINE
  5
B5
  8
035
 10
-120.855668
 20
4.306023
 30
0.0
 11
-120.791381
 21
4.596001
 31
0.0
  0
LINE
  5
B6
  8
035
 10
-120.865996
 20
3.208952
 30
0.0
 11
-120.768456
 21
3.648931
 31
0.0
  0
LINE
  5
B7
  8
035
 10
-125.523721
 20
3.208952
 30
0.0
 11
-120.865996
 21
3.208952
 31
0.0
  0
LINE
  5
B8
  8
035
 10
-124.973005
 20
5.693072
 30
0.0
 11
-120.31528
 21
5.693072
 31
0.0
  0
LINE
  5
B9
  8
035
 10
-123.508387
 20
4.596001
 30
0.0
 11
-123.362713
 21
5.253094
 31
0.0
  0
LINE
  5
BA
  8
035
 10
-120.412821
 20
5.253094
 30
0.0
 11
-120.31528
 21
5.693072
 31
0.0
  0
LINE
  5
BB
  8
035
 10
-119.921488
 20
3.967747
 30
0.0
 11
-119.538993
 21
5.693072
 31
0.0
  0
LINE
  5
BC
  8
035
 10
-118.170584
 20
4.181432
 30
0.0
 11
-117.835462
 21
5.693072
 31
0.0
  0
LINE
  5
BD
  8
035
 10
-116.302927
 20
4.100887
 30
0.0
 11
-115.949949
 21
5.693072
 31
0.0
  0
LINE
  5
BE
  8
035
 10
-114.655674
 20
3.847099
 30
0.0
 11
-114.246432
 21
5.693072
 31
0.0
  0
LINE
  5
BF
  8
035
 10
-119.538993
 20
5.693072
 30
0.0
 11
-117.835462
 21
5.693072
 31
0.0
  0
POLYLINE
  5
C0
  8
035
 66
     1
 10
0.0
 20
0.0
 30
0.0
  0
VERTEX
  5
6D7
  8
035
 10
-119.921488
 20
3.967747
 30
0.0
 42
0.053304
  0
VERTEX
  5
6D8
  8
035
 10
-119.927918
 20
3.907611
 30
0.0
 42
0.242955
  0
SEQEND
  5
6D9
  8
035
  0
POLYLINE
  5
C1
  8
035
 66
     1
 10
0.0
 20
0.0
 30
0.0
  0
VERTEX
  5
6DA
  8
035
 10
-119.927918
 20
3.907611
 30
0.0
 42
0.242955
  0
VERTEX
  5
6DB
  8
035
 10
-119.808149
 20
3.675677
 30
0.0
 42
0.083039
  0
VERTEX
  5
6DC
  8
035
 10
-119.154862
 20
3.358693
 30
0.0
 42
0.041229
  0
VERTEX
  5
6DD
  8
035
 10
-118.372334
 20
3.197098
 30
0.0
 42
0.030317
  0
VERTEX
  5
6DE
  8
035
 10
-117.28854
 20
3.131323
 30
0.0
 42
0.030317
  0
VERTEX
  5
6DF
  8
035
 10
-116.204747
 20
3.197098
 30
0.0
 42
0.041229
  0
VERTEX
  5
6E0
  8
035
 10
-115.422219
 20
3.358693
 30
0.0
 42
0.083039
  0
VERTEX
  5
6E1
  8
035
 10
-114.768932
 20
3.675677
 30
0.0
 42
0.186877
  0
VERTEX
  5
6E2
  8
035
 10
-114.655674
 20
3.847099
 30
0.0
 42
0.242955
  0
SEQEND
  5
6E3
  8
035
  0
POLYLINE
  5
C2
  8
035
 66
     1
 10
0.0
 20
0.0
 30
0.0
  0
VERTEX
  5
6E4
  8
035
 10
-118.175358
 20
4.140497
 30
0.0
 42
0.199105
  0
VERTEX
  5
6E5
  8
035
 10
-118.123163
 20
4.014618
 30
0.0
 42
0.098437
  0
VERTEX
  5
6E6
  8
035
 10
-117.900493
 20
3.866038
 30
0.0
 42
0.055684
  0
VERTEX
  5
6E7
  8
035
 10
-117.619171
 20
3.784861
 30
0.0
 42
0.042444
  0
VERTEX
  5
6E8
  8
035
 10
-117.23691
 20
3.752353
 30
0.0
 42
0.042444
  0
VERTEX
  5
6E9
  8
035
 10
-116.854649
 20
3.784861
 30
0.0
 42
0.055684
  0
VERTEX
  5
6EA
  8
035
 10
-116.573327
 20
3.866038
 30
0.0
 42
0.098437
  0
VERTEX
  5
6EB
  8
035
 10
-116.350657
 20
4.014618
 30
0.0
 42
0.141327
  0
VERTEX
  5
6EC
  8
035
 10
-116.302927
 20
4.100887
 30
0.0
 42
0.199105
  0
SEQEND
  5
6ED
  8
035
  0
POLYLINE
  5
C3
  8
035
 66
     1
 10
0.0
 20
0.0
 30
0.0
  0
VERTEX
  5
6EE
  8
035
 10
-118.170584
 20
4.181432
 30
0.0
 42
0.058115
  0
VERTEX
  5
6EF
  8
035
 10
-118.175358
 20
4.140497
 30
0.0
 42
0.199105
  0
SEQEND
  5
6F0
  8
035
  0
LINE
  5
C4
  8
035
 10
-115.949949
 20
5.693072
 30
0.0
 11
-114.246432
 21
5.693072
 31
0.0
  0
LINE
  5
C5
  8
035
 10
-113.932145
 20
5.072042
 30
0.0
 11
-113.794466
 21
5.693072
 31
0.0
  0
LINE
  5
C6
  8
035
 10
-112.792607
 20
3.208952
 30
0.0
 11
-112.37957
 21
5.072042
 31
0.0
  0
LINE
  5
C7
  8
035
 10
-111.084775
 20
3.208952
 30
0.0
 11
-110.671738
 21
5.072042
 31
0.0
  0
LINE
  5
C8
  8
035
 10
-109.041534
 20
5.072042
 30
0.0
 11
-108.903855
 21
5.693072
 31
0.0
  0
LINE
  5
C9
  8
035
 10
-113.932145
 20
5.072042
 30
0.0
 11
-112.37957
 21
5.072042
 31
0.0
  0
LINE
  5
CA
  8
035
 10
-112.792607
 20
3.208952
 30
0.0
 11
-111.084775
 21
3.208952
 31
0.0
  0
LINE
  5
CB
  8
035
 10
-113.794466
 20
5.693072
 30
0.0
 11
-108.903855
 21
5.693072
 31
0.0
  0
LINE
  5
CC
  8
035
 10
-110.671738
 20
5.072042
 30
0.0
 11
-109.041534
 21
5.072042
 31
0.0
  0
LINE
  5
CD
  8
035
 10
-108.91117
 20
3.208952
 30
0.0
 11
-108.360454
 21
5.693072
 31
0.0
  0
LINE
  5
CE
  8
035
 10
-107.203338
 20
3.208952
 30
0.0
 11
-106.997985
 21
4.13524
 31
0.0
  0
LINE
  5
CF
  8
035
 10
-108.91117
 20
3.208952
 30
0.0
 11
-107.203338
 21
3.208952
 31
0.0
  0
LINE
  5
D0
  8
035
 10
-108.360454
 20
5.693072
 30
0.0
 11
-104.002078
 21
5.693072
 31
0.0
  0
LINE
  5
D1
  8
035
 10
-103.691866
 20
3.468914
 30
0.0
 11
-103.651414
 21
4.047405
 31
0.0
  0
LINE
  5
D2
  8
035
 10
-105.404037
 20
3.406868
 30
0.0
 11
-105.372771
 21
3.861921
 31
0.0
  0
LINE
  5
D3
  8
035
 10
-106.933698
 20
4.425218
 30
0.0
 11
-106.750163
 21
5.253094
 31
0.0
  0
ARC
  5
D4
  8
035
 10
-103.304668
 20
3.441838
 30
0.0
 40
0.388144
 50
176.0
 51
216.869898
  0
ARC
  5
D5
  8
035
 10
-105.030247
 20
3.411905
 30
0.0
 40
0.373824
 50
180.772005
 51
212.881875
  0
LINE
  5
D6
  8
035
 10
-105.344182
 20
3.208952
 30
0.0
 11
-103.615183
 21
3.208952
 31
0.0
  0
POLYLINE
  5
D7
  8
035
 66
     1
 10
0.0
 20
0.0
 30
0.0
  0
VERTEX
  5
6F1
  8
035
 10
-103.651414
 20
4.047405
 30
0.0
 42
0.084831
  0
VERTEX
  5
6F2
  8
035
 10
-103.660284
 20
4.142982
 30
0.0
 42
0.153048
  0
VERTEX
  5
6F3
  8
035
 10
-103.751613
 20
4.286875
 30
0.0
 42
0.025315
  0
VERTEX
  5
6F4
  8
035
 10
-103.797537
 20
4.321852
 30
0.0
 42
0.067948
  0
SEQEND
  5
6F5
  8
035
  0
POLYLINE
  5
D8
  8
035
 66
     1
 10
0.0
 20
0.0
 30
0.0
  0
VERTEX
  5
6F6
  8
035
 10
-103.797537
 20
4.321852
 30
0.0
 42
0.015369
  0
VERTEX
  5
6F7
  8
035
 10
-103.68387
 20
4.380025
 30
0.0
 42
0.073981
  0
VERTEX
  5
6F8
  8
035
 10
-103.356816
 20
4.629409
 30
0.0
 42
0.106894
  0
VERTEX
  5
6F9
  8
035
 10
-103.152297
 20
4.956595
 30
0.0
 42
0.153048
  0
VERTEX
  5
6FA
  8
035
 10
-103.140863
 20
5.229042
 30
0.0
 42
0.153048
  0
VERTEX
  5
6FB
  8
035
 10
-103.286988
 20
5.459272
 30
0.0
 42
0.106894
  0
VERTEX
  5
6FC
  8
035
 10
-103.627701
 20
5.640364
 30
0.0
 42
0.067948
  0
VERTEX
  5
6FD
  8
035
 10
-104.002078
 20
5.693072
 30
0.0
 42
0.060566
  0
SEQEND
  5
6FE
  8
035
  0
LINE
  5
D9
  8
035
 10
-102.856129
 20
3.208952
 30
0.0
 11
-102.305412
 21
5.693072
 31
0.0
  0
LINE
  5
DA
  8
035
 10
-101.148296
 20
3.208952
 30
0.0
 11
-100.59758
 21
5.693072
 31
0.0
  0
LINE
  5
DB
  8
035
 10
-102.856129
 20
3.208952
 30
0.0
 11
-101.148296
 21
3.208952
 31
0.0
  0
LINE
  5
DC
  8
035
 10
-102.305412
 20
5.693072
 30
0.0
 11
-100.59758
 21
5.693072
 31
0.0
  0
LINE
  5
DD
  8
035
 10
-100.139123
 20
3.208952
 30
0.0
 11
-99.588406
 21
5.693072
 31
0.0
  0
LINE
  5
DE
  8
035
 10
-98.508919
 20
3.208952
 30
0.0
 11
-98.37124
 21
3.829982
 31
0.0
  0
LINE
  5
DF
  8
035
 10
-99.588406
 20
5.693072
 30
0.0
 11
-97.958203
 21
5.693072
 31
0.0
  0
LINE
  5
E0
  8
035
 10
-100.139123
 20
3.208952
 30
0.0
 11
-98.508919
 21
3.208952
 31
0.0
  0
LINE
  5
E1
  8
035
 10
-98.37124
 20
3.829982
 30
0.0
 11
-97.642556
 21
4.140497
 31
0.0
  0
LINE
  5
E2
  8
035
 10
-98.144475
 20
4.852855
 30
0.0
 11
-96.172742
 21
5.693072
 31
0.0
  0
LINE
  5
E3
  8
035
 10
-96.172742
 20
5.693072
 30
0.0
 11
-93.999137
 21
5.693072
 31
0.0
  0
LINE
  5
E4
  8
035
 10
-97.642556
 20
4.140497
 30
0.0
 11
-96.723458
 21
3.208952
 31
0.0
  0
LINE
  5
E5
  8
035
 10
-96.003018
 20
4.839156
 30
0.0
 11
-94.394596
 21
3.208952
 31
0.0
  0
LINE
  5
E6
  8
035
 10
-96.003018
 20
4.839156
 30
0.0
 11
-93.999137
 21
5.693072
 31
0.0
  0
LINE
  5
E7
  8
035
 10
-98.144475
 20
4.852855
 30
0.0
 11
-97.958203
 21
5.693072
 31
0.0
  0
LINE
  5
E8
  8
035
 10
-96.723458
 20
3.208952
 30
0.0
 11
-94.394596
 21
3.208952
 31
0.0
  0
LINE
  5
E9
  8
035
 10
-91.535849
 20
3.208952
 30
0.0
 11
-89.859713
 21
3.208952
 31
0.0
  0
LINE
  5
EA
  8
035
 10
-89.672213
 20
5.693801
 30
0.0
 11
-86.717509
 21
5.693801
 31
0.0
  0
LINE
  5
EB
  8
035
 10
-91.535849
 20
3.208952
 30
0.0
 11
-89.672213
 21
5.693801
 31
0.0
  0
LINE
  5
EC
  8
035
 10
-86.717509
 20
5.693801
 30
0.0
 11
-86.096297
 21
3.208952
 31
0.0
  0
LINE
  5
ED
  8
035
 10
-89.499689
 20
3.688984
 30
0.0
 11
-87.773968
 21
3.688984
 31
0.0
  0
LINE
  5
EE
  8
035
 10
-89.219798
 20
4.062171
 30
0.0
 11
-87.867265
 21
4.062171
 31
0.0
  0
LINE
  5
EF
  8
035
 10
-85.384981
 20
3.719952
 30
0.0
 11
-85.11662
 21
5.241907
 31
0.0
  0
LINE
  5
F0
  8
035
 10
-80.632927
 20
3.208952
 30
0.0
 11
-80.440303
 21
4.301376
 31
0.0
  0
LINE
  5
F1
  8
035
 10
-83.773875
 20
4.049318
 30
0.0
 11
-83.613979
 21
4.956134
 31
0.0
  0
LINE
  5
F2
  8
035
 10
-82.185958
 20
3.208952
 30
0.0
 11
-82.180952
 21
3.237338
 31
0.0
  0
LINE
  5
F3
  8
035
 10
-82.653819
 20
4.078649
 30
0.0
 11
-82.614546
 21
4.301376
 31
0.0
  0
LINE
  5
F4
  8
035
 10
-82.653819
 20
4.078649
 30
0.0
 11
-82.032607
 21
4.078649
 31
0.0
  0
ARC
  5
F5
  8
035
 10
-82.531573
 20
-8.003128
 30
0.0
 40
13.697153
 50
81.659895
 51
99.80279
  0
ARC
  5
F6
  8
035
 10
-83.091534
 20
16.90419
 30
0.0
 40
13.697153
 50
261.461473
 51
273.811815
  0
ARC
  5
F7
  8
035
 10
-84.810733
 20
5.187971
 30
0.0
 40
0.310606
 50
99.80279
 51
170.0
  0
ARC
  5
F8
  8
035
 10
-85.079094
 20
3.666016
 30
0.0
 40
0.310606
 50
170.0
 51
261.461473
  0
ARC
  5
F9
  8
035
 10
-80.58987
 20
5.24185
 30
0.0
 40
0.310606
 50
350.0
 51
81.659895
  0
LINE
  5
FA
  8
035
 10
-81.898429
 20
4.963993
 30
0.0
 11
-80.323466
 21
4.963993
 31
0.0
  0
LINE
  5
FB
  8
035
 10
-80.323466
 20
4.963993
 30
0.0
 11
-80.283983
 21
5.187914
 31
0.0
  0
LINE
  5
FC
  8
035
 10
-82.052147
 20
3.967832
 30
0.0
 11
-82.032607
 21
4.078649
 31
0.0
  0
ARC
  5
FD
  8
035
 10
-82.755724
 20
1.698274
 30
0.0
 40
3.561797
 50
80.208339
 51
99.781825
  0
ARC
  5
FE
  8
035
 10
-82.989141
 20
7.211117
 30
0.0
 40
3.561797
 50
261.530468
 51
281.193068
  0
ARC
  5
FF
  8
035
 10
-83.308092
 20
4.902198
 30
0.0
 40
0.310606
 50
99.781825
 51
170.0
  0
ARC
  5
100
  8
035
 10
-82.202807
 20
4.902103
 30
0.0
 40
0.310606
 50
11.493425
 51
80.208339
  0
ARC
  5
101
  8
035
 10
-83.467988
 20
3.995382
 30
0.0
 40
0.310606
 50
170.0
 51
261.530468
  0
ARC
  5
102
  8
035
 10
-82.358034
 20
4.021768
 30
0.0
 40
0.310606
 50
281.193068
 51
350.0
  0
LINE
  5
103
  8
035
 10
-82.185958
 20
3.208952
 30
0.0
 11
-80.632927
 21
3.208952
 31
0.0
  0
LINE
  5
104
  8
035
 10
-87.65396
 20
3.208952
 30
0.0
 11
-86.096297
 21
3.208952
 31
0.0
  0
TEXT
  5
105
  8
035
 62
     4
 10
-77.576926
 20
3.264636
 30
0.0
 40
2.484848
  1
FL-9494 SCHAAN
 41
0.7
 51
15.0
  7
HELV
  0
LINE
  5
107
  8
035
 10
-123.362713
 20
5.253094
 30
0.0
 11
-120.412821
 21
5.253094
 31
0.0
  0
LINE
  5
108
  8
035
 10
-123.508387
 20
4.596001
 30
0.0
 11
-120.791381
 21
4.596001
 31
0.0
  0
LINE
  5
109
  8
035
 10
-123.572674
 20
4.306023
 30
0.0
 11
-120.855668
 21
4.306023
 31
0.0
  0
LINE
  5
10A
  8
035
 10
-123.718348
 20
3.648931
 30
0.0
 11
-120.768456
 21
3.648931
 31
0.0
  0
LINE
  5
10B
  8
0
 62
     4
 10
-94.088306
 20
5.655074
 30
0.0
 11
-94.050308
 21
5.693072
 31
0.0
  0
LINE
  5
10C
  8
0
 62
     4
 10
-94.413108
 20
3.208952
 30
0.0
 11
-94.40379
 21
3.21827
 31
0.0
  0
LINE
  5
10D
  8
035
 10
-106.750163
 20
5.253094
 30
0.0
 11
-105.343603
 21
5.253094
 31
0.0
  0
LINE
  5
10E
  8
035
 10
-106.933698
 20
4.425218
 30
0.0
 11
-105.573373
 21
4.425218
 31
0.0
  0
LINE
  5
10F
  8
035
 10
-106.997985
 20
4.13524
 30
0.0
 11
-105.5491
 21
4.13524
 31
0.0
  0
LINE
  5
110
  8
035
 10
-105.343603
 20
5.253094
 30
0.0
 11
-105.232586
 21
5.23493
 31
0.0
  0
LINE
  5
111
  8
035
 10
-105.232586
 20
5.23493
 30
0.0
 11
-105.136389
 21
5.186199
 31
0.0
  0
LINE
  5
112
  8
035
 10
-105.136389
 20
5.186199
 30
0.0
 11
-105.090213
 21
5.111822
 31
0.0
  0
LINE
  5
113
  8
035
 10
-105.090213
 20
5.111822
 30
0.0
 11
-105.054301
 21
5.022057
 31
0.0
  0
LINE
  5
114
  8
035
 10
-105.054301
 20
5.022057
 30
0.0
 11
-105.053017
 21
4.9246
 31
0.0
  0
LINE
  5
115
  8
035
 10
-105.053017
 20
4.9246
 30
0.0
 11
-105.063278
 21
4.783539
 31
0.0
  0
LINE
  5
116
  8
035
 10
-105.063278
 20
4.783539
 30
0.0
 11
-105.114586
 21
4.697624
 31
0.0
  0
LINE
  5
117
  8
035
 10
-105.114586
 20
4.697624
 30
0.0
 11
-105.20565
 21
4.591186
 31
0.0
  0
LINE
  5
118
  8
035
 10
-105.20565
 20
4.591186
 30
0.0
 11
-105.342894
 21
4.509116
 31
0.0
  0
LINE
  5
119
  8
035
 10
-105.342894
 20
4.509116
 30
0.0
 11
-105.473724
 21
4.442434
 31
0.0
  0
LINE
  5
11A
  8
035
 10
-105.473724
 20
4.442434
 30
0.0
 11
-105.573373
 21
4.425218
 31
0.0
  0
LINE
  5
11B
  8
035
 10
-105.5491
 20
4.13524
 30
0.0
 11
-105.466219
 21
4.123579
 31
0.0
  0
LINE
  5
11C
  8
035
 10
-105.466219
 20
4.123579
 30
0.0
 11
-105.413019
 21
4.089933
 31
0.0
  0
LINE
  5
11D
  8
035
 10
-105.413019
 20
4.089933
 30
0.0
 11
-105.380449
 21
4.036745
 31
0.0
  0
LINE
  5
11E
  8
035
 10
-105.380449
 20
4.036745
 30
0.0
 11
-105.365249
 21
3.972704
 31
0.0
  0
LINE
  5
11F
  8
035
 10
-105.365249
 20
3.972704
 30
0.0
 11
-105.372771
 21
3.861921
 31
0.0
  0
LINE
  5
120
  8
035
 10
-88.205398
 20
5.414705
 30
0.0
 11
-87.867265
 21
4.062171
 31
0.0
  0
LINE
  5
121
  8
035
 10
-89.219798
 20
4.062171
 30
0.0
 11
-88.205398
 21
5.414705
 31
0.0
  0
LINE
  5
122
  8
035
 10
-87.773968
 20
3.688984
 30
0.0
 11
-87.65396
 21
3.208952
 31
0.0
  0
LINE
  5
123
  8
035
 10
-89.859713
 20
3.208952
 30
0.0
 11
-89.499689
 21
3.688984
 31
0.0
  0
LINE
  5
124
  8
035
 10
-82.614546
 20
4.301376
 30
0.0
 11
-80.440303
 21
4.301376
 31
0.0
  0
INSERT
  5
125
  8
035
 62
     4
  2
*X3
 10
-280.0
 20
-100.0
 30
0.0
1001
ACAD
1000
HATCH
1002
{
1070
    16
1000
ANSI37,I
1040
1.8
1040
0.0
1002
}
  0
ENDBLK
  5
32F
  8
0
  0
BLOCK
  8
0
  2
*X3
 70
     1
 10
0.0
 20
0.0
 30
0.0
  3
*X3
  1

  0
LINE
  5
127
  8
0
 62
     0
 10
172.576127
 20
103.208952
 30
0.0
 11
172.85948
 21
103.492304
 31
0.0
  0
LINE
  5
128
  8
0
 62
     0
 10
174.620269
 20
105.253094
 30
0.0
 11
175.060247
 21
105.693072
 31
0.0
  0
LINE
  5
129
  8
0
 62
     0
 10
173.502415
 20
104.13524
 30
0.0
 11
173.792393
 21
104.425218
 31
0.0
  0
LINE
  5
12A
  8
0
 62
     0
 10
172.257929
 20
103.208952
 30
0.0
 11
172.950116
 21
103.901139
 31
0.0
  0
LINE
  5
12B
  8
0
 62
     0
 10
174.302071
 20
105.253094
 30
0.0
 11
174.742049
 21
105.693072
 31
0.0
  0
LINE
  5
12C
  8
0
 62
     0
 10
173.184217
 20
104.13524
 30
0.0
 11
173.474195
 21
104.425218
 31
0.0
  0
LINE
  5
12D
  8
0
 62
     0
 10
171.939731
 20
103.208952
 30
0.0
 11
173.155997
 21
104.425218
 31
0.0
  0
LINE
  5
12E
  8
0
 62
     0
 10
173.983873
 20
105.253094
 30
0.0
 11
174.423851
 21
105.693072
 31
0.0
  0
LINE
  5
12F
  8
0
 62
     0
 10
171.621533
 20
103.208952
 30
0.0
 11
173.131389
 21
104.718808
 31
0.0
  0
LINE
  5
130
  8
0
 62
     0
 10
173.665675
 20
105.253094
 30
0.0
 11
174.105653
 21
105.693072
 31
0.0
  0
LINE
  5
131
  8
0
 62
     0
 10
171.303335
 20
103.208952
 30
0.0
 11
173.222025
 21
105.127642
 31
0.0
  0
LINE
  5
132
  8
0
 62
     0
 10
173.347477
 20
105.253094
 30
0.0
 11
173.787455
 21
105.693072
 31
0.0
  0
LINE
  5
133
  8
0
 62
     0
 10
171.118366
 20
103.342181
 30
0.0
 11
173.469257
 21
105.693072
 31
0.0
  0
LINE
  5
134
  8
0
 62
     0
 10
171.209002
 20
103.751015
 30
0.0
 11
173.151059
 21
105.693072
 31
0.0
  0
LINE
  5
135
  8
0
 62
     0
 10
171.299639
 20
104.15985
 30
0.0
 11
172.832861
 21
105.693072
 31
0.0
  0
LINE
  5
136
  8
0
 62
     0
 10
171.390275
 20
104.568684
 30
0.0
 11
172.514663
 21
105.693072
 31
0.0
  0
LINE
  5
137
  8
0
 62
     0
 10
171.480911
 20
104.977519
 30
0.0
 11
172.196465
 21
105.693072
 31
0.0
  0
LINE
  5
138
  8
0
 62
     0
 10
171.571548
 20
105.386353
 30
0.0
 11
171.878267
 21
105.693072
 31
0.0
  0
LINE
  5
139
  8
0
 62
     0
 10
170.939039
 20
105.072042
 30
0.0
 11
170.963999
 21
105.097002
 31
0.0
  0
LINE
  5
13A
  8
0
 62
     0
 10
168.757751
 20
103.208952
 30
0.0
 11
168.96008
 21
103.411282
 31
0.0
  0
LINE
  5
13B
  8
0
 62
     0
 10
170.620841
 20
105.072042
 30
0.0
 11
171.054636
 21
105.505837
 31
0.0
  0
LINE
  5
13C
  8
0
 62
     0
 10
168.439553
 20
103.208952
 30
0.0
 11
169.050717
 21
103.820116
 31
0.0
  0
LINE
  5
13D
  8
0
 62
     0
 10
170.302643
 20
105.072042
 30
0.0
 11
170.923673
 21
105.693072
 31
0.0
  0
LINE
  5
13E
  8
0
 62
     0
 10
168.121355
 20
103.208952
 30
0.0
 11
169.141353
 21
104.228951
 31
0.0
  0
LINE
  5
13F
  8
0
 62
     0
 10
169.984445
 20
105.072042
 30
0.0
 11
170.605474
 21
105.693072
 31
0.0
  0
LINE
  5
140
  8
0
 62
     0
 10
167.803157
 20
103.208952
 30
0.0
 11
169.23199
 21
104.637785
 31
0.0
  0
LINE
  5
141
  8
0
 62
     0
 10
169.666246
 20
105.072042
 30
0.0
 11
170.287276
 21
105.693072
 31
0.0
  0
LINE
  5
142
  8
0
 62
     0
 10
167.484959
 20
103.208952
 30
0.0
 11
169.322626
 21
105.04662
 31
0.0
  0
LINE
  5
143
  8
0
 62
     0
 10
169.348048
 20
105.072042
 30
0.0
 11
169.969078
 21
105.693072
 31
0.0
  0
LINE
  5
144
  8
0
 62
     0
 10
167.218966
 20
103.261158
 30
0.0
 11
169.65088
 21
105.693072
 31
0.0
  0
LINE
  5
145
  8
0
 62
     0
 10
167.309603
 20
103.669992
 30
0.0
 11
169.332682
 21
105.693072
 31
0.0
  0
LINE
  5
146
  8
0
 62
     0
 10
167.400239
 20
104.078827
 30
0.0
 11
169.014484
 21
105.693072
 31
0.0
  0
LINE
  5
147
  8
0
 62
     0
 10
167.490876
 20
104.487661
 30
0.0
 11
168.696286
 21
105.693072
 31
0.0
  0
LINE
  5
148
  8
0
 62
     0
 10
167.581512
 20
104.896496
 30
0.0
 11
168.378088
 21
105.693072
 31
0.0
  0
LINE
  5
149
  8
0
 62
     0
 10
167.43886
 20
105.072042
 30
0.0
 11
168.05989
 21
105.693072
 31
0.0
  0
LINE
  5
14A
  8
0
 62
     0
 10
167.120662
 20
105.072042
 30
0.0
 11
167.741692
 21
105.693072
 31
0.0
  0
LINE
  5
14B
  8
0
 62
     0
 10
166.802464
 20
105.072042
 30
0.0
 11
167.423494
 21
105.693072
 31
0.0
  0
LINE
  5
14C
  8
0
 62
     0
 10
164.888376
 20
103.476152
 30
0.0
 11
165.368539
 21
103.956315
 31
0.0
  0
LINE
  5
14D
  8
0
 62
     0
 10
166.484266
 20
105.072042
 30
0.0
 11
167.105296
 21
105.693072
 31
0.0
  0
LINE
  5
14E
  8
0
 62
     0
 10
164.405466
 20
103.31144
 30
0.0
 11
165.459175
 21
104.365149
 31
0.0
  0
LINE
  5
14F
  8
0
 62
     0
 10
166.166068
 20
105.072042
 30
0.0
 11
166.787098
 21
105.693072
 31
0.0
  0
LINE
  5
150
  8
0
 62
     0
 10
164.002769
 20
103.226941
 30
0.0
 11
165.549811
 21
104.773984
 31
0.0
  0
LINE
  5
151
  8
0
 62
     0
 10
166.130516
 20
105.354688
 30
0.0
 11
166.4689
 21
105.693072
 31
0.0
  0
LINE
  5
152
  8
0
 62
     0
 10
163.636859
 20
103.17923
 30
0.0
 11
165.640448
 21
105.182818
 31
0.0
  0
LINE
  5
153
  8
0
 62
     0
 10
163.289411
 20
103.149979
 30
0.0
 11
165.731084
 21
105.591652
 31
0.0
  0
LINE
  5
154
  8
0
 62
     0
 10
162.955891
 20
103.134657
 30
0.0
 11
165.514306
 21
105.693072
 31
0.0
  0
LINE
  5
155
  8
0
 62
     0
 10
162.634688
 20
103.131652
 30
0.0
 11
163.335119
 21
103.832084
 31
0.0
  0
LINE
  5
156
  8
0
 62
     0
 10
163.723606
 20
104.22057
 30
0.0
 11
165.196108
 21
105.693072
 31
0.0
  0
LINE
  5
157
  8
0
 62
     0
 10
162.324518
 20
103.139681
 30
0.0
 11
162.944469
 21
103.759631
 31
0.0
  0
LINE
  5
158
  8
0
 62
     0
 10
163.814242
 20
104.629404
 30
0.0
 11
164.87791
 21
105.693072
 31
0.0
  0
LINE
  5
159
  8
0
 62
     0
 10
162.024343
 20
103.157703
 30
0.0
 11
162.623312
 21
103.756673
 31
0.0
  0
LINE
  5
15A
  8
0
 62
     0
 10
163.904878
 20
105.038239
 30
0.0
 11
164.559711
 21
105.693072
 31
0.0
  0
LINE
  5
15B
  8
0
 62
     0
 10
161.733306
 20
103.184864
 30
0.0
 11
162.340799
 21
103.792357
 31
0.0
  0
LINE
  5
15C
  8
0
 62
     0
 10
163.995515
 20
105.447073
 30
0.0
 11
164.241513
 21
105.693072
 31
0.0
  0
LINE
  5
15D
  8
0
 62
     0
 10
161.452007
 20
103.221764
 30
0.0
 11
162.097229
 21
103.866985
 31
0.0
  0
LINE
  5
15E
  8
0
 62
     0
 10
161.184171
 20
103.272125
 30
0.0
 11
161.902409
 21
103.990363
 31
0.0
  0
LINE
  5
15F
  8
0
 62
     0
 10
160.928758
 20
103.33491
 30
0.0
 11
161.844836
 21
104.250989
 31
0.0
  0
LINE
  5
160
  8
0
 62
     0
 10
160.687321
 20
103.411671
 30
0.0
 11
161.935473
 21
104.659823
 31
0.0
  0
LINE
  5
161
  8
0
 62
     0
 10
160.466718
 20
103.509267
 30
0.0
 11
162.026109
 21
105.068658
 31
0.0
  0
LINE
  5
162
  8
0
 62
     0
 10
160.265103
 20
103.62585
 30
0.0
 11
162.116745
 21
105.477492
 31
0.0
  0
LINE
  5
163
  8
0
 62
     0
 10
160.101894
 20
103.780839
 30
0.0
 11
162.014127
 21
105.693072
 31
0.0
  0
LINE
  5
164
  8
0
 62
     0
 10
160.109248
 20
104.106391
 30
0.0
 11
161.695929
 21
105.693072
 31
0.0
  0
LINE
  5
165
  8
0
 62
     0
 10
158.893611
 20
103.208952
 30
0.0
 11
159.202478
 21
103.517819
 31
0.0
  0
LINE
  5
166
  8
0
 62
     0
 10
160.199885
 20
104.515226
 30
0.0
 11
161.377731
 21
105.693072
 31
0.0
  0
LINE
  5
167
  8
0
 62
     0
 10
158.575413
 20
103.208952
 30
0.0
 11
159.015392
 21
103.648931
 31
0.0
  0
LINE
  5
168
  8
0
 62
     0
 10
160.290521
 20
104.92406
 30
0.0
 11
161.059533
 21
105.693072
 31
0.0
  0
LINE
  5
169
  8
0
 62
     0
 10
158.257215
 20
103.208952
 30
0.0
 11
158.697194
 21
103.648931
 31
0.0
  0
LINE
  5
16A
  8
0
 62
     0
 10
160.381158
 20
105.332895
 30
0.0
 11
160.741335
 21
105.693072
 31
0.0
  0
LINE
  5
16B
  8
0
 62
     0
 10
157.939017
 20
103.208952
 30
0.0
 11
158.378996
 21
103.648931
 31
0.0
  0
LINE
  5
16C
  8
0
 62
     0
 10
159.036088
 20
104.306023
 30
0.0
 11
159.175165
 21
104.4451
 31
0.0
  0
LINE
  5
16D
  8
0
 62
     0
 10
157.620819
 20
103.208952
 30
0.0
 11
158.060797
 21
103.648931
 31
0.0
  0
LINE
  5
16E
  8
0
 62
     0
 10
158.71789
 20
104.306023
 30
0.0
 11
159.007868
 21
104.596001
 31
0.0
  0
LINE
  5
16F
  8
0
 62
     0
 10
157.302621
 20
103.208952
 30
0.0
 11
157.742599
 21
103.648931
 31
0.0
  0
LINE
  5
170
  8
0
 62
     0
 10
159.346762
 20
105.253094
 30
0.0
 11
159.65566
 21
105.561991
 31
0.0
  0
LINE
  5
171
  8
0
 62
     0
 10
158.399692
 20
104.306023
 30
0.0
 11
158.68967
 21
104.596001
 31
0.0
  0
LINE
  5
172
  8
0
 62
     0
 10
156.984423
 20
103.208952
 30
0.0
 11
157.424401
 21
103.648931
 31
0.0
  0
LINE
  5
173
  8
0
 62
     0
 10
159.028564
 20
105.253094
 30
0.0
 11
159.468543
 21
105.693072
 31
0.0
  0
LINE
  5
174
  8
0
 62
     0
 10
158.081494
 20
104.306023
 30
0.0
 11
158.371472
 21
104.596001
 31
0.0
  0
LINE
  5
175
  8
0
 62
     0
 10
156.666225
 20
103.208952
 30
0.0
 11
157.106203
 21
103.648931
 31
0.0
  0
LINE
  5
176
  8
0
 62
     0
 10
158.710366
 20
105.253094
 30
0.0
 11
159.150345
 21
105.693072
 31
0.0
  0
LINE
  5
177
  8
0
 62
     0
 10
157.763296
 20
104.306023
 30
0.0
 11
158.053274
 21
104.596001
 31
0.0
  0
LINE
  5
178
  8
0
 62
     0
 10
156.348027
 20
103.208952
 30
0.0
 11
156.788005
 21
103.648931
 31
0.0
  0
LINE
  5
179
  8
0
 62
     0
 10
158.392168
 20
105.253094
 30
0.0
 11
158.832147
 21
105.693072
 31
0.0
  0
LINE
  5
17A
  8
0
 62
     0
 10
157.445097
 20
104.306023
 30
0.0
 11
157.735076
 21
104.596001
 31
0.0
  0
LINE
  5
17B
  8
0
 62
     0
 10
156.029829
 20
103.208952
 30
0.0
 11
156.469807
 21
103.648931
 31
0.0
  0
LINE
  5
17C
  8
0
 62
     0
 10
158.07397
 20
105.253094
 30
0.0
 11
158.513948
 21
105.693072
 31
0.0
  0
LINE
  5
17D
  8
0
 62
     0
 10
157.126899
 20
104.306023
 30
0.0
 11
157.416878
 21
104.596001
 31
0.0
  0
LINE
  5
17E
  8
0
 62
     0
 10
155.711631
 20
103.208952
 30
0.0
 11
156.318694
 21
103.816016
 31
0.0
  0
LINE
  5
17F
  8
0
 62
     0
 10
157.755772
 20
105.253094
 30
0.0
 11
158.19575
 21
105.693072
 31
0.0
  0
LINE
  5
180
  8
0
 62
     0
 10
156.808701
 20
104.306023
 30
0.0
 11
157.09868
 21
104.596001
 31
0.0
  0
LINE
  5
181
  8
0
 62
     0
 10
155.393433
 20
103.208952
 30
0.0
 11
156.409331
 21
104.22485
 31
0.0
  0
LINE
  5
182
  8
0
 62
     0
 10
157.437574
 20
105.253094
 30
0.0
 11
157.877552
 21
105.693072
 31
0.0
  0
LINE
  5
183
  8
0
 62
     0
 10
156.490503
 20
104.306023
 30
0.0
 11
156.780482
 21
104.596001
 31
0.0
  0
LINE
  5
184
  8
0
 62
     0
 10
155.075235
 20
103.208952
 30
0.0
 11
156.499967
 21
104.633685
 31
0.0
  0
LINE
  5
185
  8
0
 62
     0
 10
157.119376
 20
105.253094
 30
0.0
 11
157.559354
 21
105.693072
 31
0.0
  0
LINE
  5
186
  8
0
 62
     0
 10
154.757037
 20
103.208952
 30
0.0
 11
156.590603
 21
105.042519
 31
0.0
  0
LINE
  5
187
  8
0
 62
     0
 10
156.801178
 20
105.253094
 30
0.0
 11
157.241156
 21
105.693072
 31
0.0
  0
LINE
  5
188
  8
0
 62
     0
 10
154.486944
 20
103.257057
 30
0.0
 11
156.922958
 21
105.693072
 31
0.0
  0
LINE
  5
189
  8
0
 62
     0
 10
154.57758
 20
103.665892
 30
0.0
 11
156.60476
 21
105.693072
 31
0.0
  0
LINE
  5
18A
  8
0
 62
     0
 10
154.668217
 20
104.074726
 30
0.0
 11
156.286562
 21
105.693072
 31
0.0
  0
LINE
  5
18B
  8
0
 62
     0
 10
153.484244
 20
103.208952
 30
0.0
 11
153.661705
 21
103.386413
 31
0.0
  0
LINE
  5
18C
  8
0
 62
     0
 10
154.758853
 20
104.483561
 30
0.0
 11
155.968364
 21
105.693072
 31
0.0
  0
LINE
  5
18D
  8
0
 62
     0
 10
153.166046
 20
103.208952
 30
0.0
 11
153.752341
 21
103.795247
 31
0.0
  0
LINE
  5
18E
  8
0
 62
     0
 10
154.849489
 20
104.892395
 30
0.0
 11
155.650166
 21
105.693072
 31
0.0
  0
LINE
  5
18F
  8
0
 62
     0
 10
152.847848
 20
103.208952
 30
0.0
 11
153.842978
 21
104.204082
 31
0.0
  0
LINE
  5
190
  8
0
 62
     0
 10
154.940126
 20
105.30123
 30
0.0
 11
155.331968
 21
105.693072
 31
0.0
  0
LINE
  5
191
  8
0
 62
     0
 10
152.52965
 20
103.208952
 30
0.0
 11
153.933614
 21
104.612916
 31
0.0
  0
LINE
  5
192
  8
0
 62
     0
 10
152.211452
 20
103.208952
 30
0.0
 11
154.024251
 21
105.021751
 31
0.0
  0
LINE
  5
193
  8
0
 62
     0
 10
151.893254
 20
103.208952
 30
0.0
 11
154.114887
 21
105.430585
 31
0.0
  0
LINE
  5
194
  8
0
 62
     0
 10
151.625533
 20
103.259429
 30
0.0
 11
154.059176
 21
105.693072
 31
0.0
  0
LINE
  5
195
  8
0
 62
     0
 10
151.458022
 20
103.410117
 30
0.0
 11
153.740978
 21
105.693072
 31
0.0
  0
LINE
  5
196
  8
0
 62
     0
 10
151.290512
 20
103.560804
 30
0.0
 11
153.42278
 21
105.693072
 31
0.0
  0
LINE
  5
197
  8
0
 62
     0
 10
151.123002
 20
103.711492
 30
0.0
 11
152.103081
 21
104.691571
 31
0.0
  0
LINE
  5
198
  8
0
 62
     0
 10
152.283137
 20
104.871627
 30
0.0
 11
153.104582
 21
105.693072
 31
0.0
  0
LINE
  5
199
  8
0
 62
     0
 10
150.955491
 20
103.86218
 30
0.0
 11
151.916307
 21
104.822995
 31
0.0
  0
LINE
  5
19A
  8
0
 62
     0
 10
152.373773
 20
105.280462
 30
0.0
 11
152.786384
 21
105.693072
 31
0.0
  0
LINE
  5
19B
  8
0
 62
     0
 10
150.787981
 20
104.012868
 30
0.0
 11
151.729532
 21
104.954419
 31
0.0
  0
LINE
  5
19C
  8
0
 62
     0
 10
152.46441
 20
105.689296
 30
0.0
 11
152.468186
 21
105.693072
 31
0.0
  0
LINE
  5
19D
  8
0
 62
     0
 10
149.665868
 20
103.208952
 30
0.0
 11
149.862046
 21
103.405131
 31
0.0
  0
LINE
  5
19E
  8
0
 62
     0
 10
150.620471
 20
104.163555
 30
0.0
 11
151.542758
 21
105.085842
 31
0.0
  0
LINE
  5
19F
  8
0
 62
     0
 10
149.34767
 20
103.208952
 30
0.0
 11
149.952683
 21
103.813965
 31
0.0
  0
LINE
  5
1A0
  8
0
 62
     0
 10
150.45296
 20
104.314243
 30
0.0
 11
151.355983
 21
105.217266
 31
0.0
  0
LINE
  5
1A1
  8
0
 62
     0
 10
149.029472
 20
103.208952
 30
0.0
 11
150.043319
 21
104.2228
 31
0.0
  0
LINE
  5
1A2
  8
0
 62
     0
 10
150.28545
 20
104.464931
 30
0.0
 11
151.169209
 21
105.34869
 31
0.0
  0
LINE
  5
1A3
  8
0
 62
     0
 10
148.711274
 20
103.208952
 30
0.0
 11
150.982435
 21
105.480113
 31
0.0
  0
LINE
  5
1A4
  8
0
 62
     0
 10
148.393076
 20
103.208952
 30
0.0
 11
150.79566
 21
105.611537
 31
0.0
  0
LINE
  5
1A5
  8
0
 62
     0
 10
148.120932
 20
103.255007
 30
0.0
 11
150.558997
 21
105.693072
 31
0.0
  0
LINE
  5
1A6
  8
0
 62
     0
 10
148.211569
 20
103.663842
 30
0.0
 11
150.240799
 21
105.693072
 31
0.0
  0
LINE
  5
1A7
  8
0
 62
     0
 10
148.302205
 20
104.072676
 30
0.0
 11
149.922601
 21
105.693072
 31
0.0
  0
LINE
  5
1A8
  8
0
 62
     0
 10
148.392842
 20
104.481511
 30
0.0
 11
149.604403
 21
105.693072
 31
0.0
  0
LINE
  5
1A9
  8
0
 62
     0
 10
148.483478
 20
104.890345
 30
0.0
 11
149.286205
 21
105.693072
 31
0.0
  0
LINE
  5
1AA
  8
0
 62
     0
 10
148.574115
 20
105.29918
 30
0.0
 11
148.968007
 21
105.693072
 31
0.0
  0
LINE
  5
1AB
  8
0
 62
     0
 10
173.820613
 20
104.13524
 30
0.0
 11
174.110591
 21
104.425218
 31
0.0
  0
LINE
  5
1AC
  8
0
 62
     0
 10
174.86666
 20
105.181287
 30
0.0
 11
175.378445
 21
105.693072
 31
0.0
  0
LINE
  5
1AD
  8
0
 62
     0
 10
174.138811
 20
104.13524
 30
0.0
 11
174.429241
 21
104.42567
 31
0.0
  0
LINE
  5
1AE
  8
0
 62
     0
 10
174.946739
 20
104.943167
 30
0.0
 11
175.696643
 21
105.693072
 31
0.0
  0
LINE
  5
1AF
  8
0
 62
     0
 10
174.456256
 20
104.134486
 30
0.0
 11
176.014671
 21
105.692902
 31
0.0
  0
LINE
  5
1B0
  8
0
 62
     0
 10
174.630516
 20
103.990548
 30
0.0
 11
176.298943
 21
105.658976
 31
0.0
  0
LINE
  5
1B1
  8
0
 62
     0
 10
174.613
 20
103.654835
 30
0.0
 11
176.535113
 21
105.576948
 31
0.0
  0
LINE
  5
1B2
  8
0
 62
     0
 10
174.605261
 20
103.328897
 30
0.0
 11
176.725075
 21
105.448711
 31
0.0
  0
LINE
  5
1B3
  8
0
 62
     0
 10
174.803514
 20
103.208952
 30
0.0
 11
176.8509
 21
105.256338
 31
0.0
  0
LINE
  5
1B4
  8
0
 62
     0
 10
175.121712
 20
103.208952
 30
0.0
 11
176.221213
 21
104.308453
 31
0.0
  0
LINE
  5
1B5
  8
0
 62
     0
 10
176.266083
 20
104.353323
 30
0.0
 11
176.834229
 21
104.921469
 31
0.0
  0
LINE
  5
1B6
  8
0
 62
     0
 10
175.43991
 20
103.208952
 30
0.0
 11
176.345758
 21
104.1148
 31
0.0
  0
LINE
  5
1B7
  8
0
 62
     0
 10
177.629233
 20
105.398275
 30
0.0
 11
177.92403
 21
105.693072
 31
0.0
  0
LINE
  5
1B8
  8
0
 62
     0
 10
175.758108
 20
103.208952
 30
0.0
 11
176.329942
 21
103.780786
 31
0.0
  0
LINE
  5
1B9
  8
0
 62
     0
 10
177.538596
 20
104.98944
 30
0.0
 11
178.242228
 21
105.693072
 31
0.0
  0
LINE
  5
1BA
  8
0
 62
     0
 10
176.076306
 20
103.208952
 30
0.0
 11
176.307193
 21
103.439839
 31
0.0
  0
LINE
  5
1BB
  8
0
 62
     0
 10
177.44796
 20
104.580606
 30
0.0
 11
178.560426
 21
105.693072
 31
0.0
  0
LINE
  5
1BC
  8
0
 62
     0
 10
177.357323
 20
104.171772
 30
0.0
 11
178.878624
 21
105.693072
 31
0.0
  0
LINE
  5
1BD
  8
0
 62
     0
 10
177.266687
 20
103.762937
 30
0.0
 11
179.196822
 21
105.693072
 31
0.0
  0
LINE
  5
1BE
  8
0
 62
     0
 10
177.176051
 20
103.354103
 30
0.0
 11
179.370347
 21
105.548399
 31
0.0
  0
LINE
  5
1BF
  8
0
 62
     0
 10
177.349098
 20
103.208952
 30
0.0
 11
179.27971
 21
105.139564
 31
0.0
  0
LINE
  5
1C0
  8
0
 62
     0
 10
177.667296
 20
103.208952
 30
0.0
 11
179.189074
 21
104.73073
 31
0.0
  0
LINE
  5
1C1
  8
0
 62
     0
 10
177.985494
 20
103.208952
 30
0.0
 11
179.098437
 21
104.321895
 31
0.0
  0
LINE
  5
1C2
  8
0
 62
     0
 10
180.395067
 20
105.618525
 30
0.0
 11
180.469614
 21
105.693072
 31
0.0
  0
LINE
  5
1C3
  8
0
 62
     0
 10
178.303692
 20
103.208952
 30
0.0
 11
179.007801
 21
103.913061
 31
0.0
  0
LINE
  5
1C4
  8
0
 62
     0
 10
180.30443
 20
105.20969
 30
0.0
 11
180.787812
 21
105.693072
 31
0.0
  0
LINE
  5
1C5
  8
0
 62
     0
 10
178.62189
 20
103.208952
 30
0.0
 11
178.917164
 21
103.504226
 31
0.0
  0
LINE
  5
1C6
  8
0
 62
     0
 10
180.213794
 20
104.800856
 30
0.0
 11
181.10601
 21
105.693072
 31
0.0
  0
LINE
  5
1C7
  8
0
 62
     0
 10
180.123158
 20
104.392021
 30
0.0
 11
181.424208
 21
105.693072
 31
0.0
  0
LINE
  5
1C8
  8
0
 62
     0
 10
180.032521
 20
103.983187
 30
0.0
 11
181.742406
 21
105.693072
 31
0.0
  0
LINE
  5
1C9
  8
0
 62
     0
 10
179.941885
 20
103.574352
 30
0.0
 11
182.03644
 21
105.668908
 31
0.0
  0
LINE
  5
1CA
  8
0
 62
     0
 10
179.894683
 20
103.208952
 30
0.0
 11
181.945804
 21
105.260073
 31
0.0
  0
LINE
  5
1CB
  8
0
 62
     0
 10
180.212881
 20
103.208952
 30
0.0
 11
181.857718
 21
104.853789
 31
0.0
  0
LINE
  5
1CC
  8
0
 62
     0
 10
180.531079
 20
103.208952
 30
0.0
 11
182.412196
 21
105.09007
 31
0.0
  0
LINE
  5
1CD
  8
0
 62
     0
 10
180.849277
 20
103.208952
 30
0.0
 11
182.966675
 21
105.326351
 31
0.0
  0
LINE
  5
1CE
  8
0
 62
     0
 10
181.167475
 20
103.208952
 30
0.0
 11
181.583258
 21
103.624735
 31
0.0
  0
LINE
  5
1CF
  8
0
 62
     0
 10
181.907125
 20
103.948602
 30
0.0
 11
183.521154
 21
105.562631
 31
0.0
  0
LINE
  5
1D0
  8
0
 62
     0
 10
181.485673
 20
103.208952
 30
0.0
 11
181.492621
 21
103.215901
 31
0.0
  0
LINE
  5
1D1
  8
0
 62
     0
 10
182.38713
 20
104.110409
 30
0.0
 11
183.969793
 21
105.693072
 31
0.0
  0
LINE
  5
1D2
  8
0
 62
     0
 10
182.545159
 20
103.95024
 30
0.0
 11
184.287991
 21
105.693072
 31
0.0
  0
LINE
  5
1D3
  8
0
 62
     0
 10
182.703188
 20
103.790071
 30
0.0
 11
184.606189
 21
105.693072
 31
0.0
  0
LINE
  5
1D4
  8
0
 62
     0
 10
182.861217
 20
103.629902
 30
0.0
 11
184.033479
 21
104.802165
 31
0.0
  0
LINE
  5
1D5
  8
0
 62
     0
 10
184.12504
 20
104.893725
 30
0.0
 11
184.924387
 21
105.693072
 31
0.0
  0
LINE
  5
1D6
  8
0
 62
     0
 10
183.019246
 20
103.469733
 30
0.0
 11
184.191508
 21
104.641995
 31
0.0
  0
LINE
  5
1D7
  8
0
 62
     0
 10
184.679519
 20
105.130006
 30
0.0
 11
185.242585
 21
105.693072
 31
0.0
  0
LINE
  5
1D8
  8
0
 62
     0
 10
183.177275
 20
103.309564
 30
0.0
 11
184.349537
 21
104.481826
 31
0.0
  0
LINE
  5
1D9
  8
0
 62
     0
 10
185.233998
 20
105.366287
 30
0.0
 11
185.560783
 21
105.693072
 31
0.0
  0
LINE
  5
1DA
  8
0
 62
     0
 10
183.394861
 20
103.208952
 30
0.0
 11
184.507566
 21
104.321657
 31
0.0
  0
LINE
  5
1DB
  8
0
 62
     0
 10
185.788476
 20
105.602567
 30
0.0
 11
185.878981
 21
105.693072
 31
0.0
  0
LINE
  5
1DC
  8
0
 62
     0
 10
183.713059
 20
103.208952
 30
0.0
 11
184.665595
 21
104.161488
 31
0.0
  0
LINE
  5
1DD
  8
0
 62
     0
 10
184.031257
 20
103.208952
 30
0.0
 11
184.823624
 21
104.001319
 31
0.0
  0
LINE
  5
1DE
  8
0
 62
     0
 10
184.349455
 20
103.208952
 30
0.0
 11
184.981653
 21
103.84115
 31
0.0
  0
LINE
  5
1DF
  8
0
 62
     0
 10
184.667653
 20
103.208952
 30
0.0
 11
185.139682
 21
103.680981
 31
0.0
  0
LINE
  5
1E0
  8
0
 62
     0
 10
184.985851
 20
103.208952
 30
0.0
 11
185.297711
 21
103.520812
 31
0.0
  0
LINE
  5
1E1
  8
0
 62
     0
 10
185.30405
 20
103.208952
 30
0.0
 11
185.45574
 21
103.360643
 31
0.0
  0
LINE
  5
1E2
  8
0
 62
     0
 10
190.307701
 20
105.66702
 30
0.0
 11
190.334482
 21
105.693801
 31
0.0
  0
LINE
  5
1E3
  8
0
 62
     0
 10
189.353107
 20
104.394227
 30
0.0
 11
190.65268
 21
105.693801
 31
0.0
  0
LINE
  5
1E4
  8
0
 62
     0
 10
188.48603
 20
103.208952
 30
0.0
 11
190.970879
 21
105.693801
 31
0.0
  0
LINE
  5
1E5
  8
0
 62
     0
 10
188.804228
 20
103.208952
 30
0.0
 11
191.289077
 21
105.693801
 31
0.0
  0
LINE
  5
1E6
  8
0
 62
     0
 10
189.122426
 20
103.208952
 30
0.0
 11
191.607275
 21
105.693801
 31
0.0
  0
LINE
  5
1E7
  8
0
 62
     0
 10
189.440624
 20
103.208952
 30
0.0
 11
191.925473
 21
105.693801
 31
0.0
  0
LINE
  5
1E8
  8
0
 62
     0
 10
189.758822
 20
103.208952
 30
0.0
 11
191.284682
 21
104.734812
 31
0.0
  0
LINE
  5
1E9
  8
0
 62
     0
 10
191.828596
 20
105.278726
 30
0.0
 11
192.243671
 21
105.693801
 31
0.0
  0
LINE
  5
1EA
  8
0
 62
     0
 10
190.07702
 20
103.208952
 30
0.0
 11
190.330088
 21
103.46202
 31
0.0
  0
LINE
  5
1EB
  8
0
 62
     0
 10
191.892236
 20
105.024168
 30
0.0
 11
192.561869
 21
105.693801
 31
0.0
  0
LINE
  5
1EC
  8
0
 62
     0
 10
190.557052
 20
103.688984
 30
0.0
 11
190.93024
 21
104.062171
 31
0.0
  0
LINE
  5
1ED
  8
0
 62
     0
 10
190.87525
 20
103.688984
 30
0.0
 11
191.248438
 21
104.062171
 31
0.0
  0
LINE
  5
1EE
  8
0
 62
     0
 10
191.955876
 20
104.76961
 30
0.0
 11
192.880067
 21
105.693801
 31
0.0
  0
LINE
  5
1EF
  8
0
 62
     0
 10
191.193448
 20
103.688984
 30
0.0
 11
191.566636
 21
104.062171
 31
0.0
  0
LINE
  5
1F0
  8
0
 62
     0
 10
192.019515
 20
104.515051
 30
0.0
 11
193.198265
 21
105.693801
 31
0.0
  0
LINE
  5
1F1
  8
0
 62
     0
 10
191.511646
 20
103.688984
 30
0.0
 11
191.884834
 21
104.062171
 31
0.0
  0
LINE
  5
1F2
  8
0
 62
     0
 10
192.083155
 20
104.260493
 30
0.0
 11
193.329286
 21
105.506623
 31
0.0
  0
LINE
  5
1F3
  8
0
 62
     0
 10
191.829844
 20
103.688984
 30
0.0
 11
193.392925
 21
105.252065
 31
0.0
  0
LINE
  5
1F4
  8
0
 62
     0
 10
192.148042
 20
103.688984
 30
0.0
 11
193.456565
 21
104.997506
 31
0.0
  0
LINE
  5
1F5
  8
0
 62
     0
 10
192.274074
 20
103.496817
 30
0.0
 11
193.520204
 21
104.742948
 31
0.0
  0
LINE
  5
1F6
  8
0
 62
     0
 10
192.337713
 20
103.242259
 30
0.0
 11
193.583844
 21
104.48839
 31
0.0
  0
LINE
  5
1F7
  8
0
 62
     0
 10
192.622605
 20
103.208952
 30
0.0
 11
193.647484
 21
104.233831
 31
0.0
  0
LINE
  5
1F8
  8
0
 62
     0
 10
192.940803
 20
103.208952
 30
0.0
 11
193.711123
 21
103.979273
 31
0.0
  0
LINE
  5
1F9
  8
0
 62
     0
 10
194.864033
 20
105.132182
 30
0.0
 11
195.244054
 21
105.512203
 31
0.0
  0
LINE
  5
1FA
  8
0
 62
     0
 10
193.259001
 20
103.208952
 30
0.0
 11
193.774763
 21
103.724714
 31
0.0
  0
LINE
  5
1FB
  8
0
 62
     0
 10
194.795915
 20
104.745866
 30
0.0
 11
195.618586
 21
105.568537
 31
0.0
  0
LINE
  5
1FC
  8
0
 62
     0
 10
193.577199
 20
103.208952
 30
0.0
 11
193.838402
 21
103.470156
 31
0.0
  0
LINE
  5
1FD
  8
0
 62
     0
 10
194.727797
 20
104.35955
 30
0.0
 11
195.981303
 21
105.613056
 31
0.0
  0
LINE
  5
1FE
  8
0
 62
     0
 10
193.895397
 20
103.208952
 30
0.0
 11
193.902042
 21
103.215597
 31
0.0
  0
LINE
  5
1FF
  8
0
 62
     0
 10
194.659679
 20
103.973234
 30
0.0
 11
196.333358
 21
105.646913
 31
0.0
  0
LINE
  5
200
  8
0
 62
     0
 10
194.615277
 20
103.610634
 30
0.0
 11
196.67571
 21
105.671067
 31
0.0
  0
LINE
  5
201
  8
0
 62
     0
 10
194.737894
 20
103.415053
 30
0.0
 11
197.009165
 21
105.686324
 31
0.0
  0
LINE
  5
202
  8
0
 62
     0
 10
194.983951
 20
103.342913
 30
0.0
 11
196.340819
 21
104.69978
 31
0.0
  0
LINE
  5
203
  8
0
 62
     0
 10
196.88271
 20
105.241671
 30
0.0
 11
197.334409
 21
105.69337
 31
0.0
  0
LINE
  5
204
  8
0
 62
     0
 10
195.265203
 20
103.305966
 30
0.0
 11
196.272701
 21
104.313464
 31
0.0
  0
LINE
  5
205
  8
0
 62
     0
 10
197.219219
 20
105.259982
 30
0.0
 11
197.652032
 21
105.692795
 31
0.0
  0
LINE
  5
206
  8
0
 62
     0
 10
195.551822
 20
103.274387
 30
0.0
 11
196.225094
 21
103.947659
 31
0.0
  0
LINE
  5
207
  8
0
 62
     0
 10
197.526321
 20
105.248886
 30
0.0
 11
197.962545
 21
105.68511
 31
0.0
  0
LINE
  5
208
  8
0
 62
     0
 10
195.844088
 20
103.248455
 30
0.0
 11
196.343872
 21
103.748239
 31
0.0
  0
LINE
  5
209
  8
0
 62
     0
 10
197.810421
 20
105.214788
 30
0.0
 11
198.266395
 21
105.670762
 31
0.0
  0
LINE
  5
20A
  8
0
 62
     0
 10
196.142312
 20
103.228481
 30
0.0
 11
196.588304
 21
103.674473
 31
0.0
  0
LINE
  5
20B
  8
0
 62
     0
 10
198.025995
 20
105.112164
 30
0.0
 11
198.563973
 21
105.650142
 31
0.0
  0
LINE
  5
20C
  8
0
 62
     0
 10
196.446847
 20
103.214818
 30
0.0
 11
196.883622
 21
103.651593
 31
0.0
  0
LINE
  5
20D
  8
0
 62
     0
 10
198.196022
 20
104.963993
 30
0.0
 11
198.855628
 21
105.623599
 31
0.0
  0
LINE
  5
20E
  8
0
 62
     0
 10
197.353782
 20
104.121752
 30
0.0
 11
197.533406
 21
104.301376
 31
0.0
  0
LINE
  5
20F
  8
0
 62
     0
 10
196.75809
 20
103.207862
 30
0.0
 11
197.204833
 21
103.654605
 31
0.0
  0
LINE
  5
210
  8
0
 62
     0
 10
198.51422
 20
104.963993
 30
0.0
 11
199.141667
 21
105.59144
 31
0.0
  0
LINE
  5
211
  8
0
 62
     0
 10
197.628876
 20
104.078649
 30
0.0
 11
197.851604
 21
104.301376
 31
0.0
  0
LINE
  5
212
  8
0
 62
     0
 10
197.076493
 20
103.208068
 30
0.0
 11
197.560393
 21
103.691967
 31
0.0
  0
LINE
  5
213
  8
0
 62
     0
 10
198.832418
 20
104.963993
 30
0.0
 11
199.422367
 21
105.553941
 31
0.0
  0
LINE
  5
214
  8
0
 62
     0
 10
197.947074
 20
104.078649
 30
0.0
 11
198.169802
 21
104.301376
 31
0.0
  0
LINE
  5
215
  8
0
 62
     0
 10
197.402575
 20
103.215952
 30
0.0
 11
198.488
 21
104.301376
 31
0.0
  0
LINE
  5
216
  8
0
 62
     0
 10
199.150616
 20
104.963993
 30
0.0
 11
199.638742
 21
105.452118
 31
0.0
  0
LINE
  5
217
  8
0
 62
     0
 10
197.736936
 20
103.232115
 30
0.0
 11
198.806198
 21
104.301376
 31
0.0
  0
LINE
  5
218
  8
0
 62
     0
 10
199.468814
 20
104.963993
 30
0.0
 11
199.719549
 21
105.214728
 31
0.0
  0
LINE
  5
219
  8
0
 62
     0
 10
198.031972
 20
103.208952
 30
0.0
 11
199.124396
 21
104.301376
 31
0.0
  0
LINE
  5
21A
  8
0
 62
     0
 10
198.35017
 20
103.208952
 30
0.0
 11
199.442594
 21
104.301376
 31
0.0
  0
LINE
  5
21B
  8
0
 62
     0
 10
198.668368
 20
103.208952
 30
0.0
 11
199.516647
 21
104.057232
 31
0.0
  0
LINE
  5
21C
  8
0
 62
     0
 10
198.986566
 20
103.208952
 30
0.0
 11
199.448529
 21
103.670916
 31
0.0
  0
LINE
  5
21D
  8
0
 62
     0
 10
199.304764
 20
103.208952
 30
0.0
 11
199.380411
 21
103.2846
 31
0.0
  0
LINE
  5
21E
  8
0
 62
     0
 10
174.896145
 20
103.208952
 30
0.0
 11
174.602537
 21
103.50256
 31
0.0
  0
LINE
  5
21F
  8
0
 62
     0
 10
173.177644
 20
104.927453
 30
0.0
 11
172.412025
 21
105.693072
 31
0.0
  0
LINE
  5
220
  8
0
 62
     0
 10
173.969857
 20
104.13524
 30
0.0
 11
173.679879
 21
104.425218
 31
0.0
  0
LINE
  5
221
  8
0
 62
     0
 10
173.651659
 20
104.13524
 30
0.0
 11
173.361681
 21
104.425218
 31
0.0
  0
LINE
  5
222
  8
0
 62
     0
 10
173.119903
 20
104.666996
 30
0.0
 11
172.093827
 21
105.693072
 31
0.0
  0
LINE
  5
223
  8
0
 62
     0
 10
173.333461
 20
104.13524
 30
0.0
 11
171.775629
 21
105.693072
 31
0.0
  0
LINE
  5
224
  8
0
 62
     0
 10
173.015263
 20
104.13524
 30
0.0
 11
171.606498
 21
105.544005
 31
0.0
  0
LINE
  5
225
  8
0
 62
     0
 10
172.946677
 20
103.885628
 30
0.0
 11
171.548757
 21
105.283548
 31
0.0
  0
LINE
  5
226
  8
0
 62
     0
 10
172.888936
 20
103.625171
 30
0.0
 11
171.491015
 21
105.023092
 31
0.0
  0
LINE
  5
227
  8
0
 62
     0
 10
171.046222
 20
105.467885
 30
0.0
 11
170.821035
 21
105.693072
 31
0.0
  0
LINE
  5
228
  8
0
 62
     0
 10
172.831194
 20
103.364715
 30
0.0
 11
171.433273
 21
104.762636
 31
0.0
  0
LINE
  5
229
  8
0
 62
     0
 10
170.98848
 20
105.207429
 30
0.0
 11
170.502837
 21
105.693072
 31
0.0
  0
LINE
  5
22A
  8
0
 62
     0
 10
172.668758
 20
103.208952
 30
0.0
 11
171.375531
 21
104.502179
 31
0.0
  0
LINE
  5
22B
  8
0
 62
     0
 10
170.805669
 20
105.072042
 30
0.0
 11
170.184639
 21
105.693072
 31
0.0
  0
LINE
  5
22C
  8
0
 62
     0
 10
172.35056
 20
103.208952
 30
0.0
 11
171.317789
 21
104.241723
 31
0.0
  0
LINE
  5
22D
  8
0
 62
     0
 10
170.487471
 20
105.072042
 30
0.0
 11
169.866441
 21
105.693072
 31
0.0
  0
LINE
  5
22E
  8
0
 62
     0
 10
172.032362
 20
103.208952
 30
0.0
 11
171.260048
 21
103.981267
 31
0.0
  0
LINE
  5
22F
  8
0
 62
     0
 10
170.169273
 20
105.072042
 30
0.0
 11
169.548243
 21
105.693072
 31
0.0
  0
LINE
  5
230
  8
0
 62
     0
 10
171.714164
 20
103.208952
 30
0.0
 11
171.202306
 21
103.720811
 31
0.0
  0
LINE
  5
231
  8
0
 62
     0
 10
169.851075
 20
105.072042
 30
0.0
 11
169.230045
 21
105.693072
 31
0.0
  0
LINE
  5
232
  8
0
 62
     0
 10
171.395966
 20
103.208952
 30
0.0
 11
171.144564
 21
103.460354
 31
0.0
  0
LINE
  5
233
  8
0
 62
     0
 10
169.532876
 20
105.072042
 30
0.0
 11
168.911847
 21
105.693072
 31
0.0
  0
LINE
  5
234
  8
0
 62
     0
 10
169.307651
 20
104.97907
 30
0.0
 11
168.593648
 21
105.693072
 31
0.0
  0
LINE
  5
235
  8
0
 62
     0
 10
169.249909
 20
104.718614
 30
0.0
 11
168.27545
 21
105.693072
 31
0.0
  0
LINE
  5
236
  8
0
 62
     0
 10
169.192167
 20
104.458157
 30
0.0
 11
167.957252
 21
105.693072
 31
0.0
  0
LINE
  5
237
  8
0
 62
     0
 10
169.134425
 20
104.197701
 30
0.0
 11
167.639054
 21
105.693072
 31
0.0
  0
LINE
  5
238
  8
0
 62
     0
 10
169.076683
 20
103.937245
 30
0.0
 11
167.320856
 21
105.693072
 31
0.0
  0
LINE
  5
239
  8
0
 62
     0
 10
169.018942
 20
103.676788
 30
0.0
 11
167.002658
 21
105.693072
 31
0.0
  0
LINE
  5
23A
  8
0
 62
     0
 10
168.9612
 20
103.416332
 30
0.0
 11
167.563279
 21
104.814253
 31
0.0
  0
LINE
  5
23B
  8
0
 62
     0
 10
167.30549
 20
105.072042
 30
0.0
 11
166.68446
 21
105.693072
 31
0.0
  0
LINE
  5
23C
  8
0
 62
     0
 10
168.850382
 20
103.208952
 30
0.0
 11
167.505537
 21
104.553797
 31
0.0
  0
LINE
  5
23D
  8
0
 62
     0
 10
166.987292
 20
105.072042
 30
0.0
 11
166.366262
 21
105.693072
 31
0.0
  0
LINE
  5
23E
  8
0
 62
     0
 10
168.532184
 20
103.208952
 30
0.0
 11
167.447796
 21
104.29334
 31
0.0
  0
LINE
  5
23F
  8
0
 62
     0
 10
166.669094
 20
105.072042
 30
0.0
 11
166.176959
 21
105.564177
 31
0.0
  0
LINE
  5
240
  8
0
 62
     0
 10
168.213986
 20
103.208952
 30
0.0
 11
167.390054
 21
104.032884
 31
0.0
  0
LINE
  5
241
  8
0
 62
     0
 10
165.749267
 20
105.673671
 30
0.0
 11
165.729866
 21
105.693072
 31
0.0
  0
LINE
  5
242
  8
0
 62
     0
 10
166.350896
 20
105.072042
 30
0.0
 11
166.119217
 21
105.303721
 31
0.0
  0
LINE
  5
243
  8
0
 62
     0
 10
167.895788
 20
103.208952
 30
0.0
 11
167.332312
 21
103.772428
 31
0.0
  0
LINE
  5
244
  8
0
 62
     0
 10
165.691525
 20
105.413214
 30
0.0
 11
165.411668
 21
105.693072
 31
0.0
  0
LINE
  5
245
  8
0
 62
     0
 10
167.57759
 20
103.208952
 30
0.0
 11
167.27457
 21
103.511971
 31
0.0
  0
LINE
  5
246
  8
0
 62
     0
 10
165.633784
 20
105.152758
 30
0.0
 11
165.09347
 21
105.693072
 31
0.0
  0
LINE
  5
247
  8
0
 62
     0
 10
167.259392
 20
103.208952
 30
0.0
 11
167.216829
 21
103.251515
 31
0.0
  0
LINE
  5
248
  8
0
 62
     0
 10
165.576042
 20
104.892302
 30
0.0
 11
164.775272
 21
105.693072
 31
0.0
  0
LINE
  5
249
  8
0
 62
     0
 10
165.5183
 20
104.631846
 30
0.0
 11
164.457074
 21
105.693072
 31
0.0
  0
LINE
  5
24A
  8
0
 62
     0
 10
165.460558
 20
104.371389
 30
0.0
 11
164.138876
 21
105.693072
 31
0.0
  0
LINE
  5
24B
  8
0
 62
     0
 10
165.402817
 20
104.110933
 30
0.0
 11
164.008428
 21
105.505322
 31
0.0
  0
LINE
  5
24C
  8
0
 62
     0
 10
165.345075
 20
103.850477
 30
0.0
 11
163.950686
 21
105.244865
 31
0.0
  0
LINE
  5
24D
  8
0
 62
     0
 10
165.213808
 20
103.663545
 30
0.0
 11
163.892945
 21
104.984409
 31
0.0
  0
LINE
  5
24E
  8
0
 62
     0
 10
165.017448
 20
103.541707
 30
0.0
 11
163.835203
 21
104.723953
 31
0.0
  0
LINE
  5
24F
  8
0
 62
     0
 10
164.802652
 20
103.438305
 30
0.0
 11
163.777461
 21
104.463496
 31
0.0
  0
LINE
  5
250
  8
0
 62
     0
 10
164.567173
 20
103.355586
 30
0.0
 11
163.719719
 21
104.20304
 31
0.0
  0
LINE
  5
251
  8
0
 62
     0
 10
164.315183
 20
103.289379
 30
0.0
 11
163.618712
 21
103.98585
 31
0.0
  0
LINE
  5
252
  8
0
 62
     0
 10
162.118619
 20
105.485943
 30
0.0
 11
161.911489
 21
105.693072
 31
0.0
  0
LINE
  5
253
  8
0
 62
     0
 10
164.051144
 20
103.235219
 30
0.0
 11
163.422176
 21
103.864188
 31
0.0
  0
LINE
  5
254
  8
0
 62
     0
 10
162.060877
 20
105.225486
 30
0.0
 11
161.593291
 21
105.693072
 31
0.0
  0
LINE
  5
255
  8
0
 62
     0
 10
163.77367
 20
103.194495
 30
0.0
 11
163.177404
 21
103.790761
 31
0.0
  0
LINE
  5
256
  8
0
 62
     0
 10
162.003135
 20
104.96503
 30
0.0
 11
161.275093
 21
105.693072
 31
0.0
  0
LINE
  5
257
  8
0
 62
     0
 10
163.485182
 20
103.164785
 30
0.0
 11
162.893835
 21
103.756132
 31
0.0
  0
LINE
  5
258
  8
0
 62
     0
 10
161.945393
 20
104.704574
 30
0.0
 11
160.956895
 21
105.693072
 31
0.0
  0
LINE
  5
259
  8
0
 62
     0
 10
163.187779
 20
103.14399
 30
0.0
 11
162.571275
 21
103.760495
 31
0.0
  0
LINE
  5
25A
  8
0
 62
     0
 10
161.887652
 20
104.444117
 30
0.0
 11
160.638697
 21
105.693072
 31
0.0
  0
LINE
  5
25B
  8
0
 62
     0
 10
162.88065
 20
103.132921
 30
0.0
 11
162.17665
 21
103.836921
 31
0.0
  0
LINE
  5
25C
  8
0
 62
     0
 10
161.82991
 20
104.183661
 30
0.0
 11
160.43551
 21
105.578061
 31
0.0
  0
LINE
  5
25D
  8
0
 62
     0
 10
162.562817
 20
103.132556
 30
0.0
 11
160.377768
 21
105.317605
 31
0.0
  0
LINE
  5
25E
  8
0
 62
     0
 10
162.233074
 20
103.144101
 30
0.0
 11
160.320026
 21
105.057149
 31
0.0
  0
LINE
  5
25F
  8
0
 62
     0
 10
159.684608
 20
105.692567
 30
0.0
 11
159.684103
 21
105.693072
 31
0.0
  0
LINE
  5
260
  8
0
 62
     0
 10
161.889919
 20
103.169058
 30
0.0
 11
160.262284
 21
104.796692
 31
0.0
  0
LINE
  5
261
  8
0
 62
     0
 10
159.626866
 20
105.432111
 30
0.0
 11
159.365905
 21
105.693072
 31
0.0
  0
LINE
  5
262
  8
0
 62
     0
 10
161.530904
 20
103.209875
 30
0.0
 11
160.204543
 21
104.536236
 31
0.0
  0
LINE
  5
263
  8
0
 62
     0
 10
159.487685
 20
105.253094
 30
0.0
 11
159.047707
 21
105.693072
 31
0.0
  0
LINE
  5
264
  8
0
 62
     0
 10
161.140832
 20
103.281749
 30
0.0
 11
160.146801
 21
104.27578
 31
0.0
  0
LINE
  5
265
  8
0
 62
     0
 10
159.169487
 20
105.253094
 30
0.0
 11
158.729509
 21
105.693072
 31
0.0
  0
LINE
  5
266
  8
0
 62
     0
 10
160.695959
 20
103.408424
 30
0.0
 11
160.089059
 21
104.015324
 31
0.0
  0
LINE
  5
267
  8
0
 62
     0
 10
158.851289
 20
105.253094
 30
0.0
 11
158.411311
 21
105.693072
 31
0.0
  0
LINE
  5
268
  8
0
 62
     0
 10
159.205273
 20
104.580911
 30
0.0
 11
159.190183
 21
104.596001
 31
0.0
  0
LINE
  5
269
  8
0
 62
     0
 10
158.533091
 20
105.253094
 30
0.0
 11
158.093113
 21
105.693072
 31
0.0
  0
LINE
  5
26A
  8
0
 62
     0
 10
159.147532
 20
104.320455
 30
0.0
 11
158.871985
 21
104.596001
 31
0.0
  0
LINE
  5
26B
  8
0
 62
     0
 10
158.214893
 20
105.253094
 30
0.0
 11
157.774915
 21
105.693072
 31
0.0
  0
LINE
  5
26C
  8
0
 62
     0
 10
158.843766
 20
104.306023
 30
0.0
 11
158.553787
 21
104.596001
 31
0.0
  0
LINE
  5
26D
  8
0
 62
     0
 10
157.896695
 20
105.253094
 30
0.0
 11
157.456717
 21
105.693072
 31
0.0
  0
LINE
  5
26E
  8
0
 62
     0
 10
159.222674
 20
103.608917
 30
0.0
 11
159.18266
 21
103.648931
 31
0.0
  0
LINE
  5
26F
  8
0
 62
     0
 10
157.578497
 20
105.253094
 30
0.0
 11
157.138519
 21
105.693072
 31
0.0
  0
LINE
  5
270
  8
0
 62
     0
 10
158.525568
 20
104.306023
 30
0.0
 11
158.235589
 21
104.596001
 31
0.0
  0
LINE
  5
271
  8
0
 62
     0
 10
159.164932
 20
103.348461
 30
0.0
 11
158.864462
 21
103.648931
 31
0.0
  0
LINE
  5
272
  8
0
 62
     0
 10
157.260299
 20
105.253094
 30
0.0
 11
156.820321
 21
105.693072
 31
0.0
  0
LINE
  5
273
  8
0
 62
     0
 10
158.20737
 20
104.306023
 30
0.0
 11
157.917391
 21
104.596001
 31
0.0
  0
LINE
  5
274
  8
0
 62
     0
 10
158.986242
 20
103.208952
 30
0.0
 11
158.546264
 21
103.648931
 31
0.0
  0
LINE
  5
275
  8
0
 62
     0
 10
156.942101
 20
105.253094
 30
0.0
 11
156.502123
 21
105.693072
 31
0.0
  0
LINE
  5
276
  8
0
 62
     0
 10
157.889172
 20
104.306023
 30
0.0
 11
157.599193
 21
104.596001
 31
0.0
  0
LINE
  5
277
  8
0
 62
     0
 10
158.668044
 20
103.208952
 30
0.0
 11
158.228066
 21
103.648931
 31
0.0
  0
LINE
  5
278
  8
0
 62
     0
 10
156.634858
 20
105.242138
 30
0.0
 11
156.183924
 21
105.693072
 31
0.0
  0
LINE
  5
279
  8
0
 62
     0
 10
157.570974
 20
104.306023
 30
0.0
 11
157.280995
 21
104.596001
 31
0.0
  0
LINE
  5
27A
  8
0
 62
     0
 10
158.349846
 20
103.208952
 30
0.0
 11
157.909868
 21
103.648931
 31
0.0
  0
LINE
  5
27B
  8
0
 62
     0
 10
156.577116
 20
104.981682
 30
0.0
 11
155.865726
 21
105.693072
 31
0.0
  0
LINE
  5
27C
  8
0
 62
     0
 10
157.252775
 20
104.306023
 30
0.0
 11
156.962797
 21
104.596001
 31
0.0
  0
LINE
  5
27D
  8
0
 62
     0
 10
158.031648
 20
103.208952
 30
0.0
 11
157.59167
 21
103.648931
 31
0.0
  0
LINE
  5
27E
  8
0
 62
     0
 10
156.519374
 20
104.721226
 30
0.0
 11
155.547528
 21
105.693072
 31
0.0
  0
LINE
  5
27F
  8
0
 62
     0
 10
156.934577
 20
104.306023
 30
0.0
 11
156.644599
 21
104.596001
 31
0.0
  0
LINE
  5
280
  8
0
 62
     0
 10
157.71345
 20
103.208952
 30
0.0
 11
157.273472
 21
103.648931
 31
0.0
  0
LINE
  5
281
  8
0
 62
     0
 10
156.616379
 20
104.306023
 30
0.0
 11
155.22933
 21
105.693072
 31
0.0
  0
LINE
  5
282
  8
0
 62
     0
 10
157.395252
 20
103.208952
 30
0.0
 11
156.955274
 21
103.648931
 31
0.0
  0
LINE
  5
283
  8
0
 62
     0
 10
156.403891
 20
104.200313
 30
0.0
 11
155.00597
 21
105.598234
 31
0.0
  0
LINE
  5
284
  8
0
 62
     0
 10
157.077054
 20
103.208952
 30
0.0
 11
156.637075
 21
103.648931
 31
0.0
  0
LINE
  5
285
  8
0
 62
     0
 10
156.346149
 20
103.939857
 30
0.0
 11
154.948228
 21
105.337778
 31
0.0
  0
LINE
  5
286
  8
0
 62
     0
 10
156.758856
 20
103.208952
 30
0.0
 11
156.318877
 21
103.648931
 31
0.0
  0
LINE
  5
287
  8
0
 62
     0
 10
156.288407
 20
103.679401
 30
0.0
 11
154.890487
 21
105.077322
 31
0.0
  0
LINE
  5
288
  8
0
 62
     0
 10
156.440658
 20
103.208952
 30
0.0
 11
154.832745
 21
104.816865
 31
0.0
  0
LINE
  5
289
  8
0
 62
     0
 10
154.133784
 20
105.515826
 30
0.0
 11
153.956538
 21
105.693072
 31
0.0
  0
LINE
  5
28A
  8
0
 62
     0
 10
156.12246
 20
103.208952
 30
0.0
 11
154.775003
 21
104.556409
 31
0.0
  0
LINE
  5
28B
  8
0
 62
     0
 10
154.076043
 20
105.255369
 30
0.0
 11
153.63834
 21
105.693072
 31
0.0
  0
LINE
  5
28C
  8
0
 62
     0
 10
155.804262
 20
103.208952
 30
0.0
 11
154.717261
 21
104.295953
 31
0.0
  0
LINE
  5
28D
  8
0
 62
     0
 10
154.018301
 20
104.994913
 30
0.0
 11
153.320142
 21
105.693072
 31
0.0
  0
LINE
  5
28E
  8
0
 62
     0
 10
155.486064
 20
103.208952
 30
0.0
 11
154.65952
 21
104.035496
 31
0.0
  0
LINE
  5
28F
  8
0
 62
     0
 10
153.960559
 20
104.734457
 30
0.0
 11
153.001944
 21
105.693072
 31
0.0
  0
LINE
  5
290
  8
0
 62
     0
 10
155.167866
 20
103.208952
 30
0.0
 11
154.601778
 21
103.77504
 31
0.0
  0
LINE
  5
291
  8
0
 62
     0
 10
153.902817
 20
104.474
 30
0.0
 11
152.683746
 21
105.693072
 31
0.0
  0
LINE
  5
292
  8
0
 62
     0
 10
154.849668
 20
103.208952
 30
0.0
 11
154.544036
 21
103.514584
 31
0.0
  0
LINE
  5
293
  8
0
 62
     0
 10
153.845076
 20
104.213544
 30
0.0
 11
152.447155
 21
105.611465
 31
0.0
  0
LINE
  5
294
  8
0
 62
     0
 10
154.53147
 20
103.208952
 30
0.0
 11
154.486294
 21
103.254128
 31
0.0
  0
LINE
  5
295
  8
0
 62
     0
 10
153.787334
 20
103.953088
 30
0.0
 11
152.389413
 21
105.351009
 31
0.0
  0
LINE
  5
296
  8
0
 62
     0
 10
153.729592
 20
103.692632
 30
0.0
 11
152.331671
 21
105.090552
 31
0.0
  0
LINE
  5
297
  8
0
 62
     0
 10
153.67185
 20
103.432175
 30
0.0
 11
152.27393
 21
104.830096
 31
0.0
  0
LINE
  5
298
  8
0
 62
     0
 10
153.576875
 20
103.208952
 30
0.0
 11
152.073304
 21
104.712524
 31
0.0
  0
LINE
  5
299
  8
0
 62
     0
 10
153.258677
 20
103.208952
 30
0.0
 11
150.999582
 21
105.468047
 31
0.0
  0
LINE
  5
29A
  8
0
 62
     0
 10
152.940479
 20
103.208952
 30
0.0
 11
150.45636
 21
105.693072
 31
0.0
  0
LINE
  5
29B
  8
0
 62
     0
 10
152.622281
 20
103.208952
 30
0.0
 11
150.138161
 21
105.693072
 31
0.0
  0
LINE
  5
29C
  8
0
 62
     0
 10
152.304083
 20
103.208952
 30
0.0
 11
149.819963
 21
105.693072
 31
0.0
  0
LINE
  5
29D
  8
0
 62
     0
 10
151.985885
 20
103.208952
 30
0.0
 11
149.501765
 21
105.693072
 31
0.0
  0
LINE
  5
29E
  8
0
 62
     0
 10
151.542665
 20
103.333975
 30
0.0
 11
149.183567
 21
105.693072
 31
0.0
  0
LINE
  5
29F
  8
0
 62
     0
 10
150.096365
 20
104.462076
 30
0.0
 11
148.865369
 21
105.693072
 31
0.0
  0
LINE
  5
2A0
  8
0
 62
     0
 10
150.038624
 20
104.20162
 30
0.0
 11
148.640703
 21
105.59954
 31
0.0
  0
LINE
  5
2A1
  8
0
 62
     0
 10
149.980882
 20
103.941163
 30
0.0
 11
148.582961
 21
105.339084
 31
0.0
  0
LINE
  5
2A2
  8
0
 62
     0
 10
149.92314
 20
103.680707
 30
0.0
 11
148.525219
 21
105.078628
 31
0.0
  0
LINE
  5
2A3
  8
0
 62
     0
 10
149.865398
 20
103.420251
 30
0.0
 11
148.467478
 21
104.818171
 31
0.0
  0
LINE
  5
2A4
  8
0
 62
     0
 10
149.758499
 20
103.208952
 30
0.0
 11
148.409736
 21
104.557715
 31
0.0
  0
LINE
  5
2A5
  8
0
 62
     0
 10
149.440301
 20
103.208952
 30
0.0
 11
148.351994
 21
104.297259
 31
0.0
  0
LINE
  5
2A6
  8
0
 62
     0
 10
149.122103
 20
103.208952
 30
0.0
 11
148.294252
 21
104.036803
 31
0.0
  0
LINE
  5
2A7
  8
0
 62
     0
 10
148.803905
 20
103.208952
 30
0.0
 11
148.236511
 21
103.776346
 31
0.0
  0
LINE
  5
2A8
  8
0
 62
     0
 10
148.485707
 20
103.208952
 30
0.0
 11
148.178769
 21
103.51589
 31
0.0
  0
LINE
  5
2A9
  8
0
 62
     0
 10
148.167508
 20
103.208952
 30
0.0
 11
148.121027
 21
103.255434
 31
0.0
  0
LINE
  5
2AA
  8
0
 62
     0
 10
175.214343
 20
103.208952
 30
0.0
 11
174.622995
 21
103.8003
 31
0.0
  0
LINE
  5
2AB
  8
0
 62
     0
 10
173.235386
 20
105.187909
 30
0.0
 11
172.730223
 21
105.693072
 31
0.0
  0
LINE
  5
2AC
  8
0
 62
     0
 10
174.288055
 20
104.13524
 30
0.0
 11
173.998077
 21
104.425218
 31
0.0
  0
LINE
  5
2AD
  8
0
 62
     0
 10
175.532541
 20
103.208952
 30
0.0
 11
174.316275
 21
104.425218
 31
0.0
  0
LINE
  5
2AE
  8
0
 62
     0
 10
173.4884
 20
105.253094
 30
0.0
 11
173.048421
 21
105.693072
 31
0.0
  0
LINE
  5
2AF
  8
0
 62
     0
 10
175.850739
 20
103.208952
 30
0.0
 11
174.586541
 21
104.47315
 31
0.0
  0
LINE
  5
2B0
  8
0
 62
     0
 10
173.806598
 20
105.253094
 30
0.0
 11
173.366619
 21
105.693072
 31
0.0
  0
LINE
  5
2B1
  8
0
 62
     0
 10
176.168937
 20
103.208952
 30
0.0
 11
174.789565
 21
104.588325
 31
0.0
  0
LINE
  5
2B2
  8
0
 62
     0
 10
174.124796
 20
105.253094
 30
0.0
 11
173.684817
 21
105.693072
 31
0.0
  0
LINE
  5
2B3
  8
0
 62
     0
 10
176.311422
 20
103.384665
 30
0.0
 11
174.927684
 21
104.768404
 31
0.0
  0
LINE
  5
2B4
  8
0
 62
     0
 10
174.442994
 20
105.253094
 30
0.0
 11
174.003015
 21
105.693072
 31
0.0
  0
LINE
  5
2B5
  8
0
 62
     0
 10
176.323639
 20
103.690647
 30
0.0
 11
174.914671
 21
105.099614
 31
0.0
  0
LINE
  5
2B6
  8
0
 62
     0
 10
174.791615
 20
105.22267
 30
0.0
 11
174.321213
 21
105.693072
 31
0.0
  0
LINE
  5
2B7
  8
0
 62
     0
 10
176.344435
 20
103.988048
 30
0.0
 11
174.639411
 21
105.693072
 31
0.0
  0
LINE
  5
2B8
  8
0
 62
     0
 10
177.441729
 20
103.208952
 30
0.0
 11
177.197922
 21
103.452759
 31
0.0
  0
LINE
  5
2B9
  8
0
 62
     0
 10
176.286615
 20
104.364066
 30
0.0
 11
174.95761
 21
105.693072
 31
0.0
  0
LINE
  5
2BA
  8
0
 62
     0
 10
177.759927
 20
103.208952
 30
0.0
 11
177.255664
 21
103.713216
 31
0.0
  0
LINE
  5
2BB
  8
0
 62
     0
 10
176.4817
 20
104.487179
 30
0.0
 11
175.275808
 21
105.693072
 31
0.0
  0
LINE
  5
2BC
  8
0
 62
     0
 10
178.078125
 20
103.208952
 30
0.0
 11
177.313406
 21
103.973672
 31
0.0
  0
LINE
  5
2BD
  8
0
 62
     0
 10
176.650286
 20
104.636791
 30
0.0
 11
175.594006
 21
105.693072
 31
0.0
  0
LINE
  5
2BE
  8
0
 62
     0
 10
178.396323
 20
103.208952
 30
0.0
 11
177.371148
 21
104.234128
 31
0.0
  0
LINE
  5
2BF
  8
0
 62
     0
 10
176.785346
 20
104.81993
 30
0.0
 11
175.912204
 21
105.693072
 31
0.0
  0
LINE
  5
2C0
  8
0
 62
     0
 10
178.714521
 20
103.208952
 30
0.0
 11
177.428889
 21
104.494584
 31
0.0
  0
LINE
  5
2C1
  8
0
 62
     0
 10
176.870902
 20
105.052571
 30
0.0
 11
176.255428
 21
105.668046
 31
0.0
  0
LINE
  5
2C2
  8
0
 62
     0
 10
178.884552
 20
103.35712
 30
0.0
 11
177.486631
 21
104.755041
 31
0.0
  0
LINE
  5
2C3
  8
0
 62
     0
 10
178.942294
 20
103.617576
 30
0.0
 11
177.544373
 21
105.015497
 31
0.0
  0
LINE
  5
2C4
  8
0
 62
     0
 10
179.000035
 20
103.878033
 30
0.0
 11
177.602115
 21
105.275953
 31
0.0
  0
LINE
  5
2C5
  8
0
 62
     0
 10
179.987314
 20
103.208952
 30
0.0
 11
179.883821
 21
103.312445
 31
0.0
  0
LINE
  5
2C6
  8
0
 62
     0
 10
179.057777
 20
104.138489
 30
0.0
 11
177.659856
 21
105.53641
 31
0.0
  0
LINE
  5
2C7
  8
0
 62
     0
 10
180.305512
 20
103.208952
 30
0.0
 11
179.941563
 21
103.572901
 31
0.0
  0
LINE
  5
2C8
  8
0
 62
     0
 10
179.115519
 20
104.398945
 30
0.0
 11
177.821392
 21
105.693072
 31
0.0
  0
LINE
  5
2C9
  8
0
 62
     0
 10
180.62371
 20
103.208952
 30
0.0
 11
179.999305
 21
103.833357
 31
0.0
  0
LINE
  5
2CA
  8
0
 62
     0
 10
179.173261
 20
104.659401
 30
0.0
 11
178.13959
 21
105.693072
 31
0.0
  0
LINE
  5
2CB
  8
0
 62
     0
 10
180.941908
 20
103.208952
 30
0.0
 11
180.057046
 21
104.093814
 31
0.0
  0
LINE
  5
2CC
  8
0
 62
     0
 10
179.231002
 20
104.919858
 30
0.0
 11
178.457788
 21
105.693072
 31
0.0
  0
LINE
  5
2CD
  8
0
 62
     0
 10
181.260106
 20
103.208952
 30
0.0
 11
180.114788
 21
104.35427
 31
0.0
  0
LINE
  5
2CE
  8
0
 62
     0
 10
179.288744
 20
105.180314
 30
0.0
 11
178.775986
 21
105.693072
 31
0.0
  0
LINE
  5
2CF
  8
0
 62
     0
 10
181.506909
 20
103.280347
 30
0.0
 11
180.17253
 21
104.614726
 31
0.0
  0
LINE
  5
2D0
  8
0
 62
     0
 10
179.346486
 20
105.44077
 30
0.0
 11
179.094184
 21
105.693072
 31
0.0
  0
LINE
  5
2D1
  8
0
 62
     0
 10
181.564651
 20
103.540804
 30
0.0
 11
180.230272
 21
104.875182
 31
0.0
  0
LINE
  5
2D2
  8
0
 62
     0
 10
181.622392
 20
103.80126
 30
0.0
 11
180.288014
 21
105.135639
 31
0.0
  0
LINE
  5
2D3
  8
0
 62
     0
 10
181.827275
 20
103.914576
 30
0.0
 11
180.345755
 21
105.396095
 31
0.0
  0
LINE
  5
2D4
  8
0
 62
     0
 10
182.050395
 20
104.009654
 30
0.0
 11
180.403497
 21
105.656551
 31
0.0
  0
LINE
  5
2D5
  8
0
 62
     0
 10
182.273514
 20
104.104732
 30
0.0
 11
180.685174
 21
105.693072
 31
0.0
  0
LINE
  5
2D6
  8
0
 62
     0
 10
183.487492
 20
103.208952
 30
0.0
 11
181.003372
 21
105.693072
 31
0.0
  0
LINE
  5
2D7
  8
0
 62
     0
 10
183.80569
 20
103.208952
 30
0.0
 11
182.070276
 21
104.944367
 31
0.0
  0
LINE
  5
2D8
  8
0
 62
     0
 10
181.911101
 20
105.103541
 30
0.0
 11
181.321571
 21
105.693072
 31
0.0
  0
LINE
  5
2D9
  8
0
 62
     0
 10
184.123888
 20
103.208952
 30
0.0
 11
182.293395
 21
105.039445
 31
0.0
  0
LINE
  5
2DA
  8
0
 62
     0
 10
181.968843
 20
105.363998
 30
0.0
 11
181.639769
 21
105.693072
 31
0.0
  0
LINE
  5
2DB
  8
0
 62
     0
 10
184.442086
 20
103.208952
 30
0.0
 11
182.516515
 21
105.134523
 31
0.0
  0
LINE
  5
2DC
  8
0
 62
     0
 10
182.026585
 20
105.624454
 30
0.0
 11
181.957967
 21
105.693072
 31
0.0
  0
LINE
  5
2DD
  8
0
 62
     0
 10
184.760284
 20
103.208952
 30
0.0
 11
182.739635
 21
105.229602
 31
0.0
  0
LINE
  5
2DE
  8
0
 62
     0
 10
185.078482
 20
103.208952
 30
0.0
 11
182.962755
 21
105.32468
 31
0.0
  0
LINE
  5
2DF
  8
0
 62
     0
 10
185.396681
 20
103.208952
 30
0.0
 11
183.185874
 21
105.419758
 31
0.0
  0
LINE
  5
2E0
  8
0
 62
     0
 10
184.058472
 20
104.865359
 30
0.0
 11
183.408994
 21
105.514837
 31
0.0
  0
LINE
  5
2E1
  8
0
 62
     0
 10
184.281592
 20
104.960437
 30
0.0
 11
183.632114
 21
105.609915
 31
0.0
  0
LINE
  5
2E2
  8
0
 62
     0
 10
184.504712
 20
105.055515
 30
0.0
 11
183.867155
 21
105.693072
 31
0.0
  0
LINE
  5
2E3
  8
0
 62
     0
 10
184.727831
 20
105.150593
 30
0.0
 11
184.185353
 21
105.693072
 31
0.0
  0
LINE
  5
2E4
  8
0
 62
     0
 10
184.950951
 20
105.245672
 30
0.0
 11
184.503551
 21
105.693072
 31
0.0
  0
LINE
  5
2E5
  8
0
 62
     0
 10
185.174071
 20
105.34075
 30
0.0
 11
184.821749
 21
105.693072
 31
0.0
  0
LINE
  5
2E6
  8
0
 62
     0
 10
185.397191
 20
105.435828
 30
0.0
 11
185.139947
 21
105.693072
 31
0.0
  0
LINE
  5
2E7
  8
0
 62
     0
 10
185.62031
 20
105.530907
 30
0.0
 11
185.458145
 21
105.693072
 31
0.0
  0
LINE
  5
2E8
  8
0
 62
     0
 10
185.84343
 20
105.625985
 30
0.0
 11
185.776343
 21
105.693072
 31
0.0
  0
LINE
  5
2E9
  8
0
 62
     0
 10
188.578661
 20
103.208952
 30
0.0
 11
188.513227
 21
103.274387
 31
0.0
  0
LINE
  5
2EA
  8
0
 62
     0
 10
188.896859
 20
103.208952
 30
0.0
 11
188.649597
 21
103.456214
 31
0.0
  0
LINE
  5
2EB
  8
0
 62
     0
 10
189.215057
 20
103.208952
 30
0.0
 11
188.785968
 21
103.638042
 31
0.0
  0
LINE
  5
2EC
  8
0
 62
     0
 10
189.533255
 20
103.208952
 30
0.0
 11
188.922338
 21
103.819869
 31
0.0
  0
LINE
  5
2ED
  8
0
 62
     0
 10
189.851453
 20
103.208952
 30
0.0
 11
189.058709
 21
104.001696
 31
0.0
  0
LINE
  5
2EE
  8
0
 62
     0
 10
190.152872
 20
103.225732
 30
0.0
 11
189.19508
 21
104.183524
 31
0.0
  0
LINE
  5
2EF
  8
0
 62
     0
 10
190.289242
 20
103.407559
 30
0.0
 11
189.33145
 21
104.365351
 31
0.0
  0
LINE
  5
2F0
  8
0
 62
     0
 10
190.425613
 20
103.589387
 30
0.0
 11
189.467821
 21
104.547179
 31
0.0
  0
LINE
  5
2F1
  8
0
 62
     0
 10
190.644214
 20
103.688984
 30
0.0
 11
189.604191
 21
104.729006
 31
0.0
  0
LINE
  5
2F2
  8
0
 62
     0
 10
190.962412
 20
103.688984
 30
0.0
 11
189.740562
 21
104.910834
 31
0.0
  0
LINE
  5
2F3
  8
0
 62
     0
 10
191.28061
 20
103.688984
 30
0.0
 11
190.907422
 21
104.062171
 31
0.0
  0
LINE
  5
2F4
  8
0
 62
     0
 10
190.834725
 20
104.134869
 30
0.0
 11
189.876933
 21
105.092661
 31
0.0
  0
LINE
  5
2F5
  8
0
 62
     0
 10
191.598808
 20
103.688984
 30
0.0
 11
191.22562
 21
104.062171
 31
0.0
  0
LINE
  5
2F6
  8
0
 62
     0
 10
190.971095
 20
104.316696
 30
0.0
 11
190.013303
 21
105.274489
 31
0.0
  0
LINE
  5
2F7
  8
0
 62
     0
 10
192.397038
 20
103.208952
 30
0.0
 11
192.329041
 21
103.276949
 31
0.0
  0
LINE
  5
2F8
  8
0
 62
     0
 10
191.107466
 20
104.498524
 30
0.0
 11
190.149674
 21
105.456316
 31
0.0
  0
LINE
  5
2F9
  8
0
 62
     0
 10
191.917006
 20
103.688984
 30
0.0
 11
191.543818
 21
104.062171
 31
0.0
  0
LINE
  5
2FA
  8
0
 62
     0
 10
192.715236
 20
103.208952
 30
0.0
 11
191.862016
 21
104.062171
 31
0.0
  0
LINE
  5
2FB
  8
0
 62
     0
 10
191.243837
 20
104.680351
 30
0.0
 11
190.286044
 21
105.638144
 31
0.0
  0
LINE
  5
2FC
  8
0
 62
     0
 10
193.033434
 20
103.208952
 30
0.0
 11
192.116909
 21
104.125477
 31
0.0
  0
LINE
  5
2FD
  8
0
 62
     0
 10
191.380207
 20
104.862179
 30
0.0
 11
190.548585
 21
105.693801
 31
0.0
  0
LINE
  5
2FE
  8
0
 62
     0
 10
193.351632
 20
103.208952
 30
0.0
 11
192.010843
 21
104.549741
 31
0.0
  0
LINE
  5
2FF
  8
0
 62
     0
 10
191.516578
 20
105.044006
 30
0.0
 11
190.866783
 21
105.693801
 31
0.0
  0
LINE
  5
300
  8
0
 62
     0
 10
193.66983
 20
103.208952
 30
0.0
 11
191.904777
 21
104.974005
 31
0.0
  0
LINE
  5
301
  8
0
 62
     0
 10
191.652948
 20
105.225834
 30
0.0
 11
191.184981
 21
105.693801
 31
0.0
  0
LINE
  5
302
  8
0
 62
     0
 10
193.875595
 20
103.321385
 30
0.0
 11
191.798711
 21
105.398269
 31
0.0
  0
LINE
  5
303
  8
0
 62
     0
 10
191.789319
 20
105.407661
 30
0.0
 11
191.503179
 21
105.693801
 31
0.0
  0
LINE
  5
304
  8
0
 62
     0
 10
193.769529
 20
103.745649
 30
0.0
 11
191.821377
 21
105.693801
 31
0.0
  0
LINE
  5
305
  8
0
 62
     0
 10
193.663463
 20
104.169913
 30
0.0
 11
192.139576
 21
105.693801
 31
0.0
  0
LINE
  5
306
  8
0
 62
     0
 10
194.732492
 20
103.419082
 30
0.0
 11
194.673972
 21
103.477602
 31
0.0
  0
LINE
  5
307
  8
0
 62
     0
 10
193.557397
 20
104.594177
 30
0.0
 11
192.457774
 21
105.693801
 31
0.0
  0
LINE
  5
308
  8
0
 62
     0
 10
195.149298
 20
103.320474
 30
0.0
 11
194.635225
 21
103.834548
 31
0.0
  0
LINE
  5
309
  8
0
 62
     0
 10
193.451331
 20
105.018441
 30
0.0
 11
192.775972
 21
105.693801
 31
0.0
  0
LINE
  5
30A
  8
0
 62
     0
 10
195.509282
 20
103.278689
 30
0.0
 11
194.682922
 21
104.105049
 31
0.0
  0
LINE
  5
30B
  8
0
 62
     0
 10
193.345265
 20
105.442705
 30
0.0
 11
193.09417
 21
105.693801
 31
0.0
  0
LINE
  5
30C
  8
0
 62
     0
 10
195.858857
 20
103.247312
 30
0.0
 11
194.730618
 21
104.37555
 31
0.0
  0
LINE
  5
30D
  8
0
 62
     0
 10
196.19894
 20
103.225426
 30
0.0
 11
194.778315
 21
104.646052
 31
0.0
  0
LINE
  5
30E
  8
0
 62
     0
 10
196.530306
 20
103.212258
 30
0.0
 11
194.826012
 21
104.916553
 31
0.0
  0
LINE
  5
30F
  8
0
 62
     0
 10
196.853616
 20
103.207147
 30
0.0
 11
194.873708
 21
105.187054
 31
0.0
  0
LINE
  5
310
  8
0
 62
     0
 10
197.169437
 20
103.209523
 30
0.0
 11
196.717543
 21
103.661418
 31
0.0
  0
LINE
  5
311
  8
0
 62
     0
 10
196.241642
 20
104.137319
 30
0.0
 11
194.970499
 21
105.408462
 31
0.0
  0
LINE
  5
312
  8
0
 62
     0
 10
197.478265
 20
103.218894
 30
0.0
 11
197.047649
 21
103.64951
 31
0.0
  0
LINE
  5
313
  8
0
 62
     0
 10
196.289339
 20
104.40782
 30
0.0
 11
195.193391
 21
105.503767
 31
0.0
  0
LINE
  5
314
  8
0
 62
     0
 10
197.78053
 20
103.234826
 30
0.0
 11
197.349867
 21
103.66549
 31
0.0
  0
LINE
  5
315
  8
0
 62
     0
 10
196.337035
 20
104.678321
 30
0.0
 11
195.468172
 21
105.547185
 31
0.0
  0
LINE
  5
316
  8
0
 62
     0
 10
198.124603
 20
103.208952
 30
0.0
 11
197.630009
 21
103.703546
 31
0.0
  0
LINE
  5
317
  8
0
 62
     0
 10
196.384732
 20
104.948823
 30
0.0
 11
195.748005
 21
105.58555
 31
0.0
  0
LINE
  5
318
  8
0
 62
     0
 10
198.442801
 20
103.208952
 30
0.0
 11
197.855526
 21
103.796227
 31
0.0
  0
LINE
  5
319
  8
0
 62
     0
 10
196.502999
 20
105.148753
 30
0.0
 11
196.033135
 21
105.618617
 31
0.0
  0
LINE
  5
31A
  8
0
 62
     0
 10
197.573104
 20
104.078649
 30
0.0
 11
197.380196
 21
104.271557
 31
0.0
  0
LINE
  5
31B
  8
0
 62
     0
 10
198.760999
 20
103.208952
 30
0.0
 11
197.955988
 21
104.013963
 31
0.0
  0
LINE
  5
31C
  8
0
 62
     0
 10
196.745041
 20
105.22491
 30
0.0
 11
196.323833
 21
105.646118
 31
0.0
  0
LINE
  5
31D
  8
0
 62
     0
 10
197.891302
 20
104.078649
 30
0.0
 11
197.668574
 21
104.301376
 31
0.0
  0
LINE
  5
31E
  8
0
 62
     0
 10
199.079197
 20
103.208952
 30
0.0
 11
197.986772
 21
104.301376
 31
0.0
  0
LINE
  5
31F
  8
0
 62
     0
 10
197.034275
 20
105.253874
 30
0.0
 11
196.620401
 21
105.667748
 31
0.0
  0
LINE
  5
320
  8
0
 62
     0
 10
199.371618
 20
103.234729
 30
0.0
 11
198.304971
 21
104.301376
 31
0.0
  0
LINE
  5
321
  8
0
 62
     0
 10
197.347781
 20
105.258566
 30
0.0
 11
196.923178
 21
105.683169
 31
0.0
  0
LINE
  5
322
  8
0
 62
     0
 10
199.419315
 20
103.50523
 30
0.0
 11
198.623169
 21
104.301376
 31
0.0
  0
LINE
  5
323
  8
0
 62
     0
 10
197.692832
 20
105.231713
 30
0.0
 11
197.232551
 21
105.691994
 31
0.0
  0
LINE
  5
324
  8
0
 62
     0
 10
199.467011
 20
103.775732
 30
0.0
 11
198.941367
 21
104.301376
 31
0.0
  0
LINE
  5
325
  8
0
 62
     0
 10
198.27875
 20
104.963993
 30
0.0
 11
197.548954
 21
105.693789
 31
0.0
  0
LINE
  5
326
  8
0
 62
     0
 10
199.514708
 20
104.046233
 30
0.0
 11
199.259565
 21
104.301376
 31
0.0
  0
LINE
  5
327
  8
0
 62
     0
 10
198.596948
 20
104.963993
 30
0.0
 11
197.872889
 21
105.688052
 31
0.0
  0
LINE
  5
328
  8
0
 62
     0
 10
198.915146
 20
104.963993
 30
0.0
 11
198.204929
 21
105.67421
 31
0.0
  0
LINE
  5
329
  8
0
 62
     0
 10
199.233344
 20
104.963993
 30
0.0
 11
198.545745
 21
105.651593
 31
0.0
  0
LINE
  5
32A
  8
0
 62
     0
 10
199.551542
 20
104.963993
 30
0.0
 11
198.896119
 21
105.619416
 31
0.0
  0
LINE
  5
32B
  8
0
 62
     0
 10
199.705495
 20
105.128239
 30
0.0
 11
199.256984
 21
105.57675
 31
0.0
  0
ENDBLK
  5
32D
  8
0
  0
ENDSEC
  0
SECTION
  2
ENTITIES
  0
INSERT
  5
20
  8
05
 66
     1
  2
ZKOPF
 10
410.0
 20
10.0
 30
0.0
  0
ATTRIB
  5
21
  8
0
 62
     4
 10
396.678571
 20
47.0
 30
0.0
 40
2.5
  1
Dobler
  7
SCRIPTS
 72
     1
 11
401.5
 21
47.0
 31
0.0
  2
NAME
 70
     0
  0
ATTRIB
  5
23
  8
0
 62
     4
 10
380.6875
 20
47.0
 30
0.0
 40
2.5
  1
11.03.94
 41
0.7
 51
15.0
 72
     1
 11
385.5
 21
47.0
 31
0.0
  2
DATE
 70
     0
  0
ATTRIB
  5
24
  8
0
 62
     4
 10
329.5
 20
46.0
 30
0.0
 40
2.5
  1

 41
0.7
 51
15.0
 72
     1
 11
329.5
 21
46.0
 31
0.0
  2
WERKSTOFF
 70
     0
  0
ATTRIB
  5
25
  8
0
 62
     2
 10
305.75
 20
22.5
 30
0.0
 40
5.0
  1
NJ6FD-V
 41
0.7
 51
15.0
 72
     1
 11
318.0
 21
22.5
 31
0.0
  2
BENENNUNG
 70
     0
  0
ATTRIB
  5
26
  8
0
 62
     3
 10
320.959543
 20
31.082191
 30
0.0
 40
3.5
  1

 41
0.7
 51
15.0
 72
     1
 11
320.959543
 21
31.082191
 31
0.0
  2
TEIL
 70
     0
  0
ATTRIB
  5
27
  8
0
 62
     3
 10
375.566448
 20
11.976541
 30
0.0
 40
3.5
  1
3102 St 07 11
 41
0.7
 51
15.0
 72
     1
 11
389.449781
 21
11.976541
 31
0.0
  2
NUMMER
 70
     0
  0
ATTRIB
  5
28
  8
0
 62
     2
 10
346.517328
 20
44.656056
 30
0.0
 40
5.0
  1
3:1
 41
0.7
 51
15.0
 72
     1
 11
349.433995
 21
44.656056
 31
0.0
  2
MASS
 70
     0
  0
ATTRIB
  5
29
  8
0
 62
     3
 10
347.477632
 20
38.210451
 30
0.0
 40
3.5
  1
5:1
 41
0.7
 51
15.0
 72
     1
 11
349.519299
 21
38.210451
 31
0.0
  2
MASS2
 70
     0
  0
ATTRIB
  5
2A
  8
0
 62
     4
 10
329.0
 20
39.0
 30
0.0
 40
2.5
  1

 41
0.7
 51
15.0
 72
     1
 11
329.0
 21
39.0
 31
0.0
  2
TEIL
 70
     0
  0
ATTRIB
  5
2B
  8
0
 62
     3
 10
302.288548
 20
69.004319
 30
0.0
 40
3.5
  1

 41
0.7
 51
15.0
  2
TOL
 70
     0
  0
ATTRIB
  5
2C
  8
0
 62
     3
 10
302.288548
 20
64.004319
 30
0.0
 40
3.5
  1

 41
0.7
 51
15.0
  2
RADIEN
 70
     0
  0
ATTRIB
  5
2D
  8
0
 62
     3
 10
302.288548
 20
59.004319
 30
0.0
 40
3.5
  1

 41
0.7
 51
15.0
  2
FACETTE
 70
     0
  0
ATTRIB
  5
2E
  8
0
 62
     4
 10
212.813733
 20
17.0
 30
0.0
 40
2.5
  1
A
 41
0.7
 51
15.0
  2
INDEX1
 70
     0
  0
ATTRIB
  5
2F
  8
0
 62
     4
 10
219.651257
 20
17.0
 30
0.0
 40
2.5
  1
Version 95
 41
0.7
 51
15.0
  2
A1
 70
     0
  0
ATTRIB
  5
30
  8
0
 62
     4
 10
252.651257
 20
17.0
 30
0.0
 40
2.5
  1
03.05.95
 41
0.7
 51
15.0
  2
DATUM1
 70
     0
  0
ATTRIB
  5
31
  8
0
 62
     4
 10
265.53501
 20
17.0
 30
0.0
 40
2.5
  1
Dobler
 41
0.7
 51
15.0
  2
NAME1
 70
     0
  0
ATTRIB
  5
32
  8
0
 62
     4
 10
212.813733
 20
22.0
 30
0.0
 40
2.5
  1

 41
0.7
 51
15.0
  2
INDEX2
 70
     0
  0
ATTRIB
  5
33
  8
0
 62
     4
 10
219.651257
 20
22.0
 30
0.0
 40
2.5
  1

 41
0.7
 51
15.0
  2
A2
 70
     0
  0
ATTRIB
  5
34
  8
0
 62
     4
 10
252.651257
 20
22.0
 30
0.0
 40
2.5
  1

 41
0.7
 51
15.0
  2
DATUM2
 70
     0
  0
ATTRIB
  5
35
  8
0
 62
     4
 10
265.53501
 20
22.0
 30
0.0
 40
2.5
  1

 41
0.7
 51
15.0
  2
NAME2
 70
     0
  0
ATTRIB
  5
36
  8
0
 62
     4
 10
212.813733
 20
27.0
 30
0.0
 40
2.5
  1

 41
0.7
 51
15.0
  2
INDEX3
 70
     0
  0
ATTRIB
  5
37
  8
0
 62
     4
 10
219.651257
 20
27.0
 30
0.0
 40
2.5
  1

 41
0.7
 51
15.0
  2
A3
 70
     0
  0
ATTRIB
  5
38
  8
0
 62
     4
 10
252.651257
 20
27.0
 30
0.0
 40
2.5
  1

 41
0.7
 51
15.0
  2
DATUM3
 70
     0
  0
ATTRIB
  5
39
  8
0
 62
     4
 10
265.53501
 20
27.0
 30
0.0
 40
2.5
  1

 41
0.7
 51
15.0
  2
NAME3
 70
     0
  0
ATTRIB
  5
3A
  8
0
 62
     4
 10
212.813733
 20
32.0
 30
0.0
 40
2.5
  1

 41
0.7
 51
15.0
  2
INDEX4
 70
     0
  0
ATTRIB
  5
3B
  8
0
 62
     4
 10
219.651257
 20
32.0
 30
0.0
 40
2.5
  1

 41
0.7
 51
15.0
  2
A4
 70
     0
  0
ATTRIB
  5
3C
  8
0
 62
     4
 10
252.651257
 20
32.0
 30
0.0
 40
2.5
  1

 41
0.7
 51
15.0
  2
DATUM4
 70
     0
  0
ATTRIB
  5
3D
  8
0
 62
     4
 10
265.53501
 20
32.0
 30
0.0
 40
2.5
  1

 41
0.7
 51
15.0
  2
NAME4
 70
     0
  0
ATTRIB
  5
3E
  8
0
 62
     4
 10
212.813733
 20
37.0
 30
0.0
 40
2.5
  1

 41
0.7
 51
15.0
  2
INDEX5
 70
     0
  0
ATTRIB
  5
3F
  8
0
 62
     4
 10
219.651257
 20
37.0
 30
0.0
 40
2.5
  1

 41
0.7
 51
15.0
  2
A5
 70
     0
  0
ATTRIB
  5
40
  8
0
 62
     4
 10
252.651257
 20
37.0
 30
0.0
 40
2.5
  1

 41
0.7
 51
15.0
  2
DATUM5
 70
     0
  0
ATTRIB
  5
41
  8
0
 62
     4
 10
265.53501
 20
37.0
 30
0.0
 40
2.5
  1

 41
0.7
 51
15.0
  2
NAME5
 70
     0
  0
ATTRIB
  5
42
  8
0
 62
     4
 10
212.813733
 20
42.0
 30
0.0
 40
2.5
  1

 41
0.7
 51
15.0
  2
INDEX6
 70
     0
  0
ATTRIB
  5
43
  8
0
 62
     4
 10
219.651257
 20
42.0
 30
0.0
 40
2.5
  1

 41
0.7
 51
15.0
  2
A6
 70
     0
  0
ATTRIB
  5
44
  8
0
 62
     4
 10
252.651257
 20
42.0
 30
0.0
 40
2.5
  1

 41
0.7
 51
15.0
  2
DATUM6
 70
     0
  0
ATTRIB
  5
45
  8
0
 62
     4
 10
265.53501
 20
42.0
 30
0.0
 40
2.5
  1

 41
0.7
 51
15.0
  2
NAME6
 70
     0
  0
ATTRIB
  5
46
  8
0
 62
     4
 10
212.813733
 20
47.0
 30
0.0
 40
2.5
  1

 41
0.7
 51
15.0
  2
INDEX7
 70
     0
  0
ATTRIB
  5
47
  8
0
 62
     4
 10
219.651257
 20
47.0
 30
0.0
 40
2.5
  1

 41
0.7
 51
15.0
  2
A7
 70
     0
  0
ATTRIB
  5
48
  8
0
 62
     4
 10
252.651257
 20
47.0
 30
0.0
 40
2.5
  1

 41
0.7
 51
15.0
  2
DATUM7
 70
     0
  0
ATTRIB
  5
49
  8
0
 62
     4
 10
265.53501
 20
47.0
 30
0.0
 40
2.5
  1

 41
0.7
 51
15.0
  2
NAME7
 70
     0
  0
ATTRIB
  5
4A
  8
0
 62
     4
 10
212.813733
 20
52.0
 30
0.0
 40
2.5
  1

 41
0.7
 51
15.0
  2
INDEX8
 70
     0
  0
ATTRIB
  5
4B
  8
0
 62
     4
 10
219.651257
 20
52.0
 30
0.0
 40
2.5
  1

 41
0.7
 51
15.0
  2
A8
 70
     0
  0
ATTRIB
  5
4C
  8
0
 62
     4
 10
252.651257
 20
52.0
 30
0.0
 40
2.5
  1

 41
0.7
 51
15.0
  2
DATUM8
 70
     0
  0
ATTRIB
  5
4D
  8
0
 62
     4
 10
265.53501
 20
52.0
 30
0.0
 40
2.5
  1

 41
0.7
 51
15.0
  2
NAME8
 70
     0
  0
SEQEND
  5
330
  8
05
  0
POLYLINE
  5
331
  8
RAHMEN
 66
     1
 10
0.0
 20
0.0
 30
0.0
 70
     1
  0
VERTEX
  5
6FF
  8
RAHMEN
 10
10.0
 20
10.0
 30
0.0
  0
VERTEX
  5
700
  8
RAHMEN
 10
410.0
 20
10.0
 30
0.0
  0
VERTEX
  5
701
  8
RAHMEN
 10
410.0
 20
287.0
 30
0.0
  0
VERTEX
  5
702
  8
RAHMEN
 10
10.0
 20
287.0
 30
0.0
  0
SEQEND
  5
703
  8
RAHMEN
  0
LINE
  5
333
  8
BEM1
 10
157.260179
 20
185.015277
 30
0.0
 11
281.136726
 21
185.015277
 31
0.0
  0
LINE
  5
335
  8
05
 10
209.039246
 20
205.64507
 30
0.0
 11
212.639126
 21
205.64507
 31
0.0
  0
LINE
  5
336
  8
05
 10
209.039246
 20
241.64387
 30
0.0
 11
212.639126
 21
241.64387
 31
0.0
  0
LINE
  5
337
  8
MITTE
 10
182.314263
 20
223.64447
 30
0.0
 11
298.048797
 21
223.64447
 31
0.0
  0
LINE
  5
338
  8
MITTE
 10
182.779319
 20
124.970092
 30
0.0
 11
298.513853
 21
124.970092
 31
0.0
  0
LINE
  5
339
  8
05
 10
209.504302
 20
142.669492
 30
0.0
 11
213.104182
 21
142.669492
 31
0.0
  0
LINE
  5
33A
  8
05
 10
209.504302
 20
107.270692
 30
0.0
 11
213.104182
 21
107.270692
 31
0.0
  0
TEXT
  5
33B
  8
BEM1
 62
     3
 10
80.948366
 20
148.152511
 30
0.0
 40
3.5
  1
10.16 [0.400in]
 50
0.0
 41
0.7
 51
15.0
  0
LINE
  5
33C
  8
MITTE
 10
66.964527
 20
59.848467
 30
0.0
 11
79.561151
 21
59.848467
 31
0.0
  0
TEXT
  5
33D
  8
035
 10
74.946357
 20
97.15958
 30
0.0
 40
5.248593
  1
RN
 50
0.0
  7
HELV
  0
LINE
  5
33E
  8
BEM1
 10
42.955995
 20
32.389325
 30
0.0
 11
100.559774
 21
32.389325
 31
0.0
  0
LINE
  5
33F
  8
BEM1
 10
68.303913
 20
53.181965
 30
0.0
 11
113.582884
 21
53.181965
 31
0.0
  0
TEXT
  5
340
  8
BEM1
 62
     3
 10
64.491164
 20
139.256555
 30
0.0
 40
3.5
  1
4.45 [0.175in]
 50
0.0
 41
0.7
 51
15.0
  0
LINE
  5
341
  8
BEM1
 10
73.603998
 20
137.387591
 30
0.0
 11
89.585964
 21
137.387591
 31
0.0
  0
LINE
  5
342
  8
BEM1
 10
70.271141
 20
146.315503
 30
0.0
 11
116.248819
 21
146.315503
 31
0.0
  0
TEXT
  5
343
  8
035
 10
44.351616
 20
16.960265
 30
0.0
 40
3.5
  1
Layout tolerance: %%p0.05mm [0.002"]
 41
0.7
 51
15.0
  0
LINE
  5
344
  8
MITTE
 10
73.262839
 20
66.146779
 30
0.0
 11
73.262839
 21
53.550155
 31
0.0
  0
SOLID
  5
345
  8
BEM1
 10
66.695205
 20
53.773759
 30
0.0
 11
67.590135
 21
52.937744
 31
0.0
 12
69.650716
 22
56.040541
 32
0.0
 13
69.650716
 23
56.040541
 33
0.0
  0
LINE
  5
346
  8
BEM1
 10
69.650716
 20
56.040541
 30
0.0
 11
57.179047
 21
42.631393
 31
0.0
  0
CIRCLE
  5
347
  8
05
 10
73.262839
 20
59.848467
 30
0.0
 40
5.248593
  0
LINE
  5
348
  8
BEM1
 10
36.013107
 20
53.181965
 30
0.0
 11
36.013107
 21
76.171592
 31
0.0
  0
SOLID
  5
349
  8
BEM1
 10
36.625443
 20
56.85598
 30
0.0
 11
35.400771
 21
56.85598
 31
0.0
 12
36.013107
 22
53.181965
 32
0.0
 13
36.013107
 23
53.181965
 33
0.0
  0
TEXT
  5
34A
  8
BEM1
 62
     3
 10
33.62386
 20
54.85763
 30
0.0
 40
3.5
  1
5.08 [0.2in]
 50
90.0
 41
0.7
 51
15.0
  0
TEXT
  5
34B
  8
BEM1
 62
     3
 10
43.075329
 20
34.029017
 30
0.0
 40
3.5
  1
3.81 [0.150in]
 50
0.0
 41
0.7
 51
15.0
  0
TEXT
  5
34C
  8
BEM1
 62
     3
 10
25.604379
 20
44.359002
 30
0.0
 40
3.5
  1
%%c2.10 [0.083in]
 50
0.0
 41
0.7
 51
15.0
  0
LINE
  5
34D
  8
BEM1
 10
57.179047
 20
42.631393
 30
0.0
 11
25.569171
 21
42.631393
 31
0.0
  0
LINE
  5
34E
  8
BEM1
 10
35.65347
 20
53.181965
 30
0.0
 11
66.282109
 21
53.181965
 31
0.0
  0
SOLID
  5
34F
  8
BEM1
 10
69.588824
 20
31.776989
 30
0.0
 11
69.588824
 21
33.00166
 31
0.0
 12
73.262839
 22
32.389325
 32
0.0
 13
73.262839
 23
32.389325
 33
0.0
  0
LINE
  5
350
  8
BEM1
 10
73.262839
 20
30.359287
 30
0.0
 11
73.262839
 21
51.140053
 31
0.0
  0
LINE
  5
351
  8
MITTE
 10
69.929982
 20
108.424198
 30
0.0
 11
69.929982
 21
97.927012
 31
0.0
  0
LINE
  5
352
  8
BEM1
 10
63.521736
 20
87.074023
 30
0.0
 11
53.00345
 21
117.978384
 31
0.0
  0
CIRCLE
  5
353
  8
05
 10
69.929982
 20
103.175605
 30
0.0
 40
3.149156
  0
TEXT
  5
354
  8
BEM1
 62
     3
 10
33.62386
 20
81.668353
 30
0.0
 40
3.5
  1
4.45 [0.175in]
 50
90.0
 41
0.7
 51
15.0
  0
SOLID
  5
355
  8
BEM1
 10
36.625443
 20
99.50159
 30
0.0
 11
35.400771
 21
99.50159
 31
0.0
 12
36.013107
 22
103.175605
 32
0.0
 13
36.013107
 23
103.175605
 33
0.0
  0
LINE
  5
356
  8
BEM1
 10
66.597126
 20
88.558272
 30
0.0
 11
66.597126
 21
138.137513
 31
0.0
  0
LINE
  5
357
  8
BEM1
 10
65.160723
 20
59.848467
 30
0.0
 11
45.50619
 21
59.848467
 31
0.0
  0
LINE
  5
358
  8
BEM1
 10
61.558476
 20
79.845607
 30
0.0
 11
45.50619
 21
79.845607
 31
0.0
  0
TEXT
  5
359
  8
BEM1
 62
     3
 10
44.106092
 20
56.313649
 30
0.0
 40
3.5
  1
3.81 [0.150in]
 50
90.0
 41
0.7
 51
15.0
  0
SOLID
  5
35A
  8
BEM1
 10
36.625443
 20
76.171592
 30
0.0
 11
35.400771
 21
76.171592
 31
0.0
 12
36.013107
 22
79.845607
 32
0.0
 13
36.013107
 23
79.845607
 33
0.0
  0
LINE
  5
35B
  8
BEM1
 10
36.013107
 20
83.519623
 30
0.0
 11
36.013107
 21
99.50159
 31
0.0
  0
LINE
  5
35C
  8
BEM1
 10
40.025135
 20
79.845607
 30
0.0
 11
35.187836
 21
79.845607
 31
0.0
  0
SOLID
  5
35D
  8
BEM1
 10
36.625443
 20
83.519623
 30
0.0
 11
35.400771
 21
83.519623
 31
0.0
 12
36.013107
 22
79.845607
 32
0.0
 13
36.013107
 23
79.845607
 33
0.0
  0
LINE
  5
35E
  8
MITTE
 10
66.597126
 20
85.094201
 30
0.0
 11
66.597126
 21
74.597014
 31
0.0
  0
SOLID
  5
35F
  8
BEM1
 10
47.209852
 20
76.171592
 30
0.0
 11
45.98518
 21
76.171592
 31
0.0
 12
46.597516
 22
79.845607
 32
0.0
 13
46.597516
 23
79.845607
 33
0.0
  0
CIRCLE
  5
360
  8
05
 10
66.597126
 20
79.845607
 30
0.0
 40
4.198875
  0
LINE
  5
361
  8
BEM1
 10
46.597516
 20
76.171592
 30
0.0
 11
46.597516
 21
63.522482
 31
0.0
  0
SOLID
  5
362
  8
BEM1
 10
47.209852
 20
63.522482
 30
0.0
 11
45.98518
 21
63.522482
 31
0.0
 12
46.597516
 22
59.848467
 32
0.0
 13
46.597516
 23
59.848467
 33
0.0
  0
LINE
  5
363
  8
MITTE
 10
61.348532
 20
79.845607
 30
0.0
 11
71.845719
 21
79.845607
 31
0.0
  0
LINE
  5
364
  8
BEM1
 10
58.509328
 20
79.845607
 30
0.0
 11
45.929888
 21
79.845607
 31
0.0
  0
SOLID
  5
365
  8
BEM1
 10
62.942654
 20
86.87498
 30
0.0
 11
64.100819
 21
87.273066
 31
0.0
 12
64.715996
 22
83.599526
 32
0.0
 13
64.715996
 23
83.599526
 33
0.0
  0
TEXT
  5
366
  8
035
 10
71.315645
 20
82.059477
 30
0.0
 40
5.248593
  1
R
 50
0.0
  7
HELV
  0
TEXT
  5
367
  8
BEM1
 62
     3
 10
24.367654
 20
119.639251
 30
0.0
 40
3.5
  1
%%c1.60 [0.063in]
 50
0.0
 41
0.7
 51
15.0
  0
LINE
  5
368
  8
BEM1
 10
53.00345
 20
117.978384
 30
0.0
 11
24.586242
 21
117.978384
 31
0.0
  0
LINE
  5
369
  8
BEM1
 10
62.76622
 20
103.175605
 30
0.0
 11
35.187836
 21
103.175605
 31
0.0
  0
TEXT
  5
36A
  8
BEM1
 62
     3
 10
29.907426
 20
112.475034
 30
0.0
 40
3.5
  1
(3x)
 50
0.0
 41
0.7
 51
15.0
  0
LINE
  5
36B
  8
BEM1
 10
69.929982
 20
109.637087
 30
0.0
 11
69.929982
 21
137.83782
 31
0.0
  0
LINE
  5
36C
  8
MITTE
 10
64.681389
 20
103.175605
 30
0.0
 11
75.178576
 21
103.175605
 31
0.0
  0
SOLID
  5
36D
  8
BEM1
 10
73.603998
 20
136.775255
 30
0.0
 11
73.603998
 21
137.999927
 31
0.0
 12
69.929982
 22
137.387591
 32
0.0
 13
69.929982
 23
137.387591
 33
0.0
  0
LINE
  5
36E
  8
BEM1
 10
66.597126
 20
143.830783
 30
0.0
 11
66.597126
 21
147.141415
 31
0.0
  0
SOLID
  5
36F
  8
BEM1
 10
70.271141
 20
145.703167
 30
0.0
 11
70.271141
 21
146.927839
 31
0.0
 12
66.597126
 22
146.315503
 32
0.0
 13
66.597126
 23
146.315503
 33
0.0
  0
LINE
  5
370
  8
MITTE
 10
119.922834
 20
58.430558
 30
0.0
 11
119.922834
 21
47.933372
 31
0.0
  0
LINE
  5
371
  8
MITTE
 10
93.25998
 20
119.210058
 30
0.0
 11
93.25998
 21
31.060421
 31
0.0
  0
CIRCLE
  5
372
  8
05
 10
119.922834
 20
53.181965
 30
0.0
 40
3.149156
  0
TEXT
  5
373
  8
BEM1
 62
     3
 10
140.981838
 20
50.731819
 30
0.0
 40
3.5
  1
5.72 [0.225in]
 50
90.0
 41
0.7
 51
15.0
  0
LINE
  5
374
  8
BEM1
 10
142.818846
 20
76.171592
 30
0.0
 11
142.818846
 21
53.523912
 31
0.0
  0
LINE
  5
375
  8
BEM1
 10
102.390714
 20
40.134459
 30
0.0
 11
143.5786
 21
40.134459
 31
0.0
  0
LINE
  5
376
  8
BEM1
 10
101.972645
 20
49.849897
 30
0.0
 11
143.644117
 21
49.849897
 31
0.0
  0
SOLID
  5
377
  8
BEM1
 10
96.933995
 20
31.776989
 30
0.0
 11
96.933995
 21
33.00166
 31
0.0
 12
93.25998
 22
32.389325
 32
0.0
 13
93.25998
 23
32.389325
 33
0.0
  0
CIRCLE
  5
378
  8
05
 10
93.25998
 20
49.849897
 30
0.0
 40
3.149156
  0
TEXT
  5
379
  8
035
 10
84.951013
 20
42.670865
 30
0.0
 40
5.248593
  1
T
 50
0.0
  7
HELV
  0
LINE
  5
37A
  8
BEM1
 10
97.94691
 20
44.891421
 30
0.0
 11
102.390714
 21
40.134459
 31
0.0
  0
SOLID
  5
37B
  8
BEM1
 10
98.394375
 20
45.309429
 30
0.0
 11
97.499445
 21
44.473414
 31
0.0
 12
95.438865
 22
47.576211
 32
0.0
 13
95.438865
 23
47.576211
 33
0.0
  0
TEXT
  5
37C
  8
BEM1
 62
     3
 10
122.597287
 20
35.01045
 30
0.0
 40
3.5
  1
(4x)
 50
0.0
 41
0.7
 51
15.0
  0
TEXT
  5
37D
  8
BEM1
 62
     3
 10
115.158167
 20
41.862068
 30
0.0
 40
3.5
  1
%%c1.20 [0.047in]
 50
0.0
 41
0.7
 51
15.0
  0
LINE
  5
37E
  8
MITTE
 10
114.674241
 20
53.181965
 30
0.0
 11
125.171427
 21
53.181965
 31
0.0
  0
SOLID
  5
37F
  8
BEM1
 10
143.431182
 20
53.523912
 30
0.0
 11
142.20651
 21
53.523912
 31
0.0
 12
142.818846
 22
49.849897
 32
0.0
 13
142.818846
 23
49.849897
 33
0.0
  0
TEXT
  5
380
  8
035
 10
102.5324
 20
97.15958
 30
0.0
 40
5.248593
  1
SN
 50
0.0
  7
HELV
  0
LINE
  5
381
  8
MITTE
 10
116.589977
 20
107.044539
 30
0.0
 11
116.589977
 21
98.882976
 31
0.0
  0
CIRCLE
  5
382
  8
05
 10
116.589977
 20
103.175605
 30
0.0
 40
3.149156
  0
TEXT
  5
383
  8
BEM1
 62
     3
 10
140.981838
 20
83.24065
 30
0.0
 40
3.5
  1
6.35 [0.250in]
 50
90.0
 41
0.7
 51
15.0
  0
LINE
  5
384
  8
BEM1
 10
142.818846
 20
83.519623
 30
0.0
 11
142.818846
 21
109.50016
 31
0.0
  0
LINE
  5
385
  8
BEM1
 10
119.922834
 20
88.558272
 30
0.0
 11
119.922834
 21
137.98769
 31
0.0
  0
TEXT
  5
386
  8
035
 10
106.685673
 20
57.363552
 30
0.0
 40
5.248593
  1
TN
 50
0.0
  7
HELV
  0
TEXT
  5
387
  8
035
 10
109.751093
 20
82.801693
 30
0.0
 40
5.248593
  1
S
 50
0.0
  7
HELV
  0
LINE
  5
388
  8
MITTE
 10
119.922834
 20
85.094201
 30
0.0
 11
119.922834
 21
74.597014
 31
0.0
  0
CIRCLE
  5
389
  8
05
 10
119.922834
 20
79.845607
 30
0.0
 40
4.198875
  0
SOLID
  5
38A
  8
BEM1
 10
143.431182
 20
76.171592
 30
0.0
 11
142.20651
 21
76.171592
 31
0.0
 12
142.818846
 22
79.845607
 32
0.0
 13
142.818846
 23
79.845607
 33
0.0
  0
LINE
  5
38B
  8
BEM1
 10
127.151731
 20
79.845607
 30
0.0
 11
143.644117
 21
79.845607
 31
0.0
  0
LINE
  5
38C
  8
MITTE
 10
114.674241
 20
79.845607
 30
0.0
 11
125.171427
 21
79.845607
 31
0.0
  0
SOLID
  5
38D
  8
BEM1
 10
143.431182
 20
83.519623
 30
0.0
 11
142.20651
 21
83.519623
 31
0.0
 12
142.818846
 22
79.845607
 32
0.0
 13
142.818846
 23
79.845607
 33
0.0
  0
LINE
  5
38E
  8
BEM1
 10
142.594398
 20
79.845607
 30
0.0
 11
143.644117
 21
79.845607
 31
0.0
  0
LINE
  5
38F
  8
BEM1
 10
142.594398
 20
79.845607
 30
0.0
 11
143.644117
 21
79.845607
 31
0.0
  0
LINE
  5
390
  8
MITTE
 10
104.680919
 20
113.174175
 30
0.0
 11
115.178106
 21
113.174175
 31
0.0
  0
TEXT
  5
391
  8
BEM1
 62
     3
 10
94.806125
 20
139.256555
 30
0.0
 40
3.5
  1
4.45 [0.175in]
 50
0.0
 41
0.7
 51
15.0
  0
LINE
  5
392
  8
BEM1
 10
112.915962
 20
137.387591
 30
0.0
 11
96.933995
 21
137.387591
 31
0.0
  0
TEXT
  5
393
  8
BEM1
 62
     3
 10
88.94516
 20
130.69155
 30
0.0
 40
3.5
  1
3.18 [0.125in]
 50
0.0
 41
0.7
 51
15.0
  0
CIRCLE
  5
394
  8
05
 10
109.929512
 20
113.174175
 30
0.0
 40
3.936445
  0
LINE
  5
395
  8
BEM1
 10
109.929512
 20
120.007016
 30
0.0
 11
109.929512
 21
129.630432
 31
0.0
  0
LINE
  5
396
  8
BEM1
 10
93.25998
 20
117.250453
 30
0.0
 11
93.25998
 21
129.474116
 31
0.0
  0
LINE
  5
397
  8
BEM1
 10
109.602159
 20
103.175605
 30
0.0
 11
80.224644
 21
103.175605
 31
0.0
  0
LINE
  5
398
  8
MITTE
 10
109.929512
 20
118.422769
 30
0.0
 11
109.929512
 21
107.925582
 31
0.0
  0
SOLID
  5
399
  8
BEM1
 10
96.933995
 20
136.775255
 30
0.0
 11
96.933995
 21
137.999927
 31
0.0
 12
93.25998
 22
137.387591
 32
0.0
 13
93.25998
 23
137.387591
 33
0.0
  0
SOLID
  5
39A
  8
BEM1
 10
96.933995
 20
127.926289
 30
0.0
 11
96.933995
 21
129.150961
 31
0.0
 12
93.25998
 22
128.538625
 32
0.0
 13
93.25998
 23
128.538625
 33
0.0
  0
LINE
  5
39B
  8
BEM1
 10
93.25998
 20
135.542018
 30
0.0
 11
93.25998
 21
138.871489
 31
0.0
  0
SOLID
  5
39C
  8
BEM1
 10
89.585964
 20
136.775255
 30
0.0
 11
89.585964
 21
137.999927
 31
0.0
 12
93.25998
 22
137.387591
 32
0.0
 13
93.25998
 23
137.387591
 33
0.0
  0
LINE
  5
39D
  8
BEM1
 10
96.933995
 20
128.538625
 30
0.0
 11
106.255497
 21
128.538625
 31
0.0
  0
SOLID
  5
39E
  8
BEM1
 10
106.255497
 20
127.926289
 30
0.0
 11
106.255497
 21
129.150961
 31
0.0
 12
109.929512
 22
128.538625
 32
0.0
 13
109.929512
 23
128.538625
 33
0.0
  0
LINE
  5
39F
  8
BEM1
 10
116.589977
 20
107.164536
 30
0.0
 11
116.589977
 21
137.83782
 31
0.0
  0
LINE
  5
3A0
  8
BEM1
 10
115.71133
 20
113.174175
 30
0.0
 11
143.644117
 21
113.174175
 31
0.0
  0
LINE
  5
3A1
  8
BEM1
 10
113.440821
 20
103.175605
 30
0.0
 11
119.739133
 21
103.175605
 31
0.0
  0
SOLID
  5
3A2
  8
BEM1
 10
143.431182
 20
109.50016
 30
0.0
 11
142.20651
 21
109.50016
 31
0.0
 12
142.818846
 22
113.174175
 32
0.0
 13
142.818846
 23
113.174175
 33
0.0
  0
SOLID
  5
3A3
  8
BEM1
 10
112.915962
 20
136.775255
 30
0.0
 11
112.915962
 21
137.999927
 31
0.0
 12
116.589977
 22
137.387591
 32
0.0
 13
116.589977
 23
137.387591
 33
0.0
  0
SOLID
  5
3A4
  8
BEM1
 10
116.248819
 20
145.703167
 30
0.0
 11
116.248819
 21
146.927839
 31
0.0
 12
119.922834
 22
146.315503
 32
0.0
 13
119.922834
 23
146.315503
 33
0.0
  0
LINE
  5
3A5
  8
BEM1
 10
119.922834
 20
143.680961
 30
0.0
 11
119.922834
 21
147.141415
 31
0.0
  0
ARC
  5
3A6
  8
05
 10
207.288004
 20
133.970092
 30
0.0
 40
16.307381
 50
146.502724
 51
213.497276
  0
LINE
  5
3A7
  8
05
 10
207.105082
 20
104.128726
 30
0.0
 11
207.105082
 21
145.811457
 31
0.0
  0
LINE
  5
3A8
  8
05
 10
199.905082
 20
146.120092
 30
0.0
 11
199.905082
 21
103.820092
 31
0.0
  0
LINE
  5
3A9
  8
05
 10
190.905082
 20
142.970092
 30
0.0
 11
190.905082
 21
106.970092
 31
0.0
  0
LINE
  5
3AA
  8
05
 10
186.105082
 20
138.470092
 30
0.0
 11
186.105082
 21
111.470092
 31
0.0
  0
LINE
  5
3AB
  8
05
 10
186.105082
 20
112.220517
 30
0.0
 11
186.105082
 21
137.719667
 31
0.0
  0
LINE
  5
3AC
  8
05
 10
190.905082
 20
106.970092
 30
0.0
 11
199.305082
 21
106.970092
 31
0.0
  0
ARC
  5
3AD
  8
05
 10
207.288004
 20
115.970092
 30
0.0
 40
16.307381
 50
146.502724
 51
213.497276
  0
LINE
  5
3AE
  8
05
 10
187.605082
 20
109.970092
 30
0.0
 11
190.905082
 21
109.970092
 31
0.0
  0
ARC
  5
3AF
  8
05
 10
187.605082
 20
111.470092
 30
0.0
 40
1.5
 50
180.0
 51
270.0
  0
LINE
  5
3B0
  8
05
 10
209.505082
 20
104.280964
 30
0.0
 11
209.505082
 21
121.370092
 31
0.0
  0
LINE
  5
3B1
  8
05
 10
200.505082
 20
103.220092
 30
0.0
 11
202.305082
 21
103.220092
 31
0.0
  0
ARC
  5
3B2
  8
05
 10
199.305082
 20
106.370092
 30
0.0
 40
0.6
 50
0.0
 51
90.0
  0
ARC
  5
3B3
  8
05
 10
200.505082
 20
103.820092
 30
0.0
 40
0.6
 50
180.0
 51
270.0
  0
LINE
  5
3B4
  8
05
 10
209.505082
 20
111.920092
 30
0.0
 11
209.505082
 21
105.925575
 31
0.0
  0
LINE
  5
3B5
  8
05
 10
202.305082
 20
103.520092
 30
0.0
 11
206.505082
 21
103.520092
 31
0.0
  0
LINE
  5
3B6
  8
05
 10
202.305082
 20
105.191185
 30
0.0
 11
206.505082
 21
105.191185
 31
0.0
  0
LINE
  5
3B7
  8
05
 10
202.305082
 20
105.191185
 30
0.0
 11
202.305082
 21
103.220092
 31
0.0
  0
LINE
  5
3B8
  8
05
 10
209.505082
 20
105.925575
 30
0.0
 11
207.105082
 21
107.8389
 31
0.0
  0
POLYLINE
  5
3B9
  8
05
 66
     1
 10
0.0
 20
0.0
 30
0.0
  0
VERTEX
  5
704
  8
05
 10
206.505082
 20
105.191185
 30
0.0
 42
0.09662
  0
VERTEX
  5
705
  8
05
 10
206.735288
 20
105.236089
 30
0.0
 42
0.097696
  0
VERTEX
  5
706
  8
05
 10
206.929346
 20
105.363246
 30
0.0
 42
0.099258
  0
VERTEX
  5
707
  8
05
 10
207.059606
 20
105.554426
 30
0.0
 42
0.100392
  0
VERTEX
  5
708
  8
05
 10
207.105082
 20
105.778637
 30
0.0
 42
0.100392
  0
SEQEND
  5
709
  8
05
  0
POLYLINE
  5
3BA
  8
05
 66
     1
 10
0.0
 20
0.0
 30
0.0
  0
VERTEX
  5
70A
  8
05
 10
207.105082
 20
104.128726
 30
0.0
 42
-0.097223
  0
VERTEX
  5
70B
  8
05
 10
207.05928
 20
103.895402
 30
0.0
 42
-0.097957
  0
VERTEX
  5
70C
  8
05
 10
206.929346
 20
103.698357
 30
0.0
 42
-0.099013
  0
VERTEX
  5
70D
  8
05
 10
206.734282
 20
103.566287
 30
0.0
 42
-0.099773
  0
VERTEX
  5
70E
  8
05
 10
206.505082
 20
103.520092
 30
0.0
 42
-0.099773
  0
SEQEND
  5
70F
  8
05
  0
LINE
  5
3BB
  8
05
 10
207.433823
 20
107.576821
 30
0.0
 11
209.505082
 21
104.280964
 31
0.0
  0
LINE
  5
3BC
  8
05
 10
209.505082
 20
104.280964
 30
0.0
 11
207.105082
 21
106.263341
 31
0.0
  0
LINE
  5
3BD
  8
05
 10
193.689082
 20
124.970092
 30
0.0
 11
199.905082
 21
124.970092
 31
0.0
  0
LINE
  5
3BE
  8
05
 10
207.105082
 20
121.370092
 30
0.0
 11
209.505082
 21
121.370092
 31
0.0
  0
LINE
  5
3BF
  8
05
 10
190.905082
 20
142.970092
 30
0.0
 11
199.305082
 21
142.970092
 31
0.0
  0
LINE
  5
3C0
  8
05
 10
187.605082
 20
139.970092
 30
0.0
 11
190.905082
 21
139.970092
 31
0.0
  0
ARC
  5
3C1
  8
05
 10
187.605082
 20
138.470092
 30
0.0
 40
1.5
 50
90.0
 51
180.0
  0
LINE
  5
3C2
  8
05
 10
209.505082
 20
133.819182
 30
0.0
 11
209.505082
 21
144.014608
 31
0.0
  0
LINE
  5
3C3
  8
05
 10
209.505082
 20
133.819182
 30
0.0
 11
207.105082
 21
132.823349
 31
0.0
  0
LINE
  5
3C4
  8
05
 10
207.105082
 20
133.302244
 30
0.0
 11
209.505082
 21
133.819182
 31
0.0
  0
LINE
  5
3C5
  8
05
 10
200.505082
 20
146.720092
 30
0.0
 11
202.305082
 21
146.720092
 31
0.0
  0
ARC
  5
3C6
  8
05
 10
199.305082
 20
143.570092
 30
0.0
 40
0.6
 50
270.0
 51
360.0
  0
ARC
  5
3C7
  8
05
 10
200.505082
 20
146.120092
 30
0.0
 40
0.6
 50
90.0
 51
180.0
  0
LINE
  5
3C8
  8
05
 10
209.505082
 20
145.659219
 30
0.0
 11
209.505082
 21
138.020092
 31
0.0
  0
LINE
  5
3C9
  8
05
 10
202.305082
 20
146.420092
 30
0.0
 11
206.505082
 21
146.420092
 31
0.0
  0
LINE
  5
3CA
  8
05
 10
202.305082
 20
146.420092
 30
0.0
 11
202.305082
 21
146.720092
 31
0.0
  0
LINE
  5
3CB
  8
05
 10
209.505082
 20
145.659219
 30
0.0
 11
207.105082
 21
143.676842
 31
0.0
  0
POLYLINE
  5
3CC
  8
05
 66
     1
 10
0.0
 20
0.0
 30
0.0
  0
VERTEX
  5
710
  8
05
 10
207.105082
 20
145.811457
 30
0.0
 42
0.097223
  0
VERTEX
  5
711
  8
05
 10
207.05928
 20
146.044781
 30
0.0
 42
0.097957
  0
VERTEX
  5
712
  8
05
 10
206.929346
 20
146.241826
 30
0.0
 42
0.099013
  0
VERTEX
  5
713
  8
05
 10
206.734282
 20
146.373896
 30
0.0
 42
0.099773
  0
VERTEX
  5
714
  8
05
 10
206.505082
 20
146.420092
 30
0.0
 42
0.099773
  0
SEQEND
  5
715
  8
05
  0
LINE
  5
3CD
  8
BEM1
 10
75.262665
 20
249.752071
 30
0.0
 11
111.257295
 21
249.752071
 31
0.0
  0
CIRCLE
  5
3CE
  8
05
 10
93.25998
 20
223.64447
 30
0.0
 40
17.997315
  0
LINE
  5
3CF
  8
MITTE
 10
71.366339
 20
223.64447
 30
0.0
 11
116.081317
 21
223.64447
 31
0.0
  0
LINE
  5
3D0
  8
035
 10
77.276787
 20
252.67929
 30
0.0
 11
79.824097
 21
252.67929
 31
0.0
  0
LINE
  5
3D1
  8
035
 10
79.824097
 20
252.67929
 30
0.0
 11
77.595201
 21
254.572232
 31
0.0
  0
LINE
  5
3D2
  8
035
 10
77.276787
 20
251.861974
 30
0.0
 11
79.824097
 21
251.861974
 31
0.0
  0
TEXT
  5
3D3
  8
035
 10
55.417482
 20
163.352308
 30
0.0
 40
3.0
  1
PCB-Layout (component side)
  7
ARIAL
  0
TEXT
  5
3D4
  8
035
 10
47.759743
 20
169.352308
 30
0.0
 40
3.5
  1
Print-Bohrplan (Bestückungsseite)
  7
ARIAL
  0
TEXT
  5
3D5
  8
035
 10
60.337175
 20
263.811053
 30
0.0
 40
3.0
  1
Panel cut out (rear side)
  7
ARIAL
  0
TEXT
  5
3D6
  8
035
 10
54.38123
 20
270.811053
 30
0.0
 40
3.5
  1
Frontplattenausschnitt (Rückseite)
  7
ARIAL
  0
LINE
  5
3D7
  8
BEM1
 10
75.262665
 20
225.043122
 30
0.0
 11
75.262665
 21
250.51163
 31
0.0
  0
SOLID
  5
3D8
  8
BEM1
 10
78.322217
 20
249.242146
 30
0.0
 11
78.322217
 21
250.261997
 31
0.0
 12
75.262665
 22
249.752071
 32
0.0
 13
75.262665
 23
249.752071
 33
0.0
  0
LINE
  5
3D9
  8
05
 10
206.640026
 20
244.79447
 30
0.0
 11
206.640026
 21
231.976623
 31
0.0
  0
LINE
  5
3DA
  8
05
 10
209.040026
 20
244.333598
 30
0.0
 11
209.040026
 21
232.493561
 31
0.0
  0
ARC
  5
3DB
  8
05
 10
197.037611
 20
239.23247
 30
0.0
 40
6.445297
 50
143.723325
 51
233.723325
  0
LINE
  5
3DC
  8
05
 10
190.440026
 20
241.64447
 30
0.0
 11
190.440026
 21
205.64447
 31
0.0
  0
LINE
  5
3DD
  8
05
 10
199.440026
 20
244.79447
 30
0.0
 11
199.440026
 21
202.49447
 31
0.0
  0
LINE
  5
3DE
  8
BEM1
 10
111.257295
 20
225.043122
 30
0.0
 11
111.257295
 21
250.51163
 31
0.0
  0
LINE
  5
3DF
  8
MITTE
 10
93.25998
 20
245.058624
 30
0.0
 11
93.25998
 21
201.646294
 31
0.0
  0
TEXT
  5
3E0
  8
035
 10
132.427065
 20
169.352308
 30
0.0
 40
3.5
  1
M 5:1
  7
ARIAL
  0
TEXT
  5
3E1
  8
035
 10
117.490753
 20
163.352308
 30
0.0
 40
3.0
  1
Scale 5:1
  7
ARIAL
  0
LINE
  5
3E2
  8
BEM1
 10
209.039246
 20
201.915463
 30
0.0
 11
209.039246
 21
184.065898
 31
0.0
  0
TEXT
  5
3E3
  8
035
 10
157.580657
 20
186.467946
 30
0.0
 40
3.5
  1
1.20-1.50 [0.047"-0.059"]
 41
0.7
 51
15.0
  0
POLYLINE
  5
3E4
  8
025
 66
     1
 10
0.0
 20
0.0
 30
0.0
 70
     1
 40
0.2
 41
0.2
  0
VERTEX
  5
716
  8
025
 10
165.708089
 20
188.953945
 30
0.0
 42
1.0
  0
VERTEX
  5
717
  8
025
 10
166.208089
 20
188.953945
 30
0.0
 42
1.0
  0
SEQEND
  5
718
  8
025
  0
POLYLINE
  5
3E6
  8
025
 66
     1
 10
0.0
 20
0.0
 30
0.0
 70
     1
 40
0.2
 41
0.2
  0
VERTEX
  5
719
  8
025
 10
165.367788
 20
187.448208
 30
0.0
 42
1.0
  0
VERTEX
  5
71A
  8
025
 10
165.867788
 20
187.448208
 30
0.0
 42
1.0
  0
SEQEND
  5
71B
  8
025
  0
POLYLINE
  5
3E7
  8
025
 66
     1
 10
0.0
 20
0.0
 30
0.0
 70
     1
 40
0.2
 41
0.2
  0
VERTEX
  5
71C
  8
025
 10
190.641936
 20
188.953945
 30
0.0
 42
1.0
  0
VERTEX
  5
71D
  8
025
 10
191.141936
 20
188.953945
 30
0.0
 42
1.0
  0
SEQEND
  5
71E
  8
025
  0
POLYLINE
  5
3E8
  8
025
 66
     1
 10
0.0
 20
0.0
 30
0.0
 70
     1
 40
0.2
 41
0.2
  0
VERTEX
  5
71F
  8
025
 10
190.301634
 20
187.448208
 30
0.0
 42
1.0
  0
VERTEX
  5
720
  8
025
 10
190.801634
 20
187.448208
 30
0.0
 42
1.0
  0
SEQEND
  5
721
  8
025
  0
SOLID
  5
3E9
  8
BEM1
 10
205.539246
 20
184.431943
 30
0.0
 11
205.539246
 21
185.59861
 31
0.0
 12
209.039246
 22
185.015277
 32
0.0
 13
209.039246
 23
185.015277
 33
0.0
  0
LINE
  5
3EA
  8
05
 10
185.640026
 20
237.14447
 30
0.0
 11
185.640026
 21
210.14447
 31
0.0
  0
LINE
  5
3EB
  8
05
 10
185.640026
 20
210.89447
 30
0.0
 11
185.640026
 21
236.39447
 31
0.0
  0
ARC
  5
3EC
  8
05
 10
212.329551
 20
223.64447
 30
0.0
 40
21.748903
 50
151.457063
 51
208.542937
  0
LINE
  5
3ED
  8
05
 10
206.640026
 20
220.04447
 30
0.0
 11
206.640026
 21
202.49447
 31
0.0
  0
LINE
  5
3EE
  8
05
 10
209.040026
 20
220.04447
 30
0.0
 11
209.040026
 21
202.955342
 31
0.0
  0
LINE
  5
3EF
  8
05
 10
185.640026
 20
210.894895
 30
0.0
 11
185.640026
 21
236.394045
 31
0.0
  0
LINE
  5
3F0
  8
05
 10
193.224026
 20
213.25247
 30
0.0
 11
199.440026
 21
213.25247
 31
0.0
  0
LINE
  5
3F1
  8
05
 10
193.224026
 20
202.86047
 30
0.0
 11
198.863062
 21
202.86047
 31
0.0
  0
ARC
  5
3F2
  8
05
 10
197.037611
 20
208.05647
 30
0.0
 40
6.445297
 50
126.276675
 51
216.276675
  0
LINE
  5
3F3
  8
05
 10
193.224026
 20
202.86047
 30
0.0
 11
190.440026
 21
205.64447
 31
0.0
  0
ARC
  5
3F4
  8
05
 10
187.140026
 20
210.14447
 30
0.0
 40
1.5
 50
180.0
 51
270.0
  0
LINE
  5
3F5
  8
05
 10
187.140026
 20
208.64447
 30
0.0
 11
190.440026
 21
208.64447
 31
0.0
  0
LINE
  5
3F6
  8
05
 10
209.040026
 20
204.599954
 30
0.0
 11
206.640026
 21
206.513278
 31
0.0
  0
LINE
  5
3F7
  8
05
 10
200.040026
 20
201.89447
 30
0.0
 11
206.040026
 21
201.89447
 31
0.0
  0
ARC
  5
3F8
  8
05
 10
198.863062
 20
202.26047
 30
0.0
 40
0.6
 50
11.244724
 51
90.0
  0
ARC
  5
3F9
  8
05
 10
200.040026
 20
202.49447
 30
0.0
 40
0.6
 50
180.0
 51
270.0
  0
LINE
  5
3FA
  8
05
 10
207.05607
 20
206.1816
 30
0.0
 11
209.040026
 21
202.955342
 31
0.0
  0
LINE
  5
3FB
  8
05
 10
209.040026
 20
202.955342
 30
0.0
 11
206.640026
 21
204.93772
 31
0.0
  0
ARC
  5
3FC
  8
05
 10
206.040026
 20
202.49447
 30
0.0
 40
0.6
 50
270.0
 51
0.0
  0
LINE
  5
3FD
  8
05
 10
193.224026
 20
234.03647
 30
0.0
 11
199.440026
 21
234.03647
 31
0.0
  0
ARC
  5
3FE
  8
05
 10
187.140026
 20
237.14447
 30
0.0
 40
1.5
 50
90.0
 51
180.0
  0
LINE
  5
3FF
  8
05
 10
187.140026
 20
238.64447
 30
0.0
 11
190.440026
 21
238.64447
 31
0.0
  0
LINE
  5
400
  8
05
 10
208.139126
 20
220.04447
 30
0.0
 11
208.139126
 21
232.11975
 31
0.0
  0
LINE
  5
401
  8
05
 10
201.840026
 20
220.04447
 30
0.0
 11
201.840026
 21
232.69247
 31
0.0
  0
LINE
  5
402
  8
05
 10
209.040026
 20
220.04447
 30
0.0
 11
201.840026
 21
220.04447
 31
0.0
  0
LINE
  5
403
  8
05
 10
206.640026
 20
231.497728
 30
0.0
 11
201.840026
 21
231.497728
 31
0.0
  0
LINE
  5
404
  8
05
 10
201.840026
 20
232.69247
 30
0.0
 11
206.040026
 21
232.69247
 31
0.0
  0
LINE
  5
405
  8
05
 10
209.040026
 20
232.493561
 30
0.0
 11
206.640026
 21
231.976623
 31
0.0
  0
LINE
  5
406
  8
05
 10
206.640026
 20
231.497728
 30
0.0
 11
209.040026
 21
232.493561
 31
0.0
  0
POLYLINE
  5
407
  8
05
 66
     1
 10
0.0
 20
0.0
 30
0.0
  0
VERTEX
  5
722
  8
05
 10
206.640026
 20
232.53047
 30
0.0
 42
0.253513
  0
VERTEX
  5
723
  8
05
 10
206.614329
 20
232.577894
 30
0.0
 42
0.07865
  0
VERTEX
  5
724
  8
05
 10
206.46429
 20
232.645021
 30
0.0
 42
0.038103
  0
VERTEX
  5
725
  8
05
 10
206.28673
 20
232.678717
 30
0.0
 42
0.027851
  0
VERTEX
  5
726
  8
05
 10
206.040026
 20
232.69247
 30
0.0
 42
0.027851
  0
SEQEND
  5
727
  8
05
  0
TEXT
  5
408
  8
035
 10
80.800495
 20
251.475471
 30
0.0
 40
3.5
  1
%%c12.00 [0.472"]
 41
0.7
 51
15.0
  0
SOLID
  5
409
  8
BEM1
 10
108.197743
 20
249.242146
 30
0.0
 11
108.197743
 21
250.261997
 31
0.0
 12
111.257295
 22
249.752071
 32
0.0
 13
111.257295
 23
249.752071
 33
0.0
  0
LINE
  5
40A
  8
05
 10
193.224026
 20
244.42847
 30
0.0
 11
198.863062
 21
244.42847
 31
0.0
  0
LINE
  5
40B
  8
05
 10
193.224026
 20
244.42847
 30
0.0
 11
190.440026
 21
241.64447
 31
0.0
  0
LINE
  5
40C
  8
05
 10
200.040026
 20
245.39447
 30
0.0
 11
206.040026
 21
245.39447
 31
0.0
  0
ARC
  5
40D
  8
05
 10
198.863062
 20
245.02847
 30
0.0
 40
0.6
 50
270.0
 51
348.755276
  0
ARC
  5
40E
  8
05
 10
200.040026
 20
244.79447
 30
0.0
 40
0.6
 50
90.0
 51
180.0
  0
LINE
  5
40F
  8
05
 10
209.040026
 20
244.333598
 30
0.0
 11
206.640026
 21
242.35122
 31
0.0
  0
ARC
  5
410
  8
05
 10
206.040026
 20
244.79447
 30
0.0
 40
0.6
 50
0.0
 51
90.0
  0
LINE
  5
411
  8
05
 10
213.104182
 20
142.969492
 30
0.0
 11
283.601832
 21
142.969492
 31
0.0
  0
LINE
  5
412
  8
05
 10
213.104182
 20
106.970692
 30
0.0
 11
283.601832
 21
106.970692
 31
0.0
  0
LINE
  5
413
  8
05
 10
283.601832
 20
112.970492
 30
0.0
 11
238.609888
 21
112.970492
 31
0.0
  0
LINE
  5
414
  8
05
 10
283.605082
 20
116.570092
 30
0.0
 11
268.605082
 21
116.570092
 31
0.0
  0
LINE
  5
415
  8
05
 10
283.605082
 20
133.370092
 30
0.0
 11
268.605082
 21
133.370092
 31
0.0
  0
LINE
  5
416
  8
05
 10
283.605082
 20
133.970092
 30
0.0
 11
238.609888
 21
133.970092
 31
0.0
  0
LINE
  5
417
  8
05
 10
283.605082
 20
115.970092
 30
0.0
 11
238.609888
 21
115.970092
 31
0.0
  0
LINE
  5
418
  8
05
 10
262.653854
 20
105.770092
 30
0.0
 11
283.601832
 21
105.770092
 31
0.0
  0
ARC
  5
419
  8
035
 10
275.505082
 20
128.870092
 30
0.0
 40
0.6
 50
360.0
 51
90.0
  0
ARC
  5
41A
  8
035
 10
275.505082
 20
121.070092
 30
0.0
 40
0.6
 50
270.0
 51
360.0
  0
LINE
  5
41B
  8
05
 10
271.55091
 20
144.170092
 30
0.0
 11
283.601832
 21
144.170092
 31
0.0
  0
LINE
  5
41C
  8
035
 10
268.605082
 20
132.470092
 30
0.0
 11
237.105082
 21
132.470092
 31
0.0
  0
LINE
  5
41D
  8
035
 10
268.605082
 20
117.470092
 30
0.0
 11
237.105082
 21
117.470092
 31
0.0
  0
LINE
  5
41E
  8
035
 10
240.705082
 20
129.470092
 30
0.0
 11
275.505082
 21
129.470092
 31
0.0
  0
LINE
  5
41F
  8
035
 10
240.705082
 20
120.470092
 30
0.0
 11
275.505082
 21
120.470092
 31
0.0
  0
LINE
  5
420
  8
035
 10
240.705082
 20
121.970092
 30
0.0
 11
273.357862
 21
121.970092
 31
0.0
  0
LINE
  5
421
  8
035
 10
273.357862
 20
127.970092
 30
0.0
 11
240.705082
 21
127.970092
 31
0.0
  0
LINE
  5
422
  8
05
 10
237.154704
 20
105.770092
 30
0.0
 11
246.05176
 21
105.770092
 31
0.0
  0
LINE
  5
423
  8
05
 10
242.540769
 20
144.170092
 30
0.0
 11
251.437825
 21
144.170092
 31
0.0
  0
LINE
  5
424
  8
05
 10
213.104182
 20
124.970092
 30
0.0
 11
213.104182
 21
142.969492
 31
0.0
  0
LINE
  5
425
  8
05
 10
216.104082
 20
142.969492
 30
0.0
 11
216.104082
 21
106.970692
 31
0.0
  0
LINE
  5
426
  8
05
 10
228.103682
 20
142.969492
 30
0.0
 11
228.103682
 21
106.970692
 31
0.0
  0
LINE
  5
427
  8
05
 10
231.105082
 20
106.970092
 30
0.0
 11
231.105082
 21
142.970092
 31
0.0
  0
LINE
  5
428
  8
05
 10
231.705082
 20
132.470092
 30
0.0
 11
231.705082
 21
117.470092
 31
0.0
  0
LINE
  5
429
  8
05
 10
213.104182
 20
106.970692
 30
0.0
 11
213.104182
 21
124.970092
 31
0.0
  0
LINE
  5
42A
  8
05
 10
216.104082
 20
112.970492
 30
0.0
 11
213.104182
 21
112.970492
 31
0.0
  0
LINE
  5
42B
  8
05
 10
237.105082
 20
114.470092
 30
0.0
 11
237.105082
 21
106.970092
 31
0.0
  0
LINE
  5
42C
  8
05
 10
238.609888
 20
115.970092
 30
0.0
 11
238.609888
 21
112.970492
 31
0.0
  0
LINE
  5
42D
  8
05
 10
231.105082
 20
112.970492
 30
0.0
 11
228.103682
 21
112.970492
 31
0.0
  0
LINE
  5
42E
  8
05
 10
238.609888
 20
112.970492
 30
0.0
 11
237.343959
 21
106.970692
 31
0.0
  0
LINE
  5
42F
  8
05
 10
237.154704
 20
106.970692
 30
0.0
 11
237.154704
 21
105.770092
 31
0.0
  0
LINE
  5
430
  8
035
 10
237.105082
 20
114.470092
 30
0.0
 11
231.105082
 21
114.470092
 31
0.0
  0
LINE
  5
431
  8
05
 10
231.705082
 20
117.470092
 30
0.0
 11
231.105082
 21
117.470092
 31
0.0
  0
LINE
  5
432
  8
035
 10
237.105082
 20
117.470092
 30
0.0
 11
237.105082
 21
114.470092
 31
0.0
  0
LINE
  5
433
  8
05
 10
237.105082
 20
117.470092
 30
0.0
 11
238.609888
 21
115.970092
 31
0.0
  0
LINE
  5
434
  8
035
 10
240.105082
 20
121.070092
 30
0.0
 11
240.105082
 21
121.370092
 31
0.0
  0
ARC
  5
435
  8
035
 10
240.705082
 20
121.070092
 30
0.0
 40
0.6
 50
180.0
 51
270.0
  0
ARC
  5
436
  8
035
 10
240.705082
 20
121.370092
 30
0.0
 40
0.6
 50
90.0
 51
180.0
  0
LINE
  5
437
  8
05
 10
237.105082
 20
135.470092
 30
0.0
 11
237.105082
 21
142.970092
 31
0.0
  0
LINE
  5
438
  8
05
 10
238.609888
 20
133.970092
 30
0.0
 11
238.609888
 21
142.969492
 31
0.0
  0
LINE
  5
439
  8
035
 10
237.105082
 20
135.470092
 30
0.0
 11
231.105082
 21
135.470092
 31
0.0
  0
LINE
  5
43A
  8
05
 10
231.705082
 20
132.470092
 30
0.0
 11
231.105082
 21
132.470092
 31
0.0
  0
LINE
  5
43B
  8
035
 10
240.105082
 20
128.870092
 30
0.0
 11
240.105082
 21
128.570092
 31
0.0
  0
ARC
  5
43C
  8
035
 10
240.705082
 20
128.570092
 30
0.0
 40
0.6
 50
180.0
 51
270.0
  0
ARC
  5
43D
  8
035
 10
240.705082
 20
128.870092
 30
0.0
 40
0.6
 50
90.0
 51
180.0
  0
LINE
  5
43E
  8
035
 10
237.105082
 20
135.470092
 30
0.0
 11
237.105082
 21
132.470092
 31
0.0
  0
LINE
  5
43F
  8
05
 10
237.105082
 20
132.470092
 30
0.0
 11
238.609888
 21
133.970092
 31
0.0
  0
LINE
  5
440
  8
05
 10
242.540769
 20
142.969492
 30
0.0
 11
242.540769
 21
144.170092
 31
0.0
  0
CIRCLE
  5
441
  8
035
 10
252.855082
 20
124.970092
 30
0.0
 40
1.621996
  0
LINE
  5
442
  8
035
 10
273.357862
 20
121.970092
 30
0.0
 11
273.357862
 21
127.970092
 31
0.0
  0
LINE
  5
443
  8
05
 10
246.05176
 20
106.970692
 30
0.0
 11
246.05176
 21
105.770092
 31
0.0
  0
LINE
  5
444
  8
035
 10
250.605082
 20
120.470092
 30
0.0
 11
250.605082
 21
121.970092
 31
0.0
  0
LINE
  5
445
  8
035
 10
258.105082
 20
120.470092
 30
0.0
 11
258.105082
 21
121.970092
 31
0.0
  0
LINE
  5
446
  8
05
 10
262.653854
 20
106.970692
 30
0.0
 11
262.653854
 21
105.770092
 31
0.0
  0
LINE
  5
447
  8
05
 10
271.55091
 20
106.970692
 30
0.0
 11
271.55091
 21
105.770092
 31
0.0
  0
LINE
  5
448
  8
05
 10
268.605082
 20
117.470092
 30
0.0
 11
268.605082
 21
115.970092
 31
0.0
  0
LINE
  5
449
  8
035
 10
250.605082
 20
127.970092
 30
0.0
 11
250.605082
 21
129.470092
 31
0.0
  0
LINE
  5
44A
  8
035
 10
258.105082
 20
127.970092
 30
0.0
 11
258.105082
 21
129.470092
 31
0.0
  0
LINE
  5
44B
  8
05
 10
251.437825
 20
142.969492
 30
0.0
 11
251.437825
 21
144.170092
 31
0.0
  0
LINE
  5
44C
  8
05
 10
268.605082
 20
133.970092
 30
0.0
 11
268.605082
 21
132.470092
 31
0.0
  0
LINE
  5
44D
  8
05
 10
260.897529
 20
144.170092
 30
0.0
 11
269.794585
 21
144.170092
 31
0.0
  0
LINE
  5
44E
  8
05
 10
260.897529
 20
142.969492
 30
0.0
 11
260.897529
 21
144.170092
 31
0.0
  0
LINE
  5
44F
  8
05
 10
269.794585
 20
142.969492
 30
0.0
 11
269.794585
 21
144.170092
 31
0.0
  0
LINE
  5
450
  8
05
 10
271.55091
 20
142.969492
 30
0.0
 11
271.55091
 21
144.170092
 31
0.0
  0
LINE
  5
451
  8
035
 10
276.105082
 20
121.070092
 30
0.0
 11
276.105082
 21
128.870092
 31
0.0
  0
ARC
  5
452
  8
035
 10
296.505082
 20
125.270092
 30
0.0
 40
0.6
 50
0.0
 51
90.0
  0
LINE
  5
453
  8
035
 10
296.505082
 20
124.070092
 30
0.0
 11
283.601832
 21
124.070092
 31
0.0
  0
LINE
  5
454
  8
MITTE
 10
278.835165
 20
113.540092
 30
0.0
 11
293.747186
 21
113.540092
 31
0.0
  0
LINE
  5
455
  8
035
 10
294.101482
 20
111.020092
 30
0.0
 11
290.554103
 21
111.878055
 31
0.0
  0
LINE
  5
456
  8
035
 10
293.88991
 20
110.145313
 30
0.0
 11
290.342531
 21
111.003277
 31
0.0
  0
LINE
  5
457
  8
MITTE
 10
289.601632
 20
112.220092
 30
0.0
 11
298.513853
 21
112.220092
 31
0.0
  0
LINE
  5
458
  8
035
 10
289.601632
 20
112.670077
 30
0.0
 11
297.101382
 21
112.670077
 31
0.0
  0
LINE
  5
459
  8
035
 10
291.000434
 20
111.770107
 30
0.0
 11
297.101382
 21
111.770107
 31
0.0
  0
LINE
  5
45A
  8
05
 10
288.482054
 20
110.540192
 30
0.0
 11
288.482054
 21
116.539992
 31
0.0
  0
LINE
  5
45B
  8
05
 10
289.601632
 20
110.840182
 30
0.0
 11
289.601632
 21
116.240002
 31
0.0
  0
LINE
  5
45C
  8
05
 10
283.601832
 20
124.070092
 30
0.0
 11
283.601832
 21
105.770092
 31
0.0
  0
LINE
  5
45D
  8
05
 10
285.105082
 20
111.470092
 30
0.0
 11
283.605082
 21
111.470092
 31
0.0
  0
LINE
  5
45E
  8
MITTE
 10
283.605082
 20
109.970092
 30
0.0
 11
285.105082
 21
109.970092
 31
0.0
  0
LINE
  5
45F
  8
05
 10
283.605082
 20
111.470092
 30
0.0
 11
285.105082
 21
111.470092
 31
0.0
  0
LINE
  5
460
  8
05
 10
285.105082
 20
108.470092
 30
0.0
 11
283.605082
 21
108.470092
 31
0.0
  0
LINE
  5
461
  8
05
 10
276.153404
 20
106.970692
 30
0.0
 11
276.153404
 21
105.770092
 31
0.0
  0
LINE
  5
462
  8
05
 10
285.105082
 20
110.540192
 30
0.0
 11
288.482054
 21
110.540192
 31
0.0
  0
LINE
  5
463
  8
05
 10
285.105082
 20
111.470092
 30
0.0
 11
285.105082
 21
108.470092
 31
0.0
  0
ARC
  5
464
  8
035
 10
285.101482
 20
111.620092
 30
0.0
 40
1.5
 50
270.000018
 51
280.388857
  0
LINE
  5
465
  8
035
 10
287.5293
 20
110.540192
 30
0.0
 11
285.371974
 21
110.144682
 31
0.0
  0
LINE
  5
466
  8
05
 10
289.601632
 20
110.840182
 30
0.0
 11
288.482054
 21
110.540192
 31
0.0
  0
ARC
  5
467
  8
035
 10
290.201482
 20
110.420092
 30
0.0
 40
1.5
 50
76.403624
 51
100.388857
  0
ARC
  5
468
  8
035
 10
290.201482
 20
110.420092
 30
0.0
 40
0.6
 50
76.403624
 51
100.388857
  0
LINE
  5
469
  8
035
 10
289.93099
 20
111.895501
 30
0.0
 11
289.601632
 21
111.835119
 31
0.0
  0
LINE
  5
46A
  8
035
 10
290.093286
 20
111.010255
 30
0.0
 11
289.601632
 21
110.920119
 31
0.0
  0
LINE
  5
46B
  8
05
 10
283.601832
 20
116.539992
 30
0.0
 11
288.482054
 21
116.539992
 31
0.0
  0
LINE
  5
46C
  8
05
 10
289.601632
 20
116.240002
 30
0.0
 11
288.482054
 21
116.539992
 31
0.0
  0
LINE
  5
46D
  8
035
 10
294.101482
 20
111.020092
 30
0.0
 11
293.88991
 21
110.145313
 31
0.0
  0
LINE
  5
46E
  8
035
 10
297.101382
 20
111.770107
 30
0.0
 11
297.101382
 21
112.670077
 31
0.0
  0
LINE
  5
46F
  8
035
 10
297.105082
 20
125.270092
 30
0.0
 11
297.105082
 21
124.670092
 31
0.0
  0
ARC
  5
470
  8
035
 10
296.505082
 20
124.670092
 30
0.0
 40
0.6
 50
270.0
 51
0.0
  0
LINE
  5
471
  8
035
 10
283.601832
 20
125.870092
 30
0.0
 11
296.505082
 21
125.870092
 31
0.0
  0
LINE
  5
472
  8
035
 10
297.105082
 20
139.310092
 30
0.0
 11
283.605082
 21
139.310092
 31
0.0
  0
LINE
  5
473
  8
035
 10
283.605082
 20
141.110092
 30
0.0
 11
297.105082
 21
141.110092
 31
0.0
  0
LINE
  5
474
  8
MITTE
 10
282.081972
 20
134.510092
 30
0.0
 11
292.561068
 21
134.510092
 31
0.0
  0
LINE
  5
475
  8
035
 10
294.101482
 20
138.920092
 30
0.0
 11
290.554103
 21
138.062128
 31
0.0
  0
LINE
  5
476
  8
05
 10
283.601832
 20
144.170092
 30
0.0
 11
283.601832
 21
125.870092
 31
0.0
  0
LINE
  5
477
  8
05
 10
283.601832
 20
136.760092
 30
0.0
 11
288.482054
 21
136.760092
 31
0.0
  0
LINE
  5
478
  8
05
 10
283.601832
 20
132.260092
 30
0.0
 11
288.482054
 21
132.260092
 31
0.0
  0
LINE
  5
479
  8
05
 10
288.482054
 20
136.760092
 30
0.0
 11
288.482054
 21
132.260092
 31
0.0
  0
LINE
  5
47A
  8
05
 10
289.601632
 20
132.560082
 30
0.0
 11
288.482054
 21
132.260092
 31
0.0
  0
LINE
  5
47B
  8
05
 10
289.601632
 20
136.460102
 30
0.0
 11
288.482054
 21
136.760092
 31
0.0
  0
LINE
  5
47C
  8
05
 10
289.601632
 20
136.460102
 30
0.0
 11
289.601632
 21
132.560082
 31
0.0
  0
LINE
  5
47D
  8
035
 10
285.101482
 20
138.920092
 30
0.0
 11
283.601832
 21
138.920092
 31
0.0
  0
LINE
  5
47E
  8
05
 10
276.153404
 20
142.969492
 30
0.0
 11
276.153404
 21
144.170092
 31
0.0
  0
LINE
  5
47F
  8
035
 10
289.93099
 20
138.044682
 30
0.0
 11
285.209678
 21
138.910255
 31
0.0
  0
ARC
  5
480
  8
035
 10
285.101482
 20
138.320092
 30
0.0
 40
0.6
 50
79.611143
 51
89.999954
  0
LINE
  5
481
  8
035
 10
290.093286
 20
138.929928
 30
0.0
 11
288.019664
 21
139.310092
 31
0.0
  0
LINE
  5
482
  8
035
 10
291.885522
 20
139.310092
 30
0.0
 11
290.342531
 21
138.936906
 31
0.0
  0
ARC
  5
483
  8
035
 10
290.201482
 20
139.520092
 30
0.0
 40
0.6
 50
259.611143
 51
283.596376
  0
ARC
  5
484
  8
035
 10
290.201482
 20
139.520092
 30
0.0
 40
1.5
 50
259.611143
 51
283.596376
  0
LINE
  5
485
  8
035
 10
294.101482
 20
138.920092
 30
0.0
 11
294.007157
 21
139.310092
 31
0.0
  0
LINE
  5
486
  8
035
 10
297.105082
 20
141.110092
 30
0.0
 11
297.105082
 21
139.310092
 31
0.0
  0
LINE
  5
487
  8
05
 10
350.762511
 20
244.42908
 30
0.0
 11
332.762511
 21
234.036775
 31
0.0
  0
LINE
  5
488
  8
05
 10
332.762511
 20
213.252165
 30
0.0
 11
350.762511
 21
202.85986
 31
0.0
  0
CIRCLE
  5
489
  8
025
 10
350.762511
 20
223.64447
 30
0.0
 40
17.7
  0
CIRCLE
  5
48A
  8
05
 10
350.762511
 20
223.64447
 30
0.0
 40
15.0
  0
TEXT
  5
48B
  8
BEM1
 62
     3
 10
332.050285
 20
264.881153
 30
0.0
 40
3.5
  1
14.50  [0.571"    ]
 41
0.7
 51
15.0
  0
LINE
  5
48C
  8
BEM1
 10
332.513236
 20
261.97071
 30
0.0
 11
369.011786
 21
261.97071
 31
0.0
  0
TEXT
  5
48D
  8
BEM1
 62
     3
 10
329.909716
 20
186.765277
 30
0.0
 40
3.5
  1
12.80   [0.504"    ]
 41
0.7
 51
15.0
  0
LINE
  5
48E
  8
BEM1
 10
335.063111
 20
185.015277
 30
0.0
 11
366.461911
 21
185.015277
 31
0.0
  0
CIRCLE
  5
48F
  8
05
 10
350.762511
 20
223.64447
 30
0.0
 40
21.749275
  0
LINE
  5
490
  8
05
 10
335.763011
 20
246.14372
 30
0.0
 11
365.762011
 21
246.14372
 31
0.0
  0
LINE
  5
491
  8
05
 10
335.763011
 20
201.14522
 30
0.0
 11
365.762011
 21
201.14522
 31
0.0
  0
CIRCLE
  5
492
  8
05
 10
350.762511
 20
223.64447
 30
0.0
 40
9.749675
  0
LINE
  5
493
  8
MITTE
 10
323.190238
 20
223.64447
 30
0.0
 11
375.139133
 21
223.64447
 31
0.0
  0
TEXT
  5
494
  8
TOL
 10
339.785972
 20
187.407375
 30
0.0
 40
2.5
  1
%%P0.1
 41
0.7
 51
15.0
  0
LINE
  5
496
  8
BEM1
 10
329.013236
 20
224.44447
 30
0.0
 11
329.013236
 21
244.774969
 31
0.0
  0
TEXT
  5
497
  8
BEM1
 62
     3
 10
314.590502
 20
203.990822
 30
0.0
 40
3.5
  1
15.00   [0.591"    ]
 50
90.0
 41
0.7
 51
15.0
  0
LINE
  5
498
  8
BEM1
 10
317.667805
 20
204.64522
 30
0.0
 11
317.667805
 21
242.64372
 31
0.0
  0
LINE
  5
499
  8
05
 10
332.763111
 20
235.853179
 30
0.0
 11
332.763111
 21
243.14382
 31
0.0
  0
LINE
  5
49A
  8
05
 10
236.638326
 20
246.14372
 30
0.0
 11
236.638326
 21
240.338914
 31
0.0
  0
LINE
  5
49B
  8
05
 10
230.638526
 20
246.14372
 30
0.0
 11
230.638526
 21
240.338914
 31
0.0
  0
LINE
  5
49C
  8
05
 10
283.136776
 20
225.44441
 30
0.0
 11
283.136776
 21
246.14372
 31
0.0
  0
LINE
  5
49D
  8
05
 10
212.639126
 20
223.64447
 30
0.0
 11
212.639126
 21
246.14372
 31
0.0
  0
LINE
  5
49E
  8
05
 10
215.639026
 20
238.64397
 30
0.0
 11
215.639026
 21
246.14372
 31
0.0
  0
LINE
  5
49F
  8
05
 10
227.638626
 20
238.64397
 30
0.0
 11
227.638626
 21
246.14372
 31
0.0
  0
TEXT
  5
4A0
  8
TOL
 10
313.996561
 20
233.325502
 30
0.0
 40
2.5
  1
%%P0.004"
 50
90.0
 41
0.7
 51
15.0
  0
ARC
  5
4A1
  8
05
 10
275.637026
 20
202.210065
 30
0.0
 40
0.6
 50
225.0
 51
315.0
  0
LINE
  5
4A2
  8
05
 10
275.637026
 20
204.310115
 30
0.0
 11
274.137076
 21
205.810065
 31
0.0
  0
ARC
  5
4A3
  8
05
 10
275.637026
 20
204.310115
 30
0.0
 40
0.6
 50
225.0
 51
315.0
  0
ARC
  5
4A4
  8
05
 10
275.637026
 20
216.309715
 30
0.0
 40
0.6
 50
45.0
 51
135.0
  0
LINE
  5
4A5
  8
05
 10
275.637026
 20
216.309715
 30
0.0
 11
274.137076
 21
214.809765
 31
0.0
  0
LINE
  5
4A6
  8
05
 10
283.136776
 20
240.14392
 30
0.0
 11
227.638626
 21
240.14392
 31
0.0
  0
LINE
  5
4A7
  8
05
 10
224.638726
 20
201.14522
 30
0.0
 11
283.136776
 21
201.14522
 31
0.0
  0
LINE
  5
4A8
  8
035
 10
269.982806
 20
228.14432
 30
0.0
 11
276.788911
 21
228.14432
 31
0.0
  0
LINE
  5
4A9
  8
035
 10
269.982806
 20
219.14462
 30
0.0
 11
276.788911
 21
219.14462
 31
0.0
  0
LINE
  5
4AA
  8
035
 62
     3
 10
275.637026
 20
204.310115
 30
0.0
 11
273.688532
 21
207.685004
 31
0.0
  0
LINE
  5
4AB
  8
035
 62
     3
 10
275.637026
 20
216.309715
 30
0.0
 11
273.688532
 21
212.934825
 31
0.0
  0
LINE
  5
4AC
  8
035
 10
274.38084
 20
237.469346
 30
0.0
 11
276.349013
 21
237.469346
 31
0.0
  0
LINE
  5
4AD
  8
035
 10
273.715951
 20
234.470226
 30
0.0
 11
275.684124
 21
234.470226
 31
0.0
  0
LINE
  5
4AE
  8
BEM1
 10
212.639126
 20
200.34522
 30
0.0
 11
212.639126
 21
184.065898
 31
0.0
  0
TEXT
  5
4AF
  8
BEM1
 62
     3
 10
229.01489
 20
186.765277
 30
0.0
 40
3.5
  1
24.00   [0.945"    ]
 41
0.7
 51
15.0
  0
TEXT
  5
4B0
  8
TOL
 10
239.541227
 20
187.407375
 30
0.0
 40
2.5
  1
%%P0.1
 41
0.7
 51
15.0
  0
SOLID
  5
4B1
  8
BEM1
 10
216.139126
 20
184.431943
 30
0.0
 11
216.139126
 21
185.59861
 31
0.0
 12
212.639126
 22
185.015277
 32
0.0
 13
212.639126
 23
185.015277
 33
0.0
  0
TEXT
  5
4B2
  8
TOL
 10
260.334622
 20
187.173958
 30
0.0
 40
2.5
  1
%%P0.004"
 41
0.7
 51
15.0
  0
LINE
  5
4B3
  8
05
 10
241.56244
 20
201.7858
 30
0.0
 11
245.586704
 21
205.810065
 31
0.0
  0
LINE
  5
4B4
  8
05
 10
241.56244
 20
203.88585
 30
0.0
 11
243.486654
 21
205.810065
 31
0.0
  0
LINE
  5
4B5
  8
05
 10
241.56244
 20
216.733979
 30
0.0
 11
243.486654
 21
214.809765
 31
0.0
  0
LINE
  5
4B6
  8
05
 10
241.56244
 20
218.834029
 30
0.0
 11
245.586704
 21
214.809765
 31
0.0
  0
LINE
  5
4B7
  8
05
 10
233.638426
 20
219.14462
 30
0.0
 11
265.771329
 21
219.14462
 31
0.0
  0
LINE
  5
4B8
  8
035
 10
226.138676
 20
220.64457
 30
0.0
 11
257.637626
 21
220.64457
 31
0.0
  0
LINE
  5
4B9
  8
035
 10
226.138676
 20
226.64437
 30
0.0
 11
257.637626
 21
226.64437
 31
0.0
  0
LINE
  5
4BA
  8
05
 10
265.771329
 20
228.14432
 30
0.0
 11
220.138876
 21
228.14432
 31
0.0
  0
LINE
  5
4BB
  8
035
 62
     3
 10
241.138176
 20
204.310115
 30
0.0
 11
243.057662
 21
207.634763
 31
0.0
  0
LINE
  5
4BC
  8
035
 62
     3
 10
241.138176
 20
216.309715
 30
0.0
 11
243.057662
 21
212.985066
 31
0.0
  0
LINE
  5
4BD
  8
05
 10
244.483656
 20
205.810065
 30
0.0
 11
242.004172
 21
205.810065
 31
0.0
  0
LINE
  5
4BE
  8
05
 10
244.483656
 20
214.809765
 30
0.0
 11
242.004172
 21
214.809765
 31
0.0
  0
LINE
  5
4BF
  8
05
 10
240.713912
 20
218.834029
 30
0.0
 11
236.689648
 21
214.809765
 31
0.0
  0
LINE
  5
4C0
  8
05
 10
214.139076
 20
215.344747
 30
0.0
 11
214.139076
 21
227.24435
 31
0.0
  0
LINE
  5
4C1
  8
05
 10
220.138876
 20
215.344747
 30
0.0
 11
220.138876
 21
228.14432
 31
0.0
  0
LINE
  5
4C2
  8
035
 10
232.138476
 20
214.05979
 30
0.0
 11
232.138476
 21
220.64457
 31
0.0
  0
LINE
  5
4C3
  8
05
 10
212.639126
 20
201.14522
 30
0.0
 11
212.639126
 21
223.64447
 31
0.0
  0
LINE
  5
4C4
  8
05
 10
224.638726
 20
201.14522
 30
0.0
 11
224.638726
 21
219.14462
 31
0.0
  0
LINE
  5
4C5
  8
05
 10
233.638426
 20
220.64457
 30
0.0
 11
233.638426
 21
215.55974
 31
0.0
  0
LINE
  5
4C6
  8
035
 10
225.388701
 20
207.310015
 30
0.0
 11
238.973184
 21
207.310015
 31
0.0
  0
LINE
  5
4C7
  8
05
 10
240.272179
 20
205.810065
 30
0.0
 11
225.3887
 21
205.810065
 31
0.0
  0
LINE
  5
4C8
  8
05
 10
215.639026
 20
201.14522
 30
0.0
 11
215.639026
 21
208.64497
 31
0.0
  0
ARC
  5
4C9
  8
05
 10
225.388701
 20
206.56004
 30
0.0
 40
0.749975
 50
180.0
 51
270.0
  0
LINE
  5
4CA
  8
05
 10
212.639126
 20
201.14522
 30
0.0
 11
215.639026
 21
201.14522
 31
0.0
  0
LINE
  5
4CB
  8
05
 10
215.639026
 20
208.64497
 30
0.0
 11
224.638726
 21
208.64497
 31
0.0
  0
LINE
  5
4CC
  8
05
 10
220.138876
 20
215.344747
 30
0.0
 11
214.139076
 21
215.344747
 31
0.0
  0
ARC
  5
4CD
  8
035
 10
225.388701
 20
208.05999
 30
0.0
 40
0.749975
 50
180.0
 51
270.0
  0
LINE
  5
4CE
  8
035
 62
     3
 10
241.138176
 20
204.310115
 30
0.0
 11
239.622682
 21
206.935027
 31
0.0
  0
LINE
  5
4CF
  8
05
 10
240.713912
 20
201.7858
 30
0.0
 11
236.689648
 21
205.810065
 31
0.0
  0
ARC
  5
4D0
  8
05
 10
241.138176
 20
202.210065
 30
0.0
 40
0.6
 50
225.0
 51
315.0
  0
LINE
  5
4D1
  8
05
 10
241.138176
 20
204.310115
 30
0.0
 11
239.638226
 21
205.810065
 31
0.0
  0
LINE
  5
4D2
  8
05
 10
240.713912
 20
203.88585
 30
0.0
 11
238.789698
 21
205.810065
 31
0.0
  0
LINE
  5
4D3
  8
05
 10
241.138176
 20
204.310115
 30
0.0
 11
242.638126
 21
205.810065
 31
0.0
  0
ARC
  5
4D4
  8
05
 10
241.138176
 20
204.310115
 30
0.0
 40
0.6
 50
225.0
 51
315.0
  0
LINE
  5
4D5
  8
035
 10
232.888448
 20
213.309815
 30
0.0
 11
238.973184
 21
213.309815
 31
0.0
  0
LINE
  5
4D6
  8
05
 10
240.272179
 20
214.809765
 30
0.0
 11
234.388401
 21
214.809765
 31
0.0
  0
ARC
  5
4D7
  8
05
 10
234.388401
 20
215.55974
 30
0.0
 40
0.749975
 50
180.0
 51
270.0
  0
ARC
  5
4D8
  8
035
 10
232.888451
 20
214.05979
 30
0.0
 40
0.749975
 50
180.0
 51
270.0
  0
ARC
  5
4D9
  8
035
 10
238.973184
 20
206.56004
 30
0.0
 40
0.749975
 50
30.0
 51
90.0
  0
LINE
  5
4DA
  8
05
 10
241.138176
 20
216.309715
 30
0.0
 11
242.638126
 21
214.809765
 31
0.0
  0
ARC
  5
4DB
  8
05
 10
241.138176
 20
216.309715
 30
0.0
 40
0.6
 50
45.0
 51
135.0
  0
LINE
  5
4DC
  8
05
 10
240.713912
 20
216.733979
 30
0.0
 11
238.789698
 21
214.809765
 31
0.0
  0
LINE
  5
4DD
  8
05
 10
241.138176
 20
216.309715
 30
0.0
 11
239.638226
 21
214.809765
 31
0.0
  0
LINE
  5
4DE
  8
035
 62
     3
 10
241.138176
 20
216.309715
 30
0.0
 11
239.622682
 21
213.684802
 31
0.0
  0
ARC
  5
4DF
  8
035
 10
238.973184
 20
214.05979
 30
0.0
 40
0.749975
 50
270.0
 51
330.0
  0
LINE
  5
4E0
  8
05
 10
215.639026
 20
238.64397
 30
0.0
 11
227.638626
 21
238.64397
 31
0.0
  0
LINE
  5
4E1
  8
035
 10
224.638726
 20
227.24435
 30
0.0
 11
232.138476
 21
227.24435
 31
0.0
  0
LINE
  5
4E2
  8
05
 10
220.138876
 20
227.24435
 30
0.0
 11
214.139076
 21
227.24435
 31
0.0
  0
LINE
  5
4E3
  8
035
 10
226.138676
 20
220.64457
 30
0.0
 11
226.138676
 21
226.64437
 31
0.0
  0
LINE
  5
4E4
  8
035
 10
224.638726
 20
227.24435
 30
0.0
 11
224.638726
 21
219.14462
 31
0.0
  0
LINE
  5
4E5
  8
05
 10
220.138876
 20
219.14462
 30
0.0
 11
224.638726
 21
219.14462
 31
0.0
  0
CIRCLE
  5
4E6
  8
035
 10
229.138576
 20
223.64447
 30
0.0
 40
1.621942
  0
LINE
  5
4E7
  8
05
 10
233.638426
 20
228.14432
 30
0.0
 11
233.638426
 21
226.64437
 31
0.0
  0
LINE
  5
4E8
  8
035
 10
232.138476
 20
226.64437
 30
0.0
 11
232.138476
 21
227.24435
 31
0.0
  0
ARC
  5
4E9
  8
05
 10
241.138176
 20
218.409765
 30
0.0
 40
0.6
 50
45.0
 51
135.0
  0
LINE
  5
4EA
  8
05
 10
230.638526
 20
240.338914
 30
0.0
 11
236.638326
 21
240.338914
 31
0.0
  0
LINE
  5
4EB
  8
05
 62
     3
 10
230.638526
 20
241.238884
 30
0.0
 11
236.638326
 21
241.238884
 31
0.0
  0
CIRCLE
  5
4EC
  8
035
 62
     4
 10
230.900357
 20
236.233356
 30
0.0
 40
2.1
  0
CIRCLE
  5
4ED
  8
035
 62
     4
 10
230.900357
 20
236.233356
 30
0.0
 40
1.8
  0
ARC
  5
4EE
  8
035
 62
     4
 10
230.900357
 20
236.233356
 30
0.0
 40
1.35
 50
150.577083
 51
217.724479
  0
LINE
  5
4EF
  8
035
 62
     4
 10
230.780357
 20
234.99737
 30
0.0
 11
230.780357
 21
237.267812
 31
0.0
  0
LINE
  5
4F0
  8
035
 62
     4
 10
231.020357
 20
234.99737
 30
0.0
 11
231.020357
 21
237.267812
 31
0.0
  0
ARC
  5
4F1
  8
035
 62
     4
 10
229.93154
 20
235.485313
 30
0.0
 40
0.114
 50
313.016562
 51
37.672445
  0
ARC
  5
4F2
  8
035
 62
     4
 10
231.976935
 20
235.626168
 30
0.0
 40
0.114
 50
240.855218
 51
330.577083
  0
INSERT
  5
4F3
  8
035
 62
     4
  2
*X0
 10
198.580802
 20
115.324207
 30
0.0
 41
0.6
 42
0.6
 43
0.6
  0
INSERT
  5
52B
  8
035
 62
     4
  2
*X1
 10
198.580802
 20
115.324207
 30
0.0
 41
0.6
 42
0.6
 43
0.6
  0
LINE
  5
53C
  8
0
 62
     4
 10
230.780357
 20
235.346424
 30
0.0
 11
231.020357
 21
235.586424
 31
0.0
  0
LINE
  5
53D
  8
035
 62
     4
 10
230.009312
 20
235.401961
 30
0.0
 11
230.0005
 21
235.393739
 31
0.0
  0
ARC
  5
53E
  8
035
 62
     4
 10
229.922728
 20
235.477091
 30
0.0
 40
0.114
 50
217.724479
 51
313.016562
  0
ARC
  5
53F
  8
035
 62
     4
 10
230.900357
 20
236.233356
 30
0.0
 40
1.35
 50
269.721864
 51
270.278136
  0
ARC
  5
540
  8
035
 62
     4
 10
230.894357
 20
234.99737
 30
0.0
 40
0.114
 50
180.0
 51
269.721864
  0
ARC
  5
541
  8
035
 62
     4
 10
230.906357
 20
234.99737
 30
0.0
 40
0.114
 50
270.278136
 51
0.0
  0
LINE
  5
542
  8
0
 62
     4
 10
230.780357
 20
235.134292
 30
0.0
 11
231.020357
 21
235.374292
 31
0.0
  0
LINE
  5
543
  8
0
 62
     4
 10
230.79672
 20
234.938523
 30
0.0
 11
231.020357
 21
235.16216
 31
0.0
  0
ARC
  5
544
  8
035
 62
     4
 10
230.900357
 20
236.233356
 30
0.0
 40
0.45
 50
150.245677
 51
151.46476
  0
ARC
  5
545
  8
035
 62
     4
 10
230.900357
 20
236.233356
 30
0.0
 40
1.35
 50
58.909008
 51
126.716102
  0
ARC
  5
546
  8
035
 62
     4
 10
230.900357
 20
236.233356
 30
0.0
 40
1.11
 50
99.87089
 51
126.664068
  0
ARC
  5
547
  8
035
 62
     4
 10
230.40487
 20
236.502778
 30
0.0
 40
0.114
 50
240.855218
 51
331.46476
  0
ARC
  5
548
  8
035
 62
     4
 10
230.410714
 20
236.513259
 30
0.0
 40
0.114
 50
330.245677
 51
60.855218
  0
LINE
  5
549
  8
0
 62
     4
 10
230.208586
 20
237.108105
 30
0.0
 11
230.662765
 21
237.562284
 31
0.0
  0
LINE
  5
54A
  8
035
 62
     4
 10
230.084772
 20
237.138895
 30
0.0
 11
230.076706
 21
237.14785
 31
0.0
  0
ARC
  5
54B
  8
035
 62
     4
 10
230.900357
 20
236.233356
 30
0.0
 40
1.11
 50
160.726108
 51
217.672445
  0
LINE
  5
54C
  8
035
 62
     4
 10
229.938429
 20
236.632348
 30
0.0
 11
230.34935
 21
236.403212
 31
0.0
  0
LINE
  5
54D
  8
035
 62
     4
 10
229.8793
 20
236.94011
 30
0.0
 11
230.466234
 21
236.612826
 31
0.0
  0
ARC
  5
54E
  8
035
 62
     4
 10
229.82378
 20
236.840544
 30
0.0
 40
0.114
 50
60.855218
 51
150.577083
  0
ARC
  5
54F
  8
035
 62
     4
 10
230.161414
 20
237.224143
 30
0.0
 40
0.114
 50
126.716102
 51
222.008185
  0
ARC
  5
550
  8
035
 62
     4
 10
230.16948
 20
237.215188
 30
0.0
 40
0.114
 50
222.008185
 51
306.664068
  0
ARC
  5
551
  8
035
 62
     4
 10
229.909208
 20
236.579944
 30
0.0
 40
0.06
 50
60.855218
 51
160.726108
  0
LINE
  5
552
  8
0
 62
     4
 10
230.060144
 20
237.171795
 30
0.0
 11
230.357944
 21
237.469595
 31
0.0
  0
ARC
  5
553
  8
035
 62
     4
 10
230.900357
 20
236.233356
 30
0.0
 40
1.35
 50
330.577083
 51
35.346236
  0
LINE
  5
554
  8
035
 62
     4
 10
231.623255
 20
237.214477
 30
0.0
 11
231.630404
 21
237.22418
 31
0.0
  0
LINE
  5
555
  8
035
 62
     4
 10
231.825135
 20
237.02706
 30
0.0
 11
231.83428
 21
237.034909
 31
0.0
  0
ARC
  5
556
  8
035
 62
     4
 10
230.900357
 20
236.233356
 30
0.0
 40
0.45
 50
330.245677
 51
331.46476
  0
ARC
  5
557
  8
035
 62
     4
 10
230.900357
 20
236.233356
 30
0.0
 40
1.11
 50
58.961019
 51
80.12911
  0
ARC
  5
558
  8
035
 62
     4
 10
230.900357
 20
236.233356
 30
0.0
 40
1.11
 50
340.726108
 51
35.294203
  0
LINE
  5
559
  8
035
 62
     4
 10
231.451365
 20
236.0635
 30
0.0
 11
231.862285
 21
235.834364
 31
0.0
  0
LINE
  5
55A
  8
035
 62
     4
 10
231.33448
 20
235.853886
 30
0.0
 11
231.921415
 21
235.526601
 31
0.0
  0
ARC
  5
55B
  8
035
 62
     4
 10
231.538626
 20
237.291802
 30
0.0
 40
0.114
 50
323.616924
 51
58.909008
  0
ARC
  5
55C
  8
035
 62
     4
 10
231.531477
 20
237.2821
 30
0.0
 40
0.114
 50
238.961041
 51
323.616924
  0
ARC
  5
55D
  8
035
 62
     4
 10
231.899381
 20
236.940553
 30
0.0
 40
0.114
 50
130.63832
 51
215.294203
  0
ARC
  5
55E
  8
035
 62
     4
 10
231.908527
 20
236.948402
 30
0.0
 40
0.114
 50
35.346236
 51
130.63832
  0
ARC
  5
55F
  8
035
 62
     4
 10
231.39
 20
235.953453
 30
0.0
 40
0.114
 50
150.245677
 51
240.855218
  0
ARC
  5
560
  8
035
 62
     4
 10
231.395844
 20
235.963934
 30
0.0
 40
0.114
 50
60.855218
 51
151.46476
  0
ARC
  5
561
  8
035
 62
     4
 10
230.720357
 20
237.267812
 30
0.0
 40
0.06
 50
0.0
 51
99.87089
  0
ARC
  5
562
  8
035
 62
     4
 10
231.080357
 20
237.267812
 30
0.0
 40
0.06
 50
80.12911
 51
180.0
  0
ARC
  5
563
  8
035
 62
     4
 10
231.891506
 20
235.886767
 30
0.0
 40
0.06
 50
240.855218
 51
340.726108
  0
LINE
  5
564
  8
0
 62
     4
 10
230.780357
 20
235.98282
 30
0.0
 11
231.020357
 21
236.22282
 31
0.0
  0
LINE
  5
565
  8
0
 62
     4
 10
230.780357
 20
236.194952
 30
0.0
 11
231.020357
 21
236.434952
 31
0.0
  0
LINE
  5
566
  8
0
 62
     4
 10
230.780357
 20
236.407084
 30
0.0
 11
231.020357
 21
236.647084
 31
0.0
  0
LINE
  5
567
  8
0
 62
     4
 10
231.541845
 20
237.168572
 30
0.0
 11
231.651857
 21
237.278584
 31
0.0
  0
LINE
  5
568
  8
0
 62
     4
 10
230.780357
 20
236.619216
 30
0.0
 11
231.020357
 21
236.859216
 31
0.0
  0
LINE
  5
569
  8
0
 62
     4
 10
231.390446
 20
237.229304
 30
0.0
 11
231.567903
 21
237.406762
 31
0.0
  0
LINE
  5
56A
  8
0
 62
     4
 10
230.780357
 20
236.831348
 30
0.0
 11
231.020357
 21
237.071348
 31
0.0
  0
LINE
  5
56B
  8
0
 62
     4
 10
231.239338
 20
237.290329
 30
0.0
 11
231.425879
 21
237.47687
 31
0.0
  0
LINE
  5
56C
  8
0
 62
     4
 10
230.780357
 20
237.04348
 30
0.0
 11
231.023325
 21
237.286447
 31
0.0
  0
LINE
  5
56D
  8
0
 62
     4
 10
231.061722
 20
237.324845
 30
0.0
 11
231.268942
 21
237.532065
 31
0.0
  0
LINE
  5
56E
  8
0
 62
     4
 10
230.780357
 20
237.255612
 30
0.0
 11
231.094123
 21
237.569378
 31
0.0
  0
LINE
  5
56F
  8
0
 62
     4
 10
230.619973
 20
237.30736
 30
0.0
 11
230.895962
 21
237.583349
 31
0.0
  0
LINE
  5
570
  8
0
 62
     4
 10
230.780357
 20
235.770688
 30
0.0
 11
231.020357
 21
236.010688
 31
0.0
  0
LINE
  5
571
  8
0
 62
     4
 10
230.780357
 20
235.558556
 30
0.0
 11
231.020357
 21
235.798556
 31
0.0
  0
LINE
  5
572
  8
0
 62
     4
 10
231.308094
 20
235.87416
 30
0.0
 11
231.480941
 21
236.047008
 31
0.0
  0
LINE
  5
573
  8
0
 62
     4
 10
231.968662
 20
236.534728
 30
0.0
 11
232.158011
 21
236.724077
 31
0.0
  0
LINE
  5
574
  8
0
 62
     4
 10
231.911991
 20
236.69019
 30
0.0
 11
232.091157
 21
236.869356
 31
0.0
  0
LINE
  5
575
  8
0
 62
     4
 10
231.837651
 20
236.827982
 30
0.0
 11
232.010784
 21
237.001114
 31
0.0
  0
LINE
  5
576
  8
0
 62
     4
 10
231.440714
 20
235.794648
 30
0.0
 11
231.617131
 21
235.971066
 31
0.0
  0
LINE
  5
577
  8
0
 62
     4
 10
232.003411
 20
236.357345
 30
0.0
 11
232.209406
 21
236.563341
 31
0.0
  0
LINE
  5
578
  8
0
 62
     4
 10
231.576904
 20
235.718707
 30
0.0
 11
231.753321
 21
235.895124
 31
0.0
  0
LINE
  5
579
  8
0
 62
     4
 10
232.007143
 20
236.148946
 30
0.0
 11
232.241953
 21
236.383756
 31
0.0
  0
LINE
  5
57A
  8
0
 62
     4
 10
231.713094
 20
235.642765
 30
0.0
 11
231.897386
 21
235.827056
 31
0.0
  0
LINE
  5
57B
  8
0
 62
     4
 10
231.953756
 20
235.883427
 30
0.0
 11
232.24926
 21
236.17893
 31
0.0
  0
LINE
  5
57C
  8
0
 62
     4
 10
231.849284
 20
235.566823
 30
0.0
 11
232.216833
 21
235.934371
 31
0.0
  0
LINE
  5
57D
  8
0
 62
     4
 10
232.012428
 20
235.517834
 30
0.0
 11
232.090245
 21
235.595652
 31
0.0
  0
LINE
  5
57E
  8
035
 10
235.383447
 20
234.470226
 30
0.0
 11
236.048336
 21
237.469346
 31
0.0
  0
LINE
  5
57F
  8
035
 10
237.445342
 20
234.470226
 30
0.0
 11
237.819342
 21
236.157231
 31
0.0
  0
LINE
  5
580
  8
035
 10
242.037745
 20
234.470226
 30
0.0
 11
242.702634
 21
237.469346
 31
0.0
  0
LINE
  5
581
  8
035
 10
237.819342
 20
236.157231
 30
0.0
 11
239.694682
 21
234.470226
 31
0.0
  0
LINE
  5
582
  8
035
 10
235.383447
 20
234.470226
 30
0.0
 11
237.445342
 21
234.470226
 31
0.0
  0
LINE
  5
583
  8
035
 10
239.694682
 20
234.470226
 30
0.0
 11
242.037745
 21
234.470226
 31
0.0
  0
LINE
  5
584
  8
035
 10
238.485121
 20
237.469346
 30
0.0
 11
240.34985
 21
236.157231
 31
0.0
  0
LINE
  5
585
  8
035
 10
236.048336
 20
237.469346
 30
0.0
 11
238.485121
 21
237.469346
 31
0.0
  0
LINE
  5
586
  8
035
 10
240.34985
 20
236.157231
 30
0.0
 11
240.640738
 21
237.469346
 31
0.0
  0
LINE
  5
587
  8
035
 10
240.640738
 20
237.469346
 30
0.0
 11
242.702634
 21
237.469346
 31
0.0
  0
LINE
  5
588
  8
05
 10
266.213062
 20
215.120356
 30
0.0
 11
262.188798
 21
219.14462
 31
0.0
  0
LINE
  5
589
  8
05
 10
266.213062
 20
217.220406
 30
0.0
 11
264.288848
 21
219.14462
 31
0.0
  0
LINE
  5
58A
  8
05
 10
266.637326
 20
217.64467
 30
0.0
 11
265.137376
 21
219.14462
 31
0.0
  0
LINE
  5
58B
  8
05
 10
266.637326
 20
217.64467
 30
0.0
 11
268.137276
 21
219.14462
 31
0.0
  0
LINE
  5
58C
  8
05
 10
267.06159
 20
217.220406
 30
0.0
 11
268.985804
 21
219.14462
 31
0.0
  0
LINE
  5
58D
  8
05
 10
267.06159
 20
215.120356
 30
0.0
 11
271.085854
 21
219.14462
 31
0.0
  0
LINE
  5
58E
  8
05
 10
275.523353
 20
219.14462
 30
0.0
 11
271.188498
 21
214.809765
 31
0.0
  0
LINE
  5
58F
  8
035
 62
     3
 10
266.637326
 20
217.64467
 30
0.0
 11
268.556813
 21
220.969319
 31
0.0
  0
LINE
  5
590
  8
035
 62
     3
 10
266.637326
 20
217.64467
 30
0.0
 11
265.121832
 21
220.269583
 31
0.0
  0
LINE
  5
591
  8
035
 10
244.483656
 20
205.810065
 30
0.0
 11
272.289061
 21
205.810065
 31
0.0
  0
LINE
  5
592
  8
035
 10
244.483656
 20
214.809765
 30
0.0
 11
272.289061
 21
214.809765
 31
0.0
  0
LINE
  5
593
  8
035
 10
244.483656
 20
207.310015
 30
0.0
 11
244.483656
 21
205.810065
 31
0.0
  0
ARC
  5
594
  8
035
 62
     3
 10
243.733681
 20
207.310015
 30
0.0
 40
0.749975
 50
0.0
 51
154.341094
  0
LINE
  5
595
  8
035
 10
244.483656
 20
213.309815
 30
0.0
 11
244.483656
 21
214.809765
 31
0.0
  0
ARC
  5
596
  8
035
 62
     3
 10
243.733681
 20
213.309815
 30
0.0
 40
0.749975
 50
205.658906
 51
0.0
  0
LINE
  5
597
  8
035
 10
272.289061
 20
207.310015
 30
0.0
 11
272.289061
 21
205.810065
 31
0.0
  0
LINE
  5
598
  8
05
 10
275.212762
 20
201.7858
 30
0.0
 11
271.188498
 21
205.810065
 31
0.0
  0
LINE
  5
599
  8
05
 10
275.212762
 20
203.88585
 30
0.0
 11
273.288548
 21
205.810065
 31
0.0
  0
LINE
  5
59A
  8
05
 10
274.768545
 20
205.810065
 30
0.0
 11
272.289061
 21
205.810065
 31
0.0
  0
ARC
  5
59B
  8
05
 10
266.637326
 20
215.54462
 30
0.0
 40
0.6
 50
225.0
 51
315.0
  0
ARC
  5
59C
  8
05
 10
266.637326
 20
217.64467
 30
0.0
 40
0.6
 50
225.0
 51
315.0
  0
ARC
  5
59D
  8
035
 62
     3
 10
273.039036
 20
207.310015
 30
0.0
 40
0.749975
 50
30.0
 51
180.0
  0
LINE
  5
59E
  8
05
 10
275.212762
 20
216.733979
 30
0.0
 11
273.288548
 21
214.809765
 31
0.0
  0
ARC
  5
59F
  8
035
 62
     3
 10
273.039036
 20
213.309815
 30
0.0
 40
0.749975
 50
180.0
 51
330.0
  0
LINE
  5
5A0
  8
035
 10
272.289061
 20
213.309815
 30
0.0
 11
272.289061
 21
214.809765
 31
0.0
  0
LINE
  5
5A1
  8
05
 10
274.768545
 20
214.809765
 30
0.0
 11
272.289061
 21
214.809765
 31
0.0
  0
LINE
  5
5A2
  8
035
 10
257.637626
 20
220.64457
 30
0.0
 11
264.472337
 21
220.64457
 31
0.0
  0
LINE
  5
5A3
  8
035
 10
257.637626
 20
226.64437
 30
0.0
 11
264.472334
 21
226.64437
 31
0.0
  0
LINE
  5
5A4
  8
035
 10
258.439183
 20
234.470226
 30
0.0
 11
260.501078
 21
234.470226
 31
0.0
  0
LINE
  5
5A5
  8
035
 10
257.229622
 20
237.469346
 30
0.0
 11
263.13414
 21
237.469346
 31
0.0
  0
LINE
  5
5A6
  8
05
 10
248.637926
 20
219.14462
 30
0.0
 11
248.637926
 21
220.64457
 31
0.0
  0
LINE
  5
5A7
  8
05
 10
248.637926
 20
226.64437
 30
0.0
 11
248.637926
 21
228.14432
 31
0.0
  0
LINE
  5
5A8
  8
05
 10
257.637626
 20
220.64457
 30
0.0
 11
257.637626
 21
219.14462
 31
0.0
  0
LINE
  5
5A9
  8
05
 10
257.637626
 20
228.14432
 30
0.0
 11
257.637626
 21
226.64437
 31
0.0
  0
LINE
  5
5AA
  8
035
 10
250.294156
 20
237.469346
 30
0.0
 11
252.350859
 21
237.469346
 31
0.0
  0
POLYLINE
  5
5AB
  8
035
 66
     1
 10
0.0
 20
0.0
 30
0.0
  0
VERTEX
  5
728
  8
035
 10
249.824601
 20
235.313729
 30
0.0
 42
0.242955
  0
VERTEX
  5
729
  8
035
 10
249.9692
 20
235.033712
 30
0.0
 42
0.083039
  0
VERTEX
  5
72A
  8
035
 10
250.757924
 20
234.651011
 30
0.0
 42
0.041229
  0
VERTEX
  5
72B
  8
035
 10
251.702684
 20
234.455915
 30
0.0
 42
0.030317
  0
VERTEX
  5
72C
  8
035
 10
253.011166
 20
234.376504
 30
0.0
 42
0.030317
  0
VERTEX
  5
72D
  8
035
 10
254.319649
 20
234.455915
 30
0.0
 42
0.041229
  0
VERTEX
  5
72E
  8
035
 10
255.264408
 20
234.651011
 30
0.0
 42
0.083039
  0
VERTEX
  5
72F
  8
035
 10
256.053133
 20
235.033712
 30
0.0
 42
0.186877
  0
VERTEX
  5
730
  8
035
 10
256.189871
 20
235.240672
 30
0.0
 42
0.242955
  0
SEQEND
  5
731
  8
035
  0
LINE
  5
5AC
  8
035
 10
243.068692
 20
234.470226
 30
0.0
 11
243.733581
 21
237.469346
 31
0.0
  0
LINE
  5
5AD
  8
035
 10
245.288498
 20
235.182517
 30
0.0
 11
245.384076
 21
235.613641
 31
0.0
  0
LINE
  5
5AE
  8
035
 10
249.832363
 20
235.386332
 30
0.0
 11
250.294156
 21
237.469346
 31
0.0
  0
LINE
  5
5AF
  8
035
 10
245.288498
 20
235.182517
 30
0.0
 11
248.849954
 21
235.182517
 31
0.0
  0
LINE
  5
5B0
  8
035
 10
243.068692
 20
234.470226
 30
0.0
 11
248.692042
 21
234.470226
 31
0.0
  0
LINE
  5
5B1
  8
035
 10
248.692042
 20
234.470226
 30
0.0
 11
248.849954
 21
235.182517
 31
0.0
  0
POLYLINE
  5
5B2
  8
035
 66
     1
 10
0.0
 20
0.0
 30
0.0
  0
VERTEX
  5
732
  8
035
 10
249.832363
 20
235.386332
 30
0.0
 42
0.053304
  0
VERTEX
  5
733
  8
035
 10
249.824601
 20
235.313729
 30
0.0
 42
0.242955
  0
SEQEND
  5
734
  8
035
  0
LINE
  5
5B3
  8
035
 10
245.637565
 20
236.757055
 30
0.0
 11
249.19902
 21
236.757055
 31
0.0
  0
LINE
  5
5B4
  8
035
 10
243.733581
 20
237.469346
 30
0.0
 11
249.356931
 21
237.469346
 31
0.0
  0
LINE
  5
5B5
  8
035
 10
245.541987
 20
236.325932
 30
0.0
 11
248.822275
 21
236.325932
 31
0.0
  0
LINE
  5
5B6
  8
035
 10
245.384076
 20
235.613641
 30
0.0
 11
248.664364
 21
235.613641
 31
0.0
  0
LINE
  5
5B7
  8
035
 10
245.541987
 20
236.325932
 30
0.0
 11
245.637565
 21
236.757055
 31
0.0
  0
LINE
  5
5B8
  8
035
 10
248.664364
 20
235.613641
 30
0.0
 11
248.822275
 21
236.325932
 31
0.0
  0
LINE
  5
5B9
  8
035
 10
249.19902
 20
236.757055
 30
0.0
 11
249.356931
 21
237.469346
 31
0.0
  0
LINE
  5
5BA
  8
035
 10
256.189871
 20
235.240672
 30
0.0
 11
256.683956
 21
237.469346
 31
0.0
  0
POLYLINE
  5
5BB
  8
035
 66
     1
 10
0.0
 20
0.0
 30
0.0
  0
VERTEX
  5
735
  8
035
 10
251.940496
 20
235.594896
 30
0.0
 42
0.199105
  0
VERTEX
  5
736
  8
035
 10
252.003512
 20
235.442921
 30
0.0
 42
0.098437
  0
VERTEX
  5
737
  8
035
 10
252.272345
 20
235.263537
 30
0.0
 42
0.055684
  0
VERTEX
  5
738
  8
035
 10
252.611991
 20
235.165531
 30
0.0
 42
0.042444
  0
VERTEX
  5
739
  8
035
 10
253.073501
 20
235.126284
 30
0.0
 42
0.042444
  0
VERTEX
  5
73A
  8
035
 10
253.535011
 20
235.165531
 30
0.0
 42
0.055684
  0
VERTEX
  5
73B
  8
035
 10
253.874656
 20
235.263537
 30
0.0
 42
0.098437
  0
VERTEX
  5
73C
  8
035
 10
254.143489
 20
235.442921
 30
0.0
 42
0.141327
  0
VERTEX
  5
73D
  8
035
 10
254.201114
 20
235.547075
 30
0.0
 42
0.199105
  0
SEQEND
  5
73E
  8
035
  0
LINE
  5
5BC
  8
035
 10
258.439183
 20
234.470226
 30
0.0
 11
258.93785
 21
236.719566
 31
0.0
  0
LINE
  5
5BD
  8
035
 10
254.627271
 20
237.469346
 30
0.0
 11
256.683956
 21
237.469346
 31
0.0
  0
LINE
  5
5BE
  8
035
 10
251.94626
 20
235.644318
 30
0.0
 11
252.350859
 21
237.469346
 31
0.0
  0
LINE
  5
5BF
  8
035
 10
254.201114
 20
235.547075
 30
0.0
 11
254.627271
 21
237.469346
 31
0.0
  0
POLYLINE
  5
5C0
  8
035
 66
     1
 10
0.0
 20
0.0
 30
0.0
  0
VERTEX
  5
73F
  8
035
 10
251.94626
 20
235.644318
 30
0.0
 42
0.058115
  0
VERTEX
  5
740
  8
035
 10
251.940496
 20
235.594896
 30
0.0
 42
0.199105
  0
SEQEND
  5
741
  8
035
  0
LINE
  5
5C1
  8
035
 10
257.0634
 20
236.719566
 30
0.0
 11
257.229622
 21
237.469346
 31
0.0
  0
LINE
  5
5C2
  8
035
 10
257.0634
 20
236.719566
 30
0.0
 11
258.93785
 21
236.719566
 31
0.0
  0
LINE
  5
5C3
  8
05
 10
267.06159
 20
232.168584
 30
0.0
 11
271.085854
 21
228.14432
 31
0.0
  0
LINE
  5
5C4
  8
05
 10
266.213062
 20
232.168584
 30
0.0
 11
262.188798
 21
228.14432
 31
0.0
  0
LINE
  5
5C5
  8
05
 10
266.213062
 20
230.068534
 30
0.0
 11
264.288848
 21
228.14432
 31
0.0
  0
LINE
  5
5C6
  8
05
 10
267.06159
 20
230.068534
 30
0.0
 11
268.985804
 21
228.14432
 31
0.0
  0
LINE
  5
5C7
  8
05
 10
266.637326
 20
229.64427
 30
0.0
 11
268.137276
 21
228.14432
 31
0.0
  0
LINE
  5
5C8
  8
035
 62
     3
 10
266.637326
 20
229.64427
 30
0.0
 11
268.556813
 21
226.319621
 31
0.0
  0
LINE
  5
5C9
  8
05
 10
265.137376
 20
220.24266
 30
0.0
 11
265.137376
 21
219.14462
 31
0.0
  0
ARC
  5
5CA
  8
035
 10
264.472334
 20
219.894595
 30
0.0
 40
0.749975
 50
30.0
 51
90.0
  0
LINE
  5
5CB
  8
05
 10
266.637326
 20
229.64427
 30
0.0
 11
265.137376
 21
228.14432
 31
0.0
  0
LINE
  5
5CC
  8
05
 10
265.137376
 20
228.14432
 30
0.0
 11
265.137376
 21
227.04628
 31
0.0
  0
LINE
  5
5CD
  8
035
 62
     3
 10
266.637326
 20
229.64427
 30
0.0
 11
265.121832
 21
227.019358
 31
0.0
  0
ARC
  5
5CE
  8
035
 10
264.472334
 20
227.394345
 30
0.0
 40
0.749975
 50
270.0
 51
330.0
  0
ARC
  5
5CF
  8
035
 62
     3
 10
269.232831
 20
220.64457
 30
0.0
 40
0.749975
 50
0.0
 51
154.341094
  0
LINE
  5
5D0
  8
035
 10
269.982806
 20
220.64457
 30
0.0
 11
269.982806
 21
219.14462
 31
0.0
  0
LINE
  5
5D1
  8
05
 10
267.503322
 20
219.14462
 30
0.0
 11
269.982806
 21
219.14462
 31
0.0
  0
ARC
  5
5D2
  8
035
 62
     3
 10
269.232831
 20
226.64437
 30
0.0
 40
0.749975
 50
205.658906
 51
0.0
  0
LINE
  5
5D3
  8
035
 10
269.982806
 20
226.64437
 30
0.0
 11
269.982806
 21
228.14432
 31
0.0
  0
LINE
  5
5D4
  8
05
 10
269.982806
 20
228.14432
 30
0.0
 11
267.503322
 21
228.14432
 31
0.0
  0
LINE
  5
5D5
  8
035
 10
263.790197
 20
237.469346
 30
0.0
 11
269.052139
 21
237.469346
 31
0.0
  0
LINE
  5
5D6
  8
035
 10
265.694181
 20
236.757055
 30
0.0
 11
267.432494
 21
236.757055
 31
0.0
  0
ARC
  5
5D7
  8
035
 10
267.810813
 20
234.715254
 30
0.0
 40
0.451324
 50
180.772005
 51
212.881875
  0
POLYLINE
  5
5D8
  8
035
 66
     1
 10
0.0
 20
0.0
 30
0.0
  0
VERTEX
  5
742
  8
035
 10
267.155088
 20
236.119742
 30
0.0
 42
0.065514
  0
VERTEX
  5
743
  8
035
 10
267.372944
 20
236.14918
 30
0.0
 42
0.060566
  0
VERTEX
  5
744
  8
035
 10
267.561417
 20
236.225067
 30
0.0
 42
0.073981
  0
VERTEX
  5
745
  8
035
 10
267.693925
 20
236.326106
 30
0.0
 42
0.106894
  0
VERTEX
  5
746
  8
035
 10
267.776787
 20
236.458668
 30
0.0
 42
0.153048
  0
VERTEX
  5
747
  8
035
 10
267.781419
 20
236.569051
 30
0.0
 42
0.153048
  0
VERTEX
  5
748
  8
035
 10
267.722216
 20
236.66233
 30
0.0
 42
0.106894
  0
VERTEX
  5
749
  8
035
 10
267.584175
 20
236.735701
 30
0.0
 42
0.067948
  0
VERTEX
  5
74A
  8
035
 10
267.432494
 20
236.757055
 30
0.0
 42
0.060506
  0
SEQEND
  5
74B
  8
035
  0
LINE
  5
5D9
  8
035
 10
260.501078
 20
234.470226
 30
0.0
 11
260.999745
 21
236.719566
 31
0.0
  0
LINE
  5
5DA
  8
035
 10
263.125308
 20
234.470226
 30
0.0
 11
263.790197
 21
237.469346
 31
0.0
  0
LINE
  5
5DB
  8
035
 10
263.125308
 20
234.470226
 30
0.0
 11
265.187203
 21
234.470226
 31
0.0
  0
ARC
  5
5DC
  8
05
 10
266.637326
 20
231.74432
 30
0.0
 40
0.6
 50
45.0
 51
135.0
  0
ARC
  5
5DD
  8
05
 10
266.637326
 20
229.64427
 30
0.0
 40
0.6
 50
45.0
 51
135.0
  0
LINE
  5
5DE
  8
035
 10
265.187203
 20
234.470226
 30
0.0
 11
265.394981
 21
235.407451
 31
0.0
  0
LINE
  5
5DF
  8
035
 10
267.35953
 20
234.709173
 30
0.0
 11
267.397278
 21
235.258567
 31
0.0
  0
LINE
  5
5E0
  8
035
 10
265.394981
 20
235.407451
 30
0.0
 11
267.184393
 21
235.407451
 31
0.0
  0
POLYLINE
  5
5E1
  8
035
 66
     1
 10
0.0
 20
0.0
 30
0.0
  0
VERTEX
  5
74C
  8
035
 10
267.397278
 20
235.258567
 30
0.0
 42
0.082344
  0
VERTEX
  5
74D
  8
035
 10
267.393749
 20
235.294649
 30
0.0
 42
0.153048
  0
VERTEX
  5
74E
  8
035
 10
267.358227
 20
235.350616
 30
0.0
 42
0.106894
  0
VERTEX
  5
74F
  8
035
 10
267.275402
 20
235.394638
 30
0.0
 42
0.067948
  0
VERTEX
  5
750
  8
035
 10
267.184393
 20
235.407451
 30
0.0
 42
0.060506
  0
SEQEND
  5
751
  8
035
  0
LINE
  5
5E2
  8
035
 10
262.967917
 20
236.719566
 30
0.0
 11
263.13414
 21
237.469346
 31
0.0
  0
LINE
  5
5E3
  8
035
 10
260.999745
 20
236.719566
 30
0.0
 11
262.967917
 21
236.719566
 31
0.0
  0
LINE
  5
5E4
  8
035
 10
265.552892
 20
236.119742
 30
0.0
 11
267.155088
 21
236.119742
 31
0.0
  0
LINE
  5
5E5
  8
035
 10
265.552892
 20
236.119742
 30
0.0
 11
265.694181
 21
236.757055
 31
0.0
  0
POLYLINE
  5
5E6
  8
035
 66
     1
 10
0.0
 20
0.0
 30
0.0
  0
VERTEX
  5
752
  8
035
 10
269.475501
 20
235.482505
 30
0.0
 42
0.084831
  0
VERTEX
  5
753
  8
035
 10
269.464792
 20
235.597896
 30
0.0
 42
0.153048
  0
VERTEX
  5
754
  8
035
 10
269.35453
 20
235.771621
 30
0.0
 42
0.025315
  0
VERTEX
  5
755
  8
035
 10
269.299085
 20
235.813849
 30
0.0
 42
0.067948
  0
SEQEND
  5
756
  8
035
  0
LINE
  5
5E7
  8
035
 10
270.435663
 20
234.470226
 30
0.0
 11
271.100552
 21
237.469346
 31
0.0
  0
LINE
  5
5E8
  8
035
 10
272.497559
 20
234.470226
 30
0.0
 11
273.162448
 21
237.469346
 31
0.0
  0
LINE
  5
5E9
  8
035
 10
273.715951
 20
234.470226
 30
0.0
 11
274.38084
 21
237.469346
 31
0.0
  0
LINE
  5
5EA
  8
035
 10
270.435663
 20
234.470226
 30
0.0
 11
272.497559
 21
234.470226
 31
0.0
  0
LINE
  5
5EB
  8
035
 10
269.426663
 20
234.784083
 30
0.0
 11
269.475501
 21
235.482505
 31
0.0
  0
ARC
  5
5EC
  8
035
 10
269.894134
 20
234.751394
 30
0.0
 40
0.468613
 50
176.0
 51
216.869898
  0
LINE
  5
5ED
  8
035
 10
267.431795
 20
234.470226
 30
0.0
 11
269.519244
 21
234.470226
 31
0.0
  0
LINE
  5
5EE
  8
035
 10
271.100552
 20
237.469346
 30
0.0
 11
273.162448
 21
237.469346
 31
0.0
  0
POLYLINE
  5
5EF
  8
035
 66
     1
 10
0.0
 20
0.0
 30
0.0
  0
VERTEX
  5
757
  8
035
 10
269.299085
 20
235.813849
 30
0.0
 42
0.015369
  0
VERTEX
  5
758
  8
035
 10
269.436317
 20
235.884083
 30
0.0
 42
0.073981
  0
VERTEX
  5
759
  8
035
 10
269.831175
 20
236.185168
 30
0.0
 42
0.106894
  0
VERTEX
  5
75A
  8
035
 10
270.078095
 20
236.580186
 30
0.0
 42
0.153048
  0
VERTEX
  5
75B
  8
035
 10
270.091898
 20
236.909116
 30
0.0
 42
0.153048
  0
VERTEX
  5
75C
  8
035
 10
269.915479
 20
237.187076
 30
0.0
 42
0.106894
  0
VERTEX
  5
75D
  8
035
 10
269.504131
 20
237.405711
 30
0.0
 42
0.067948
  0
VERTEX
  5
75E
  8
035
 10
269.052139
 20
237.469346
 30
0.0
 42
0.060566
  0
SEQEND
  5
75F
  8
035
  0
LINE
  5
5F0
  8
BEM1
 10
284.636726
 20
201.11689
 30
0.0
 11
284.636726
 21
184.065898
 31
0.0
  0
LINE
  5
5F1
  8
BEM1
 10
331.563111
 20
199.817337
 30
0.0
 11
331.563111
 21
191.332097
 31
0.0
  0
SOLID
  5
5F2
  8
BEM1
 10
281.136726
 20
184.431943
 30
0.0
 11
281.136726
 21
185.59861
 31
0.0
 12
284.636726
 22
185.015277
 32
0.0
 13
284.636726
 23
185.015277
 33
0.0
  0
SOLID
  5
5F3
  8
BEM1
 10
335.063111
 20
184.431943
 30
0.0
 11
335.063111
 21
185.59861
 31
0.0
 12
331.563111
 22
185.015277
 32
0.0
 13
331.563111
 23
185.015277
 33
0.0
  0
LINE
  5
5F4
  8
BEM1
 10
331.563111
 20
186.157726
 30
0.0
 11
331.563111
 21
184.065898
 31
0.0
  0
LINE
  5
5F5
  8
05
 10
280.136876
 20
217.64467
 30
0.0
 11
278.636926
 21
219.14462
 31
0.0
  0
LINE
  5
5F6
  8
05
 10
279.712612
 20
217.220406
 30
0.0
 11
277.788398
 21
219.14462
 31
0.0
  0
LINE
  5
5F7
  8
05
 10
280.56114
 20
217.220406
 30
0.0
 11
282.485354
 21
219.14462
 31
0.0
  0
LINE
  5
5F8
  8
05
 10
280.136876
 20
217.64467
 30
0.0
 11
281.636826
 21
219.14462
 31
0.0
  0
LINE
  5
5F9
  8
05
 10
283.136776
 20
213.309815
 30
0.0
 11
283.136776
 21
221.84453
 31
0.0
  0
LINE
  5
5FA
  8
035
 62
     3
 10
280.136876
 20
217.64467
 30
0.0
 11
278.188382
 21
221.01956
 31
0.0
  0
LINE
  5
5FB
  8
035
 62
     3
 10
280.136876
 20
217.64467
 30
0.0
 11
282.345168
 21
221.469545
 31
0.0
  0
LINE
  5
5FC
  8
035
 10
283.136776
 20
209.409945
 30
0.0
 11
296.036326
 21
209.409945
 31
0.0
  0
LINE
  5
5FD
  8
035
 10
296.036326
 20
211.209885
 30
0.0
 11
283.136776
 21
211.209885
 31
0.0
  0
LINE
  5
5FE
  8
05
 10
283.136776
 20
201.14522
 30
0.0
 11
283.136776
 21
207.310015
 31
0.0
  0
LINE
  5
5FF
  8
035
 62
     3
 10
275.637026
 20
204.310115
 30
0.0
 11
277.15252
 21
206.935027
 31
0.0
  0
LINE
  5
600
  8
05
 10
289.136576
 20
206.54448
 30
0.0
 11
289.136576
 21
202.64446
 31
0.0
  0
LINE
  5
601
  8
05
 10
288.016998
 20
206.84447
 30
0.0
 11
288.016998
 21
202.34447
 31
0.0
  0
LINE
  5
602
  8
MITTE
 10
279.563856
 20
204.166815
 30
0.0
 11
285.908003
 21
204.166815
 31
0.0
  0
LINE
  5
603
  8
05
 10
283.136776
 20
206.41674
 30
0.0
 11
284.636726
 21
206.41674
 31
0.0
  0
LINE
  5
604
  8
05
 10
283.136776
 20
201.91689
 30
0.0
 11
284.636726
 21
201.91689
 31
0.0
  0
LINE
  5
605
  8
MITTE
 10
281.55158
 20
204.59447
 30
0.0
 11
291.919373
 21
204.59447
 31
0.0
  0
LINE
  5
606
  8
05
 10
276.06129
 20
201.7858
 30
0.0
 11
280.085554
 21
205.810065
 31
0.0
  0
LINE
  5
607
  8
05
 10
283.136776
 20
205.810065
 30
0.0
 11
276.503022
 21
205.810065
 31
0.0
  0
LINE
  5
608
  8
05
 10
276.06129
 20
203.88585
 30
0.0
 11
277.985504
 21
205.810065
 31
0.0
  0
LINE
  5
609
  8
05
 10
275.637026
 20
204.310115
 30
0.0
 11
277.136976
 21
205.810065
 31
0.0
  0
LINE
  5
60A
  8
05
 10
284.636726
 20
202.34447
 30
0.0
 11
288.016998
 21
202.34447
 31
0.0
  0
LINE
  5
60B
  8
05
 10
284.636726
 20
201.91689
 30
0.0
 11
284.636726
 21
206.41674
 31
0.0
  0
LINE
  5
60C
  8
05
 10
289.136576
 20
202.64446
 30
0.0
 11
288.016998
 21
202.34447
 31
0.0
  0
LINE
  5
60D
  8
05
 10
283.136776
 20
206.84447
 30
0.0
 11
288.016998
 21
206.84447
 31
0.0
  0
LINE
  5
60E
  8
035
 10
283.136776
 20
211.209885
 30
0.0
 11
283.136776
 21
213.309815
 31
0.0
  0
LINE
  5
60F
  8
035
 10
277.802017
 20
207.310015
 30
0.0
 11
283.136776
 21
207.310015
 31
0.0
  0
ARC
  5
610
  8
035
 10
277.802017
 20
206.56004
 30
0.0
 40
0.749975
 50
90.0
 51
150.0
  0
LINE
  5
611
  8
035
 10
283.136776
 20
207.310015
 30
0.0
 11
283.136776
 21
209.409945
 31
0.0
  0
ARC
  5
612
  8
05
 10
280.136876
 20
217.64467
 30
0.0
 40
0.6
 50
225.0
 51
315.0
  0
LINE
  5
613
  8
035
 10
277.802017
 20
213.309815
 30
0.0
 11
283.136776
 21
213.309815
 31
0.0
  0
LINE
  5
614
  8
05
 10
283.136776
 20
214.809765
 30
0.0
 11
276.503022
 21
214.809765
 31
0.0
  0
LINE
  5
615
  8
05
 10
276.06129
 20
216.733979
 30
0.0
 11
277.985504
 21
214.809765
 31
0.0
  0
LINE
  5
616
  8
05
 10
275.637026
 20
216.309715
 30
0.0
 11
277.136976
 21
214.809765
 31
0.0
  0
ARC
  5
617
  8
035
 10
277.802017
 20
214.05979
 30
0.0
 40
0.749975
 50
210.0
 51
270.0
  0
LINE
  5
618
  8
035
 62
     3
 10
275.637026
 20
216.309715
 30
0.0
 11
277.15252
 21
213.684802
 31
0.0
  0
LINE
  5
619
  8
05
 10
280.250548
 20
214.809765
 30
0.0
 11
283.136776
 21
217.695992
 31
0.0
  0
LINE
  5
61A
  8
05
 10
289.136576
 20
206.54448
 30
0.0
 11
288.016998
 21
206.84447
 31
0.0
  0
ARC
  5
61B
  8
035
 10
296.036326
 20
210.609885
 30
0.0
 40
0.6
 50
0.0
 51
90.0
  0
ARC
  5
61C
  8
035
 10
296.036326
 20
210.009945
 30
0.0
 40
0.6
 50
270.0
 51
0.0
  0
LINE
  5
61D
  8
035
 10
296.636326
 20
210.009945
 30
0.0
 11
296.636326
 21
210.609885
 31
0.0
  0
LINE
  5
61E
  8
MITTE
 10
278.148441
 20
233.169153
 30
0.0
 11
294.23939
 21
233.169153
 31
0.0
  0
LINE
  5
61F
  8
035
 10
283.136776
 20
238.433977
 30
0.0
 11
296.636326
 21
238.433977
 31
0.0
  0
LINE
  5
620
  8
035
 10
283.136776
 20
239.333947
 30
0.0
 11
296.636326
 21
239.333947
 31
0.0
  0
LINE
  5
621
  8
035
 10
283.136776
 20
240.338914
 30
0.0
 11
296.636326
 21
240.338914
 31
0.0
  0
LINE
  5
622
  8
035
 10
283.136776
 20
241.238884
 30
0.0
 11
296.636326
 21
241.238884
 31
0.0
  0
LINE
  5
623
  8
MITTE
 10
283.136776
 20
240.788899
 30
0.0
 11
296.636326
 21
240.788899
 31
0.0
  0
LINE
  5
624
  8
MITTE
 10
283.136776
 20
238.883962
 30
0.0
 11
296.636326
 21
238.883962
 31
0.0
  0
LINE
  5
625
  8
035
 10
290.183953
 20
221.462823
 30
0.0
 11
292.583873
 21
222.212798
 31
0.0
  0
LINE
  5
626
  8
035
 10
290.183953
 20
225.826117
 30
0.0
 11
292.583873
 21
225.076142
 31
0.0
  0
LINE
  5
627
  8
05
 10
280.56114
 20
230.068534
 30
0.0
 11
282.485354
 21
228.14432
 31
0.0
  0
LINE
  5
628
  8
05
 10
280.56114
 20
232.168584
 30
0.0
 11
283.136776
 21
229.592948
 31
0.0
  0
LINE
  5
629
  8
05
 10
279.712612
 20
232.168584
 30
0.0
 11
275.688348
 21
228.14432
 31
0.0
  0
LINE
  5
62A
  8
05
 10
279.712612
 20
230.068534
 30
0.0
 11
277.788398
 21
228.14432
 31
0.0
  0
LINE
  5
62B
  8
035
 10
282.994662
 20
225.44441
 30
0.0
 11
284.636726
 21
225.44441
 31
0.0
  0
LINE
  5
62C
  8
035
 10
282.994662
 20
221.84453
 30
0.0
 11
284.636726
 21
221.84453
 31
0.0
  0
ARC
  5
62D
  8
035
 62
     3
 10
277.538886
 20
220.64457
 30
0.0
 40
0.749975
 50
30.0
 51
180.0
  0
LINE
  5
62E
  8
035
 10
276.788911
 20
220.64457
 30
0.0
 11
276.788911
 21
219.14462
 31
0.0
  0
LINE
  5
62F
  8
05
 10
276.788911
 20
219.14462
 30
0.0
 11
279.270879
 21
219.14462
 31
0.0
  0
LINE
  5
630
  8
05
 10
281.002872
 20
219.14462
 30
0.0
 11
283.136776
 21
219.14462
 31
0.0
  0
ARC
  5
631
  8
035
 10
282.994664
 20
221.094555
 30
0.0
 40
0.749975
 50
90.0
 51
150.0
  0
LINE
  5
632
  8
05
 10
280.136876
 20
229.64427
 30
0.0
 11
278.636926
 21
228.14432
 31
0.0
  0
LINE
  5
633
  8
035
 62
     3
 10
280.136876
 20
229.64427
 30
0.0
 11
278.188383
 21
226.269383
 31
0.0
  0
ARC
  5
634
  8
035
 62
     3
 10
277.538886
 20
226.64437
 30
0.0
 40
0.749975
 50
180.0
 51
330.0
  0
LINE
  5
635
  8
035
 10
276.788911
 20
226.64437
 30
0.0
 11
276.788911
 21
228.14432
 31
0.0
  0
LINE
  5
636
  8
05
 10
279.270879
 20
228.14432
 30
0.0
 11
276.788911
 21
228.14432
 31
0.0
  0
LINE
  5
637
  8
05
 10
280.136876
 20
229.64427
 30
0.0
 11
281.636826
 21
228.14432
 31
0.0
  0
ARC
  5
638
  8
035
 10
282.994664
 20
226.194385
 30
0.0
 40
0.749975
 50
210.0
 51
270.0
  0
LINE
  5
639
  8
035
 62
     3
 10
280.136876
 20
229.64427
 30
0.0
 11
282.345168
 21
225.819396
 31
0.0
  0
LINE
  5
63A
  8
05
 10
283.136776
 20
228.14432
 30
0.0
 11
281.002872
 21
228.14432
 31
0.0
  0
LINE
  5
63B
  8
035
 10
284.82737
 20
221.835858
 30
0.0
 11
289.600381
 21
221.400739
 31
0.0
  0
ARC
  5
63C
  8
035
 10
284.636726
 20
219.7446
 30
0.0
 40
2.09993
 50
84.791179
 51
90.0
  0
ARC
  5
63D
  8
035
 10
289.736556
 20
222.894495
 30
0.0
 40
1.49995
 50
264.791179
 51
287.354084
  0
LINE
  5
63E
  8
035
 10
284.82737
 20
225.453082
 30
0.0
 11
289.600381
 21
225.888201
 31
0.0
  0
ARC
  5
63F
  8
035
 10
284.636726
 20
227.54434
 30
0.0
 40
2.09993
 50
270.0
 51
275.208821
  0
ARC
  5
640
  8
035
 10
289.736556
 20
224.394445
 30
0.0
 40
1.49995
 50
72.645916
 51
95.208821
  0
LINE
  5
641
  8
05
 10
283.136776
 20
236.169053
 30
0.0
 11
288.016998
 21
236.169053
 31
0.0
  0
LINE
  5
642
  8
05
 10
283.136776
 20
230.169253
 30
0.0
 11
288.016998
 21
230.169253
 31
0.0
  0
LINE
  5
643
  8
035
 10
275.850346
 20
235.220006
 30
0.0
 11
276.730098
 21
235.594896
 31
0.0
  0
LINE
  5
644
  8
035
 10
276.730098
 20
235.594896
 30
0.0
 11
277.839741
 21
234.470226
 31
0.0
  0
LINE
  5
645
  8
035
 10
278.709541
 20
236.438399
 30
0.0
 11
280.651416
 21
234.470226
 31
0.0
  0
ARC
  5
646
  8
05
 10
280.136876
 20
229.64427
 30
0.0
 40
0.6
 50
45.0
 51
135.0
  0
ARC
  5
647
  8
05
 10
280.136876
 20
231.74432
 30
0.0
 40
0.6
 50
45.0
 51
135.0
  0
LINE
  5
648
  8
035
 10
277.839741
 20
234.470226
 30
0.0
 11
280.651416
 21
234.470226
 31
0.0
  0
LINE
  5
649
  8
035
 10
275.684124
 20
234.470226
 30
0.0
 11
275.850346
 21
235.220006
 31
0.0
  0
LINE
  5
64A
  8
035
 10
278.50463
 20
237.469346
 30
0.0
 11
281.12886
 21
237.469346
 31
0.0
  0
LINE
  5
64B
  8
035
 10
278.709541
 20
236.438399
 30
0.0
 11
281.12886
 21
237.469346
 31
0.0
  0
LINE
  5
64C
  8
035
 10
276.124124
 20
236.454938
 30
0.0
 11
278.50463
 21
237.469346
 31
0.0
  0
LINE
  5
64D
  8
035
 10
276.124124
 20
236.454938
 30
0.0
 11
276.349013
 21
237.469346
 31
0.0
  0
LINE
  5
64E
  8
05
 10
289.136576
 20
230.469243
 30
0.0
 11
289.136576
 21
235.869063
 31
0.0
  0
LINE
  5
64F
  8
05
 10
288.016998
 20
230.169253
 30
0.0
 11
288.016998
 21
236.169053
 31
0.0
  0
LINE
  5
650
  8
05
 10
289.136576
 20
230.469243
 30
0.0
 11
288.016998
 21
230.169253
 31
0.0
  0
LINE
  5
651
  8
05
 10
289.136576
 20
235.869063
 30
0.0
 11
288.016998
 21
236.169053
 31
0.0
  0
ARC
  5
652
  8
035
 10
292.136476
 20
223.64447
 30
0.0
 40
1.49995
 50
287.354025
 51
72.645975
  0
LINE
  5
653
  8
035
 10
296.636326
 20
238.433977
 30
0.0
 11
296.636326
 21
239.333947
 31
0.0
  0
LINE
  5
654
  8
035
 10
296.636326
 20
240.338914
 30
0.0
 11
296.636326
 21
241.238884
 31
0.0
  0
LINE
  5
655
  8
05
 10
332.762511
 20
234.036775
 30
0.0
 11
332.762511
 21
213.252165
 31
0.0
  0
TEXT
  5
656
  8
TOL
 10
313.953466
 20
213.929863
 30
0.0
 40
2.5
  1
%%P0.1
 50
90.0
 41
0.7
 51
15.0
  0
LINE
  5
657
  8
BEM1
 10
332.872225
 20
201.14522
 30
0.0
 11
315.867805
 21
201.14522
 31
0.0
  0
SOLID
  5
658
  8
BEM1
 10
318.251138
 20
204.64522
 30
0.0
 11
317.084472
 21
204.64522
 31
0.0
 12
317.667805
 22
201.14522
 32
0.0
 13
317.667805
 23
201.14522
 33
0.0
  0
LINE
  5
659
  8
05
 10
332.763111
 20
204.14512
 30
0.0
 11
332.763111
 21
211.435762
 31
0.0
  0
LINE
  5
65A
  8
05
 10
331.563111
 20
201.610065
 30
0.0
 11
334.158987
 21
201.610065
 31
0.0
  0
ARC
  5
65B
  8
05
 10
335.763011
 20
204.14512
 30
0.0
 40
2.9999
 50
180.0
 51
270.0
  0
LINE
  5
65C
  8
05
 10
331.563111
 20
205.810065
 30
0.0
 11
332.763111
 21
205.810065
 31
0.0
  0
LINE
  5
65D
  8
05
 10
331.563111
 20
201.610065
 30
0.0
 11
331.563111
 21
205.810065
 31
0.0
  0
LINE
  5
65E
  8
05
 10
236.638326
 20
246.14372
 30
0.0
 11
283.136776
 21
246.14372
 31
0.0
  0
LINE
  5
65F
  8
05
 10
212.639126
 20
246.14372
 30
0.0
 11
215.639026
 21
246.14372
 31
0.0
  0
LINE
  5
660
  8
0
 62
     4
 10
215.626084
 20
246.14372
 30
0.0
 11
215.639026
 21
246.130778
 31
0.0
  0
LINE
  5
661
  8
05
 10
227.638626
 20
246.14372
 30
0.0
 11
230.638526
 21
246.14372
 31
0.0
  0
LINE
  5
662
  8
05
 10
230.938516
 20
241.538874
 30
0.0
 11
230.638526
 21
241.538874
 31
0.0
  0
LINE
  5
663
  8
05
 10
230.638526
 20
246.14372
 30
0.0
 11
230.938516
 21
241.538874
 31
0.0
  0
LINE
  5
664
  8
BEM1
 10
333.010783
 20
246.14372
 30
0.0
 11
315.867805
 21
246.14372
 31
0.0
  0
SOLID
  5
665
  8
BEM1
 10
318.251138
 20
242.64372
 30
0.0
 11
317.084472
 21
242.64372
 31
0.0
 12
317.667805
 22
246.14372
 32
0.0
 13
317.667805
 23
246.14372
 33
0.0
  0
LINE
  5
666
  8
BEM1
 10
329.013236
 20
247.442886
 30
0.0
 11
329.013236
 21
263.77071
 31
0.0
  0
ARC
  5
667
  8
05
 10
335.763011
 20
243.14382
 30
0.0
 40
2.9999
 50
90.0
 51
180.0
  0
SOLID
  5
668
  8
BEM1
 10
332.513236
 20
261.387377
 30
0.0
 11
332.513236
 21
262.554044
 31
0.0
 12
329.013236
 22
261.97071
 32
0.0
 13
329.013236
 23
261.97071
 33
0.0
  0
TEXT
  5
669
  8
BEM1
 62
     3
 10
329.504784
 20
264.881153
 30
0.0
 40
3.5
  1
%%c
 41
0.7
 51
15.0
  0
TEXT
  5
66A
  8
BEM1
 62
     3
 10
385.095842
 20
248.653358
 30
0.0
 40
3.5
  1
SW12
 50
300.0
 41
0.7
 51
15.0
 72
     1
 11
388.85722
 21
245.638461
 31
0.0
 73
     2
  0
LINE
  5
66B
  8
BEM1
 10
378.576131
 20
256.445829
 30
0.0
 11
393.076131
 21
231.331092
 31
0.0
  0
LINE
  5
66C
  8
05
 10
368.761911
 20
235.853179
 30
0.0
 11
368.761911
 21
243.14382
 31
0.0
  0
LINE
  5
66D
  8
05
 10
368.762511
 20
234.036775
 30
0.0
 11
350.762511
 21
244.42908
 31
0.0
  0
LINE
  5
66E
  8
BEM1
 10
372.511786
 20
224.44447
 30
0.0
 11
372.511786
 21
263.77071
 31
0.0
  0
LINE
  5
66F
  8
MITTE
 10
350.762511
 20
199.529977
 30
0.0
 11
350.762511
 21
248.908289
 31
0.0
  0
LINE
  5
670
  8
BEM1
 10
369.961911
 20
200.810065
 30
0.0
 11
369.961911
 21
191.446934
 31
0.0
  0
TEXT
  5
671
  8
TOL
 10
360.103563
 20
187.173958
 30
0.0
 40
2.5
  1
%%P0.004"
 41
0.7
 51
15.0
  0
SOLID
  5
672
  8
BEM1
 10
366.461911
 20
184.431943
 30
0.0
 11
366.461911
 21
185.59861
 31
0.0
 12
369.961911
 22
185.015277
 32
0.0
 13
369.961911
 23
185.015277
 33
0.0
  0
LINE
  5
673
  8
BEM1
 10
369.961911
 20
186.072884
 30
0.0
 11
369.961911
 21
183.93575
 31
0.0
  0
LINE
  5
674
  8
BEM1
 10
369.455331
 20
213.652165
 30
0.0
 11
396.384977
 21
229.200003
 31
0.0
  0
LINE
  5
675
  8
05
 10
368.762511
 20
213.252165
 30
0.0
 11
368.762511
 21
234.036775
 31
0.0
  0
LINE
  5
676
  8
05
 10
344.762711
 20
218.939311
 30
0.0
 11
344.762711
 21
215.959513
 31
0.0
  0
ARC
  5
677
  8
05
 10
350.762511
 20
223.64447
 30
0.0
 40
6.29979
 50
221.868306
 51
318.131694
  0
LINE
  5
678
  8
05
 10
356.762311
 20
218.939311
 30
0.0
 11
356.762311
 21
215.959513
 31
0.0
  0
LINE
  5
679
  8
05
 10
350.762511
 20
202.85986
 30
0.0
 11
368.762511
 21
213.252165
 31
0.0
  0
LINE
  5
67A
  8
05
 10
368.761911
 20
204.14512
 30
0.0
 11
368.761911
 21
211.435762
 31
0.0
  0
ARC
  5
67B
  8
05
 10
365.762011
 20
204.14512
 30
0.0
 40
2.9999
 50
270.0
 51
0.0
  0
LINE
  5
67C
  8
05
 10
367.366035
 20
201.610065
 30
0.0
 11
369.961911
 21
201.610065
 31
0.0
  0
LINE
  5
67D
  8
05
 10
368.761911
 20
205.810065
 30
0.0
 11
369.961911
 21
205.810065
 31
0.0
  0
LINE
  5
67E
  8
05
 10
369.961911
 20
201.610065
 30
0.0
 11
369.961911
 21
205.810065
 31
0.0
  0
LINE
  5
67F
  8
05
 10
341.762811
 20
227.394345
 30
0.0
 11
359.762211
 21
227.394345
 31
0.0
  0
ARC
  5
680
  8
05
 10
345.512686
 20
218.939311
 30
0.0
 40
0.749975
 50
41.868306
 51
180.0
  0
ARC
  5
681
  8
05
 10
356.012336
 20
218.939311
 30
0.0
 40
0.749975
 50
0.0
 51
138.131694
  0
SOLID
  5
682
  8
BEM1
 10
393.581313
 20
231.622759
 30
0.0
 11
392.57095
 21
231.039425
 31
0.0
 12
394.826131
 22
228.300003
 32
0.0
 13
394.826131
 23
228.300003
 33
0.0
  0
LINE
  5
683
  8
BEM1
 10
351.455331
 20
244.82908
 30
0.0
 11
378.384977
 21
260.376918
 31
0.0
  0
ARC
  5
684
  8
05
 10
365.762011
 20
243.14382
 30
0.0
 40
2.9999
 50
0.0
 51
90.0
  0
SOLID
  5
685
  8
BEM1
 10
369.011786
 20
261.387377
 30
0.0
 11
369.011786
 21
262.554044
 31
0.0
 12
372.511786
 22
261.97071
 32
0.0
 13
372.511786
 23
261.97071
 33
0.0
  0
TEXT
  5
686
  8
TOL
 10
341.520189
 20
265.518633
 30
0.0
 40
2.5
  1
%%P0.1
 41
0.7
 51
15.0
  0
TEXT
  5
687
  8
TOL
 10
359.260286
 20
265.211102
 30
0.0
 40
2.5
  1
%%P0.004"
 41
0.7
 51
15.0
  0
SOLID
  5
688
  8
BEM1
 10
379.081313
 20
256.737496
 30
0.0
 11
378.07095
 21
256.154162
 31
0.0
 12
376.826131
 22
259.476918
 32
0.0
 13
376.826131
 23
259.476918
 33
0.0
  0
ENDSEC
  0
EOF
